  0
SECTION
  2
HEADER
  9
$ACADVER
  1
AC1014
  9
$ACADMAINTVER
 70
     9
  9
$DWGCODEPAGE
  3
ANSI_932
  9
$INSBASE
 10
0.0
 20
0.0
 30
0.0
  9
$EXTMIN
 10
125.1244118168
 20
36.91166627272728
 30
0.0
  9
$EXTMAX
 10
284.5402491902137
 20
104.1761764708
 30
0.0
  9
$LIMMIN
 10
0.0
 20
0.0
  9
$LIMMAX
 10
12.0
 20
9.0
  9
$ORTHOMODE
 70
     0
  9
$REGENMODE
 70
     1
  9
$FILLMODE
 70
     1
  9
$QTEXTMODE
 70
     0
  9
$MIRRTEXT
 70
     1
  9
$DRAGMODE
 70
     2
  9
$LTSCALE
 40
1.0
  9
$OSMODE
 70
    37
  9
$ATTMODE
 70
     1
  9
$TEXTSIZE
 40
0.2
  9
$TRACEWID
 40
0.05
  9
$TEXTSTYLE
  7
STANDARD
  9
$CLAYER
  8
0
  9
$CELTYPE
  6
BYLAYER
  9
$CECOLOR
 62
   256
  9
$CELTSCALE
 40
1.0
  9
$DELOBJ
 70
     1
  9
$DISPSILH
 70
     0
  9
$DIMSCALE
 40
1.0
  9
$DIMASZ
 40
2.0
  9
$DIMEXO
 40
0.0625
  9
$DIMDLI
 40
0.38
  9
$DIMRND
 40
0.0
  9
$DIMDLE
 40
0.0
  9
$DIMEXE
 40
1.0
  9
$DIMTP
 40
0.0
  9
$DIMTM
 40
0.0
  9
$DIMTXT
 40
3.5
  9
$DIMCEN
 40
0.09
  9
$DIMTSZ
 40
0.0
  9
$DIMTOL
 70
     0
  9
$DIMLIM
 70
     0
  9
$DIMTIH
 70
     1
  9
$DIMTOH
 70
     1
  9
$DIMSE1
 70
     0
  9
$DIMSE2
 70
     0
  9
$DIMTAD
 70
     1
  9
$DIMZIN
 70
     0
  9
$DIMBLK
  1

  9
$DIMASO
 70
     1
  9
$DIMSHO
 70
     1
  9
$DIMPOST
  1

  9
$DIMAPOST
  1

  9
$DIMALT
 70
     0
  9
$DIMALTD
 70
     2
  9
$DIMALTF
 40
25.4
  9
$DIMLFAC
 40
1.0
  9
$DIMTOFL
 70
     0
  9
$DIMTVP
 40
0.0
  9
$DIMTIX
 70
     0
  9
$DIMSOXD
 70
     0
  9
$DIMSAH
 70
     0
  9
$DIMBLK1
  1

  9
$DIMBLK2
  1

  9
$DIMSTYLE
  2
STANDARD
  9
$DIMCLRD
 70
     0
  9
$DIMCLRE
 70
     0
  9
$DIMCLRT
 70
     0
  9
$DIMTFAC
 40
1.0
  9
$DIMGAP
 40
1.75
  9
$DIMJUST
 70
     0
  9
$DIMSD1
 70
     0
  9
$DIMSD2
 70
     0
  9
$DIMTOLJ
 70
     1
  9
$DIMTZIN
 70
     0
  9
$DIMALTZ
 70
     0
  9
$DIMALTTZ
 70
     0
  9
$DIMFIT
 70
     3
  9
$DIMUPT
 70
     0
  9
$DIMUNIT
 70
     2
  9
$DIMDEC
 70
     2
  9
$DIMTDEC
 70
     4
  9
$DIMALTU
 70
     2
  9
$DIMALTTD
 70
     2
  9
$DIMTXSTY
  7
ＭＳ_ゴシック
  9
$DIMAUNIT
 70
     0
  9
$LUNITS
 70
     2
  9
$LUPREC
 70
     4
  9
$SKETCHINC
 40
0.1
  9
$FILLETRAD
 40
0.5
  9
$AUNITS
 70
     0
  9
$AUPREC
 70
     0
  9
$MENU
  1
.
  9
$ELEVATION
 40
0.0
  9
$PELEVATION
 40
0.0
  9
$THICKNESS
 40
0.0
  9
$LIMCHECK
 70
     0
  9
$CHAMFERA
 40
0.0
  9
$CHAMFERB
 40
0.0
  9
$CHAMFERC
 40
0.0
  9
$CHAMFERD
 40
0.0
  9
$SKPOLY
 70
     0
  9
$TDCREATE
 40
2459187.577110671
  9
$TDUPDATE
 40
2459187.577110845
  9
$TDINDWG
 40
0.0000000116
  9
$TDUSRTIMER
 40
0.0000000116
  9
$USRTIMER
 70
     1
  9
$ANGBASE
 50
0.0
  9
$ANGDIR
 70
     0
  9
$PDMODE
 70
     0
  9
$PDSIZE
 40
0.0
  9
$PLINEWID
 40
0.0
  9
$COORDS
 70
     1
  9
$SPLFRAME
 70
     0
  9
$SPLINETYPE
 70
     6
  9
$SPLINESEGS
 70
     8
  9
$ATTDIA
 70
     0
  9
$ATTREQ
 70
     1
  9
$HANDLING
 70
     1
  9
$HANDSEED
  5
25A
  9
$SURFTAB1
 70
     6
  9
$SURFTAB2
 70
     6
  9
$SURFTYPE
 70
     6
  9
$SURFU
 70
     6
  9
$SURFV
 70
     6
  9
$UCSNAME
  2

  9
$UCSORG
 10
0.0
 20
0.0
 30
0.0
  9
$UCSXDIR
 10
1.0
 20
0.0
 30
0.0
  9
$UCSYDIR
 10
0.0
 20
1.0
 30
0.0
  9
$PUCSNAME
  2

  9
$PUCSORG
 10
0.0
 20
0.0
 30
0.0
  9
$PUCSXDIR
 10
1.0
 20
0.0
 30
0.0
  9
$PUCSYDIR
 10
0.0
 20
1.0
 30
0.0
  9
$USERI1
 70
     0
  9
$USERI2
 70
     0
  9
$USERI3
 70
     0
  9
$USERI4
 70
     0
  9
$USERI5
 70
     0
  9
$USERR1
 40
0.0
  9
$USERR2
 40
0.0
  9
$USERR3
 40
0.0
  9
$USERR4
 40
0.0
  9
$USERR5
 40
0.0
  9
$WORLDVIEW
 70
     1
  9
$SHADEDGE
 70
     3
  9
$SHADEDIF
 70
    70
  9
$TILEMODE
 70
     1
  9
$MAXACTVP
 70
    64
  9
$PINSBASE
 10
0.0
 20
0.0
 30
0.0
  9
$PLIMCHECK
 70
     0
  9
$PEXTMIN
 10
1.000000000000000E+20
 20
1.000000000000000E+20
 30
1.000000000000000E+20
  9
$PEXTMAX
 10
-1.000000000000000E+20
 20
-1.000000000000000E+20
 30
-1.000000000000000E+20
  9
$PLIMMIN
 10
0.0
 20
0.0
  9
$PLIMMAX
 10
12.0
 20
9.0
  9
$UNITMODE
 70
     0
  9
$VISRETAIN
 70
     1
  9
$PLINEGEN
 70
     0
  9
$PSLTSCALE
 70
     1
  9
$TREEDEPTH
 70
  3020
  9
$PICKSTYLE
 70
     1
  9
$CMLSTYLE
  2
STANDARD
  9
$CMLJUST
 70
     0
  9
$CMLSCALE
 40
1.0
  9
$PROXYGRAPHICS
 70
     1
  9
$MEASUREMENT
 70
     1
  0
ENDSEC
  0
SECTION
  2
CLASSES
  0
CLASS
  1
ACDBDICTIONARYWDFLT
  2
AcDbDictionaryWithDefault
  3
ObjectDBX Classes
 90
        0
280
     0
281
     0
  0
CLASS
  1
VISUALSTYLE
  2
AcDbVisualStyle
  3
ObjectDBX Classes
 90
     4095
280
     0
281
     0
  0
CLASS
  1
MATERIAL
  2
AcDbMaterial
  3
ObjectDBX Classes
 90
     1153
280
     0
281
     0
  0
CLASS
  1
SCALE
  2
AcDbScale
  3
ObjectDBX Classes
 90
     1153
280
     0
281
     0
  0
CLASS
  1
TABLESTYLE
  2
AcDbTableStyle
  3
ObjectDBX Classes
 90
     4095
280
     0
281
     0
  0
CLASS
  1
MLEADERSTYLE
  2
AcDbMLeaderStyle
  3
ACDB_MLEADERSTYLE_CLASS
 90
     4095
280
     0
281
     0
  0
CLASS
  1
SUN
  2
AcDbSun
  3
SCENEOE
 90
     1153
280
     0
281
     0
  0
CLASS
  1
DICTIONARYVAR
  2
AcDbDictionaryVar
  3
ObjectDBX Classes
 90
        0
280
     0
281
     0
  0
CLASS
  1
XRECORD
  2
AcDbXrecord
  3
ObjectDBX Classes
 90
        0
280
     0
281
     0
  0
CLASS
  1
LWPOLYLINE
  2
AcDbPolyline
  3
ObjectDBX Classes
 90
        0
280
     0
281
     1
  0
CLASS
  1
HATCH
  2
AcDbHatch
  3
ObjectDBX Classes
 90
        0
280
     0
281
     1
  0
CLASS
  1
ACDBPLACEHOLDER
  2
AcDbPlaceHolder
  3
ObjectDBX Classes
 90
        0
280
     0
281
     0
  0
CLASS
  1
LAYOUT
  2
AcDbLayout
  3
ObjectDBX Classes
 90
        0
280
     0
281
     0
  0
ENDSEC
  0
SECTION
  2
TABLES
  0
TABLE
  2
VPORT
  5
8
102
{ACAD_XDICTIONARY
360
24F
102
}
330
0
100
AcDbSymbolTable
 70
     1
  0
VPORT
  5
29
330
8
100
AcDbSymbolTableRecord
100
AcDbViewportTableRecord
  2
*ACTIVE
 70
     0
 10
0.0
 20
0.0
 11
1.0
 21
1.0
 12
204.8323305035069
 22
70.54392137176364
 13
0.0
 23
0.0
 14
0.5
 24
0.5
 15
0.5
 25
0.5
 16
0.0
 26
0.0
 36
1.0
 17
0.0
 27
0.0
 37
0.0
 40
67.26451019807271
 41
1.6
 42
50.0
 43
0.0
 44
0.0
 50
0.0
 51
0.0
 71
     0
 72
   100
 73
     1
 74
     3
 75
     0
 76
     0
 77
     0
 78
     0
  0
ENDTAB
  0
TABLE
  2
LTYPE
  5
5
330
0
100
AcDbSymbolTable
 70
     2
  0
LTYPE
  5
14
330
5
100
AcDbSymbolTableRecord
100
AcDbLinetypeTableRecord
  2
BYBLOCK
 70
     0
  3

 72
    65
 73
     0
 40
0.0
  0
LTYPE
  5
15
330
5
100
AcDbSymbolTableRecord
100
AcDbLinetypeTableRecord
  2
BYLAYER
 70
     0
  3

 72
    65
 73
     0
 40
0.0
  0
LTYPE
  5
16
330
5
100
AcDbSymbolTableRecord
100
AcDbLinetypeTableRecord
  2
CONTINUOUS
 70
     0
  3
Solid line
 72
    65
 73
     0
 40
0.0
  0
LTYPE
  5
1AA
330
5
100
AcDbSymbolTableRecord
100
AcDbLinetypeTableRecord
  2
CENTER
 70
     0
  3

 72
    65
 73
     0
 40
0.0
  0
ENDTAB
  0
TABLE
  2
LAYER
  5
2
330
0
100
AcDbSymbolTable
 70
     2
  0
LAYER
  5
10
330
2
100
AcDbSymbolTableRecord
100
AcDbLayerTableRecord
  2
0
 70
     0
 62
     7
  6
CONTINUOUS
  0
LAYER
  5
6E
330
2
100
AcDbSymbolTableRecord
100
AcDbLayerTableRecord
  2
1
 70
     0
 62
     7
  6
CONTINUOUS
  0
ENDTAB
  0
TABLE
  2
STYLE
  5
3
330
0
100
AcDbSymbolTable
 70
     2
  0
STYLE
  5
11
330
3
100
AcDbSymbolTableRecord
100
AcDbTextStyleTableRecord
  2
STANDARD
 70
     0
 40
0.0
 41
1.0
 50
0.0
 71
     0
 42
0.2
  3
txt
  4

  0
STYLE
  5
6F
330
3
100
AcDbSymbolTableRecord
100
AcDbTextStyleTableRecord
  2
ＭＳ_ゴシック
 70
     0
 40
0.0
 41
1.0
 50
0.0
 71
     0
 42
0.2
  3
ＭＳ ゴシック.shx
  4

  0
ENDTAB
  0
TABLE
  2
VIEW
  5
6
330
0
100
AcDbSymbolTable
 70
     0
  0
ENDTAB
  0
TABLE
  2
UCS
  5
7
330
0
100
AcDbSymbolTable
 70
     0
  0
ENDTAB
  0
TABLE
  2
APPID
  5
9
330
0
100
AcDbSymbolTable
 70
     2
  0
APPID
  5
12
330
9
100
AcDbSymbolTableRecord
100
AcDbRegAppTableRecord
  2
ACAD
 70
     0
  0
APPID
  5
259
330
9
100
AcDbSymbolTableRecord
100
AcDbRegAppTableRecord
  2
ACAD_MLEADERVER
 70
     0
  0
ENDTAB
  0
TABLE
  2
DIMSTYLE
  5
A
330
0
100
AcDbSymbolTable
 70
     1
  0
DIMSTYLE
105
27
330
A
100
AcDbSymbolTableRecord
100
AcDbDimStyleTableRecord
  2
STANDARD
 70
     0
  3

  4

  5

  6

  7

 40
1.0
 41
0.18
 42
0.0625
 43
0.38
 44
0.18
 45
0.0
 46
0.0
 47
0.0
 48
0.0
140
0.18
141
0.09
142
0.0
143
25.4
144
1.0
145
0.0
146
1.0
147
0.09
 71
     0
 72
     0
 73
     1
 74
     1
 75
     0
 76
     0
 77
     0
 78
     0
170
     0
171
     2
172
     0
173
     0
174
     0
175
     0
176
     0
177
     0
178
     0
270
     2
271
     4
272
     4
273
     2
274
     2
340
11
275
     0
280
     0
281
     0
282
     0
283
     1
284
     0
285
     0
286
     0
287
     3
288
     0
  0
ENDTAB
  0
TABLE
  2
BLOCK_RECORD
  5
1
330
0
100
AcDbSymbolTable
 70
     0
  0
BLOCK_RECORD
  5
1F
330
1
100
AcDbSymbolTableRecord
100
AcDbBlockTableRecord
  2
*MODEL_SPACE
  0
BLOCK_RECORD
  5
1B
330
1
100
AcDbSymbolTableRecord
100
AcDbBlockTableRecord
  2
*PAPER_SPACE
  0
ENDTAB
  0
ENDSEC
  0
SECTION
  2
BLOCKS
  0
BLOCK
  5
20
330
1F
100
AcDbEntity
  8
0
100
AcDbBlockBegin
  2
*MODEL_SPACE
 70
     0
 10
0.0
 20
0.0
 30
0.0
  3
*MODEL_SPACE
  1

  0
ENDBLK
  5
21
330
1F
100
AcDbEntity
  8
0
100
AcDbBlockEnd
  0
BLOCK
  5
1C
330
1B
100
AcDbEntity
 67
     1
  8
0
100
AcDbBlockBegin
  2
*PAPER_SPACE
 70
     0
 10
0.0
 20
0.0
 30
0.0
  3
*PAPER_SPACE
  1

  0
ENDBLK
  5
1D
330
1B
100
AcDbEntity
 67
     1
  8
0
100
AcDbBlockEnd
  0
ENDSEC
  0
SECTION
  2
ENTITIES
  0
MTEXT
  5
70
330
1F
100
AcDbEntity
  8
1
 62
     7
100
AcDbMText
 10
252.5117964392684
 20
39.99802990909092
 30
0.0
 40
3.5
 41
0.0
 71
     1
 72
     1
  1
{\fＭＳ ゴシック;\W0.998727;\Q14.999825;ＦＰＫ－２２ＹＰ}
  0
LINE
  5
71
330
1F
100
AcDbEntity
  8
1
  6
CONTINUOUS
 62
     5
100
AcDbLine
 10
266.1244118168
 20
55.4906974675
 30
0.0
 11
256.1244118168
 21
55.4906974675
 31
0.0
  0
LINE
  5
72
330
1F
100
AcDbEntity
  8
1
  6
CONTINUOUS
 62
     5
100
AcDbLine
 10
266.1244118168
 20
55.1094924675
 30
0.0
 11
256.1244118168
 21
55.1094924675
 31
0.0
  0
ARC
  5
73
330
1F
100
AcDbEntity
  8
1
  6
CONTINUOUS
 62
     7
100
AcDbCircle
 10
266.1244118168
 20
95.9261764675
 30
0.0
 40
2.0
100
AcDbArc
 50
0.0
 51
90.0
  0
LINE
  5
74
330
1F
100
AcDbEntity
  8
1
  6
CONTINUOUS
 62
     5
100
AcDbLine
 10
266.1244118168
 20
54.8114284675
 30
0.0
 11
256.1244118168
 21
54.8114284675
 31
0.0
  0
ARC
  5
75
330
1F
100
AcDbEntity
  8
1
  6
CONTINUOUS
 62
     7
100
AcDbCircle
 10
269.6244118168
 20
56.6761764675
 30
0.0
 40
1.5
100
AcDbArc
 50
90.0
 51
180.0
  0
LINE
  5
76
330
1F
100
AcDbEntity
  8
1
  6
CONTINUOUS
 62
     7
100
AcDbLine
 10
271.1244118168
 20
58.1761764675
 30
0.0
 11
269.6244118168
 21
58.1761764675
 31
0.0
  0
LINE
  5
77
330
1F
100
AcDbEntity
  8
1
  6
CONTINUOUS
 62
     5
100
AcDbLine
 10
266.1244118168
 20
54.5976814675
 30
0.0
 11
256.1244118168
 21
54.5976814675
 31
0.0
  0
LINE
  5
78
330
1F
100
AcDbEntity
  8
1
  6
CONTINUOUS
 62
     5
100
AcDbLine
 10
266.1244118168
 20
54.4690954675
 30
0.0
 11
256.1244118168
 21
54.4690954675
 31
0.0
  0
LINE
  5
79
330
1F
100
AcDbEntity
  8
1
  6
CONTINUOUS
 62
     7
100
AcDbLine
 10
269.6244118168
 20
94.1761764675
 30
0.0
 11
271.1244118168
 21
94.1761764675
 31
0.0
  0
ARC
  5
7A
330
1F
100
AcDbEntity
  8
1
  6
CONTINUOUS
 62
     7
100
AcDbCircle
 10
269.6244118168
 20
95.6761764675
 30
0.0
 40
1.5
100
AcDbArc
 50
180.0
 51
270.0
  0
LINE
  5
7B
330
1F
100
AcDbEntity
  8
1
  6
CONTINUOUS
 62
     5
100
AcDbLine
 10
266.1244118168
 20
96.8616554675
 30
0.0
 11
256.1244118168
 21
96.8616554675
 31
0.0
  0
LINE
  5
7C
330
1F
100
AcDbEntity
  8
1
  6
CONTINUOUS
 62
     5
100
AcDbLine
 10
266.1244118168
 20
97.7546714675
 30
0.0
 11
256.1244118168
 21
97.7546714675
 31
0.0
  0
ARC
  5
7D
330
1F
100
AcDbEntity
  8
1
  6
CONTINUOUS
 62
     7
100
AcDbCircle
 10
266.1244118168
 20
56.4261764675
 30
0.0
 40
2.0
100
AcDbArc
 50
270.0
 51
0.0
  0
LINE
  5
7E
330
1F
100
AcDbEntity
  8
1
  6
CONTINUOUS
 62
     5
100
AcDbLine
 10
266.1244118168
 20
97.5409244675
 30
0.0
 11
256.1244118168
 21
97.5409244675
 31
0.0
  0
LINE
  5
7F
330
1F
100
AcDbEntity
  8
1
  6
CONTINUOUS
 62
     5
100
AcDbLine
 10
266.1244118168
 20
55.9535374675
 30
0.0
 11
256.1244118168
 21
55.9535374675
 31
0.0
  0
LINE
  5
80
330
1F
100
AcDbEntity
  8
1
  6
CONTINUOUS
 62
     5
100
AcDbLine
 10
266.1244118168
 20
97.2428604675
 30
0.0
 11
256.1244118168
 21
97.2428604675
 31
0.0
  0
LINE
  5
81
330
1F
100
AcDbEntity
  8
1
  6
CONTINUOUS
 62
     5
100
AcDbLine
 10
266.1244118168
 20
97.8832574675
 30
0.0
 11
256.1244118168
 21
97.8832574675
 31
0.0
  0
LINE
  5
82
330
1F
100
AcDbEntity
  8
1
  6
CONTINUOUS
 62
     7
100
AcDbLine
 10
139.2682778168
 20
70.9066104648
 30
0.0
 11
139.0024328168
 21
71.4719234648
 31
0.0
  0
LINE
  5
83
330
1F
100
AcDbEntity
  8
1
  6
CONTINUOUS
 62
     7
100
AcDbLine
 10
162.2930638168
 20
64.8807774648
 30
0.0
 11
162.4895398168
 21
64.6844914648
 31
0.0
  0
LINE
  5
84
330
1F
100
AcDbEntity
  8
1
  6
CONTINUOUS
 62
     7
100
AcDbLine
 10
167.7064628168
 20
79.1626604648
 30
0.0
 11
167.7588128168
 21
78.5406264648
 31
0.0
  0
LINE
  5
85
330
1F
100
AcDbEntity
  8
1
  6
CONTINUOUS
 62
     7
100
AcDbLine
 10
164.6158028168
 20
66.8107554648
 30
0.0
 11
164.4195178168
 21
67.0072314648
 31
0.0
  0
LINE
  5
86
330
1F
100
AcDbEntity
  8
1
  6
CONTINUOUS
 62
     7
100
AcDbLine
 10
164.6158028168
 20
66.8107554648
 30
0.0
 11
164.2591508168
 21
66.2978704648
 31
0.0
  0
LINE
  5
87
330
1F
100
AcDbEntity
  8
1
  6
CONTINUOUS
 62
     7
100
AcDbLine
 10
166.7122498168
 20
70.9783604648
 30
0.0
 11
166.9805458168
 21
70.9066104648
 31
0.0
  0
LINE
  5
88
330
1F
100
AcDbEntity
  8
1
  6
CONTINUOUS
 62
     7
100
AcDbLine
 10
147.8551388168
 20
90.0320174648
 30
0.0
 11
147.9268888168
 21
89.7637214648
 31
0.0
  0
LINE
  5
89
330
1F
100
AcDbEntity
  8
1
  6
CONTINUOUS
 62
     7
100
AcDbLine
 10
141.8061618168
 20
67.0754064648
 30
0.0
 11
141.8329798168
 21
67.0084864648
 31
0.0
  0
LINE
  5
8A
330
1F
100
AcDbEntity
  8
1
  6
CONTINUOUS
 62
     7
100
AcDbLine
 10
166.9805458168
 20
81.4451564648
 30
0.0
 11
167.2464468168
 21
80.8796784648
 31
0.0
  0
LINE
  5
8B
330
1F
100
AcDbEntity
  8
1
  6
CONTINUOUS
 62
     7
100
AcDbLine
 10
141.8061818168
 20
85.2763844648
 30
0.0
 11
141.8329798168
 21
85.3432784648
 31
0.0
  0
LINE
  5
8C
330
1F
100
AcDbEntity
  8
1
  6
CONTINUOUS
 62
     7
100
AcDbLine
 10
144.0240118168
 20
87.4941924648
 30
0.0
 11
143.9566008168
 21
87.4675564648
 31
0.0
  0
LINE
  5
8D
330
1F
100
AcDbEntity
  8
1
  6
CONTINUOUS
 62
     7
100
AcDbLine
 10
141.9895198168
 20
66.2980884648
 30
0.0
 11
141.6330208168
 21
66.8107554648
 31
0.0
  0
LINE
  5
8E
330
1F
100
AcDbEntity
  8
1
  6
CONTINUOUS
 62
     7
100
AcDbLine
 10
147.8551388168
 20
90.0320174648
 30
0.0
 11
148.4272248168
 21
90.3003894648
 31
0.0
  0
LINE
  5
8F
330
1F
100
AcDbEntity
  8
1
  6
CONTINUOUS
 62
     7
100
AcDbLine
 10
138.5423988168
 20
73.1889664648
 30
0.0
 11
138.4900108168
 21
73.8111404648
 31
0.0
  0
LINE
  5
90
330
1F
100
AcDbEntity
  8
1
  6
CONTINUOUS
 62
     7
100
AcDbLine
 10
139.2682778168
 20
70.9066104648
 30
0.0
 11
139.5365738168
 21
70.9783604648
 31
0.0
  0
LINE
  5
91
330
1F
100
AcDbEntity
  8
1
  6
CONTINUOUS
 62
     7
100
AcDbLine
 10
163.0021638168
 20
65.0409474648
 30
0.0
 11
162.4895398168
 21
64.6844914648
 31
0.0
  0
LINE
  5
92
330
1F
100
AcDbEntity
  8
1
  6
CONTINUOUS
 62
     7
100
AcDbLine
 10
157.8286728168
 20
90.2977354648
 30
0.0
 11
158.3936848168
 21
90.0320174648
 31
0.0
  0
LINE
  5
93
330
1F
100
AcDbEntity
  8
1
  6
CONTINUOUS
 62
     7
100
AcDbLine
 10
158.3219348168
 20
89.7637214648
 30
0.0
 11
158.3936848168
 21
90.0320174648
 31
0.0
  0
LINE
  5
94
330
1F
100
AcDbEntity
  8
1
  6
CONTINUOUS
 62
     7
100
AcDbLine
 10
155.4891548168
 20
90.8102844648
 30
0.0
 11
155.4171438168
 21
90.5420574648
 31
0.0
  0
LINE
  5
95
330
1F
100
AcDbEntity
  8
1
  6
CONTINUOUS
 62
     7
100
AcDbLine
 10
167.4905858168
 20
78.4686154648
 30
0.0
 11
167.7588128168
 21
78.5406264648
 31
0.0
  0
LINE
  5
96
330
1F
100
AcDbEntity
  8
1
  6
CONTINUOUS
 62
     7
100
AcDbLine
 10
150.7596688168
 20
61.5414824648
 30
0.0
 11
150.8316798168
 21
61.8097084648
 31
0.0
  0
LINE
  5
97
330
1F
100
AcDbEntity
  8
1
  6
CONTINUOUS
 62
     7
100
AcDbLine
 10
148.4200108168
 20
62.0540674648
 30
0.0
 11
147.8551388168
 21
62.3197484648
 31
0.0
  0
LINE
  5
98
330
1F
100
AcDbEntity
  8
1
  6
CONTINUOUS
 62
     7
100
AcDbLine
 10
138.7582188168
 20
73.8830604648
 30
0.0
 11
138.7724098168
 21
73.9529914648
 31
0.0
  0
LINE
  5
99
330
1F
100
AcDbEntity
  8
1
  6
CONTINUOUS
 62
     7
100
AcDbLine
 10
166.7122498168
 20
70.9783604648
 30
0.0
 11
166.6647808168
 21
70.9242294648
 31
0.0
  0
LINE
  5
9A
330
1F
100
AcDbEntity
  8
1
  6
CONTINUOUS
 62
     7
100
AcDbLine
 10
147.9271208168
 20
62.58784146479999
 30
0.0
 11
147.8726688168
 21
62.6355504648
 31
0.0
  0
LINE
  5
9B
330
1F
100
AcDbEntity
  8
1
  6
CONTINUOUS
 62
     7
100
AcDbLine
 10
164.4195178168
 20
85.3445344648
 30
0.0
 11
164.4425328168
 21
85.2765064648
 31
0.0
  0
LINE
  5
9C
330
1F
100
AcDbEntity
  8
1
  6
CONTINUOUS
 62
     7
100
AcDbLine
 10
150.7596688168
 20
61.5414824648
 30
0.0
 11
150.1370008168
 21
61.5939444648
 31
0.0
  0
LINE
  5
9D
330
1F
100
AcDbEntity
  8
1
  6
CONTINUOUS
 62
     7
100
AcDbLine
 10
155.4171438168
 20
61.8097084648
 30
0.0
 11
155.3467228168
 21
61.8237914648
 31
0.0
  0
LINE
  5
9E
330
1F
100
AcDbEntity
  8
1
  6
CONTINUOUS
 62
     7
100
AcDbLine
 10
167.7588128168
 20
73.8111404648
 30
0.0
 11
167.4905858168
 21
73.8831514648
 31
0.0
  0
LINE
  5
9F
330
1F
100
AcDbEntity
  8
1
  6
CONTINUOUS
 62
     7
100
AcDbLine
 10
139.5365738168
 20
81.3734064648
 30
0.0
 11
139.5839798168
 21
81.4273514648
 31
0.0
  0
LINE
  5
A0
330
1F
100
AcDbEntity
  8
1
  6
CONTINUOUS
 62
     7
100
AcDbLine
 10
147.9268888168
 20
62.5880454648
 30
0.0
 11
147.8551388168
 21
62.3197494648
 31
0.0
  0
LINE
  5
A1
330
1F
100
AcDbEntity
  8
1
  6
CONTINUOUS
 62
     7
100
AcDbLine
 10
141.8293058168
 20
67.0072314648
 30
0.0
 11
141.6330208168
 21
66.8107554648
 31
0.0
  0
LINE
  5
A2
330
1F
100
AcDbEntity
  8
1
  6
CONTINUOUS
 62
     7
100
AcDbLine
 10
143.7592838168
 20
64.6844914648
 30
0.0
 11
143.9557598168
 21
64.8807774648
 31
0.0
  0
LINE
  5
A3
330
1F
100
AcDbEntity
  8
1
  6
CONTINUOUS
 62
     7
100
AcDbLine
 10
143.7592838168
 20
64.6844914648
 30
0.0
 11
143.2463458168
 21
65.0411874648
 31
0.0
  0
LINE
  5
A4
330
1F
100
AcDbEntity
  8
1
  6
CONTINUOUS
 62
     7
100
AcDbLine
 10
150.1366208168
 20
90.7577494648
 30
0.0
 11
150.7596688168
 21
90.8102844648
 31
0.0
  0
LINE
  5
A5
330
1F
100
AcDbEntity
  8
1
  6
CONTINUOUS
 62
     7
100
AcDbLine
 10
158.3218658168
 20
89.7637824648
 30
0.0
 11
158.3753318168
 21
89.7165274648
 31
0.0
  0
LINE
  5
A6
330
1F
100
AcDbEntity
  8
1
  6
CONTINUOUS
 62
     7
100
AcDbLine
 10
143.7592838168
 20
87.6672744648
 30
0.0
 11
143.2467608168
 21
87.3109214648
 31
0.0
  0
LINE
  5
A7
330
1F
100
AcDbEntity
  8
1
  6
CONTINUOUS
 62
     7
100
AcDbLine
 10
141.9897888168
 20
86.0540264648
 30
0.0
 11
141.6330208168
 21
85.5410114648
 31
0.0
  0
LINE
  5
A8
330
1F
100
AcDbEntity
  8
1
  6
CONTINUOUS
 62
     7
100
AcDbLine
 10
138.7582378168
 20
73.8831514648
 30
0.0
 11
138.4900108168
 21
73.8111404648
 31
0.0
  0
LINE
  5
A9
330
1F
100
AcDbEntity
  8
1
  6
CONTINUOUS
 62
     7
100
AcDbLine
 10
162.2931508168
 20
64.8808064648
 30
0.0
 11
162.2254938168
 21
64.8581304648
 31
0.0
  0
LINE
  5
AA
330
1F
100
AcDbEntity
  8
1
  6
CONTINUOUS
 62
     7
100
AcDbLine
 10
166.9805458168
 20
81.4451564648
 30
0.0
 11
166.7122498168
 21
81.3734064648
 31
0.0
  0
LINE
  5
AB
330
1F
100
AcDbEntity
  8
1
  6
CONTINUOUS
 62
     7
100
AcDbLine
 10
150.8316798168
 20
90.5420574648
 30
0.0
 11
150.9022928168
 21
90.5280134648
 31
0.0
  0
LINE
  5
AC
330
1F
100
AcDbEntity
  8
1
  6
CONTINUOUS
 62
     7
100
AcDbLine
 10
155.4171438168
 20
61.8097084648
 30
0.0
 11
155.4891548168
 21
61.5414824648
 31
0.0
  0
LINE
  5
AD
330
1F
100
AcDbEntity
  8
1
  6
CONTINUOUS
 62
     7
100
AcDbLine
 10
167.2462788168
 20
71.4716814648
 30
0.0
 11
166.9805458168
 21
70.9066104648
 31
0.0
  0
LINE
  5
AE
330
1F
100
AcDbEntity
  8
1
  6
CONTINUOUS
 62
     7
100
AcDbLine
 10
167.4906458168
 20
78.4689184648
 30
0.0
 11
167.4765548168
 21
78.3979064648
 31
0.0
  0
LINE
  5
AF
330
1F
100
AcDbEntity
  8
1
  6
CONTINUOUS
 62
     7
100
AcDbLine
 10
167.7588128168
 20
73.8111404648
 30
0.0
 11
167.7063748168
 21
73.1885744648
 31
0.0
  0
LINE
  5
B0
330
1F
100
AcDbEntity
  8
1
  6
CONTINUOUS
 62
     7
100
AcDbLine
 10
150.8316798168
 20
90.5420574648
 30
0.0
 11
150.7596688168
 21
90.8102844648
 31
0.0
  0
LINE
  5
B1
330
1F
100
AcDbEntity
  8
1
  6
CONTINUOUS
 62
     7
100
AcDbLine
 10
143.9557598168
 20
87.4709894648
 30
0.0
 11
143.7592838168
 21
87.6672744648
 31
0.0
  0
LINE
  5
B2
330
1F
100
AcDbEntity
  8
1
  6
CONTINUOUS
 62
     7
100
AcDbLine
 10
158.3936848168
 20
62.3197484648
 30
0.0
 11
158.3219348168
 21
62.5880454648
 31
0.0
  0
LINE
  5
B3
330
1F
100
AcDbEntity
  8
1
  6
CONTINUOUS
 62
     7
100
AcDbLine
 10
156.1122348168
 20
61.5940164648
 30
0.0
 11
155.4891548168
 21
61.5414824648
 31
0.0
  0
LINE
  5
B4
330
1F
100
AcDbEntity
  8
1
  6
CONTINUOUS
 62
     7
100
AcDbLine
 10
158.3936848168
 20
62.3197484648
 30
0.0
 11
157.8219828168
 21
62.0515194648
 31
0.0
  0
LINE
  5
B5
330
1F
100
AcDbEntity
  8
1
  6
CONTINUOUS
 62
     7
100
AcDbLine
 10
141.6330208168
 20
85.5410114648
 30
0.0
 11
141.8293058168
 21
85.3445344648
 31
0.0
  0
LINE
  5
B6
330
1F
100
AcDbEntity
  8
1
  6
CONTINUOUS
 62
     5
100
AcDbLine
 10
266.1244118168
 20
92.9348394675
 30
0.0
 11
256.1244118168
 21
92.9348394675
 31
0.0
  0
LINE
  5
B7
330
1F
100
AcDbEntity
  8
1
  6
CONTINUOUS
 62
     5
100
AcDbLine
 10
266.1244118168
 20
56.4961884675
 30
0.0
 11
256.1244118168
 21
56.4961884675
 31
0.0
  0
LINE
  5
B8
330
1F
100
AcDbEntity
  8
1
  6
CONTINUOUS
 62
     5
100
AcDbLine
 10
266.1244118168
 20
95.8561644675
 30
0.0
 11
256.1244118168
 21
95.8561644675
 31
0.0
  0
LINE
  5
B9
330
1F
100
AcDbEntity
  8
1
  6
CONTINUOUS
 62
     5
100
AcDbLine
 10
266.1244118168
 20
81.5851814675
 30
0.0
 11
256.1244118168
 21
81.5851814675
 31
0.0
  0
LINE
  5
BA
330
1F
100
AcDbEntity
  8
1
  6
CONTINUOUS
 62
     5
100
AcDbLine
 10
266.1244118168
 20
96.3988154675
 30
0.0
 11
256.1244118168
 21
96.3988154675
 31
0.0
  0
ARC
  5
BB
330
1F
100
AcDbEntity
  8
1
  6
CONTINUOUS
 62
     7
100
AcDbCircle
 10
255.6244118168
 20
96.4261764676
 30
0.0
 40
1.5
100
AcDbArc
 50
90.0
 51
180.0
  0
LINE
  5
BC
330
1F
100
AcDbEntity
  8
1
  6
CONTINUOUS
 62
     7
100
AcDbLine
 10
268.1244118168
 20
56.4261764675
 30
0.0
 11
268.1244118168
 21
95.9261764675
 31
0.0
  0
LINE
  5
BD
330
1F
100
AcDbEntity
  8
1
  6
CONTINUOUS
 62
     5
100
AcDbLine
 10
266.1244118168
 20
84.1828854675
 30
0.0
 11
256.1244118168
 21
84.1828854675
 31
0.0
  0
LINE
  5
BE
330
1F
100
AcDbEntity
  8
1
  6
CONTINUOUS
 62
     5
100
AcDbLine
 10
266.1244118168
 20
70.7671714675
 30
0.0
 11
256.1244118168
 21
70.7671714675
 31
0.0
  0
LINE
  5
BF
330
1F
100
AcDbEntity
  8
1
  6
CONTINUOUS
 62
     5
100
AcDbLine
 10
266.1244118168
 20
87.8304094675
 30
0.0
 11
256.1244118168
 21
87.8304094675
 31
0.0
  0
LINE
  5
C0
330
1F
100
AcDbEntity
  8
1
  6
CONTINUOUS
 62
     7
100
AcDbLine
 10
271.1244118168
 20
94.1761764675
 30
0.0
 11
271.1244118168
 21
58.1761764675
 31
0.0
  0
LINE
  5
C1
330
1F
100
AcDbEntity
  8
1
  6
CONTINUOUS
 62
     5
100
AcDbLine
 10
266.1244118168
 20
62.3122044675
 30
0.0
 11
256.1244118168
 21
62.3122044675
 31
0.0
  0
LINE
  5
C2
330
1F
100
AcDbEntity
  8
1
  6
CONTINUOUS
 62
     5
100
AcDbLine
 10
266.1244118168
 20
57.8120444675
 30
0.0
 11
256.1244118168
 21
57.8120444675
 31
0.0
  0
LINE
  5
C3
330
1F
100
AcDbEntity
  8
1
  6
CONTINUOUS
 62
     7
100
AcDbLine
 10
252.6244118168
 20
93.9261764676
 30
0.0
 11
239.6244118168
 21
93.9261764676
 31
0.0
  0
LINE
  5
C4
330
1F
100
AcDbEntity
  8
1
  6
CONTINUOUS
 62
     7
100
AcDbLine
 10
254.1244118168
 20
96.4261764676
 30
0.0
 11
254.1244118168
 21
55.9261764676
 31
0.0
  0
ARC
  5
C5
330
1F
100
AcDbEntity
  8
1
  6
CONTINUOUS
 62
     7
100
AcDbCircle
 10
255.6244118168
 20
55.9261764676
 30
0.0
 40
1.5
100
AcDbArc
 50
180.0
 51
270.0
  0
LINE
  5
C6
330
1F
100
AcDbEntity
  8
1
  6
CONTINUOUS
 62
     5
100
AcDbLine
 10
266.1244118168
 20
68.1694674675
 30
0.0
 11
256.1244118168
 21
68.1694674675
 31
0.0
  0
LINE
  5
C7
330
1F
100
AcDbEntity
  8
1
  6
CONTINUOUS
 62
     5
100
AcDbLine
 10
266.1244118168
 20
66.9154764675
 30
0.0
 11
256.1244118168
 21
66.9154764675
 31
0.0
  0
LINE
  5
C8
330
1F
100
AcDbEntity
  8
1
  6
CONTINUOUS
 62
     5
100
AcDbLine
 10
266.1244118168
 20
91.0650764675
 30
0.0
 11
256.1244118168
 21
91.0650764675
 31
0.0
  0
LINE
  5
C9
330
1F
100
AcDbEntity
  8
1
  6
CONTINUOUS
 62
     5
100
AcDbLine
 10
266.1244118168
 20
76.1761764675
 30
0.0
 11
256.1244118168
 21
76.1761764675
 31
0.0
  0
LINE
  5
CA
330
1F
100
AcDbEntity
  8
1
  6
CONTINUOUS
 62
     5
100
AcDbLine
 10
266.1244118168
 20
65.6980344675
 30
0.0
 11
256.1244118168
 21
65.6980344675
 31
0.0
  0
LINE
  5
CB
330
1F
100
AcDbEntity
  8
1
  6
CONTINUOUS
 62
     5
100
AcDbLine
 10
266.1244118168
 20
73.4501784675
 30
0.0
 11
256.1244118168
 21
73.4501784675
 31
0.0
  0
ARC
  5
CC
330
1F
100
AcDbEntity
  8
1
  6
CONTINUOUS
 62
     7
100
AcDbCircle
 10
252.6244118168
 20
56.9261764676
 30
0.0
 40
1.5
100
AcDbArc
 50
0.0
 51
90.0
  0
LINE
  5
CD
330
1F
100
AcDbEntity
  8
1
  6
CONTINUOUS
 62
     5
100
AcDbLine
 10
266.1244118168
 20
63.3918474675
 30
0.0
 11
256.1244118168
 21
63.3918474675
 31
0.0
  0
LINE
  5
CE
330
1F
100
AcDbEntity
  8
1
  6
CONTINUOUS
 62
     5
100
AcDbLine
 10
266.1244118168
 20
78.9021744675
 30
0.0
 11
256.1244118168
 21
78.9021744675
 31
0.0
  0
LINE
  5
CF
330
1F
100
AcDbEntity
  8
1
  6
CONTINUOUS
 62
     5
100
AcDbLine
 10
266.1244118168
 20
90.0401484675
 30
0.0
 11
256.1244118168
 21
90.0401484675
 31
0.0
  0
LINE
  5
D0
330
1F
100
AcDbEntity
  8
1
  6
CONTINUOUS
 62
     5
100
AcDbLine
 10
266.1244118168
 20
93.7722964675
 30
0.0
 11
256.1244118168
 21
93.7722964675
 31
0.0
  0
ARC
  5
D1
330
1F
100
AcDbEntity
  8
1
  6
CONTINUOUS
 62
     7
100
AcDbCircle
 10
252.6244118168
 20
95.4261764676
 30
0.0
 40
1.5
100
AcDbArc
 50
270.0
 51
0.0
  0
LINE
  5
D2
330
1F
100
AcDbEntity
  8
1
  6
CONTINUOUS
 62
     5
100
AcDbLine
 10
266.1244118168
 20
69.4550564675
 30
0.0
 11
256.1244118168
 21
69.4550564675
 31
0.0
  0
LINE
  5
D3
330
1F
100
AcDbEntity
  8
1
  6
CONTINUOUS
 62
     7
100
AcDbLine
 10
252.6244118168
 20
58.4261764676
 30
0.0
 11
239.6244118168
 21
58.4261764676
 31
0.0
  0
LINE
  5
D4
330
1F
100
AcDbEntity
  8
1
  6
CONTINUOUS
 62
     5
100
AcDbLine
 10
266.1244118168
 20
72.1006324675
 30
0.0
 11
256.1244118168
 21
72.1006324675
 31
0.0
  0
LINE
  5
D5
330
1F
100
AcDbEntity
  8
1
  6
CONTINUOUS
 62
     5
100
AcDbLine
 10
266.1244118168
 20
74.8104824675
 30
0.0
 11
256.1244118168
 21
74.8104824675
 31
0.0
  0
LINE
  5
D6
330
1F
100
AcDbEntity
  8
1
  6
CONTINUOUS
 62
     5
100
AcDbLine
 10
266.1244118168
 20
85.4368764675
 30
0.0
 11
256.1244118168
 21
85.4368764675
 31
0.0
  0
LINE
  5
D7
330
1F
100
AcDbEntity
  8
1
  6
CONTINUOUS
 62
     5
100
AcDbLine
 10
266.1244118168
 20
61.2872764675
 30
0.0
 11
256.1244118168
 21
61.2872764675
 31
0.0
  0
LINE
  5
D8
330
1F
100
AcDbEntity
  8
1
  6
CONTINUOUS
 62
     5
100
AcDbLine
 10
266.1244118168
 20
82.8972964675
 30
0.0
 11
256.1244118168
 21
82.8972964675
 31
0.0
  0
LINE
  5
D9
330
1F
100
AcDbEntity
  8
1
  6
CONTINUOUS
 62
     5
100
AcDbLine
 10
266.1244118168
 20
77.5418704675
 30
0.0
 11
256.1244118168
 21
77.5418704675
 31
0.0
  0
LINE
  5
DA
330
1F
100
AcDbEntity
  8
1
  6
CONTINUOUS
 62
     5
100
AcDbLine
 10
266.1244118168
 20
92.0312444675
 30
0.0
 11
256.1244118168
 21
92.0312444675
 31
0.0
  0
LINE
  5
DB
330
1F
100
AcDbEntity
  8
1
  6
CONTINUOUS
 62
     5
100
AcDbLine
 10
266.1244118168
 20
58.5800564675
 30
0.0
 11
256.1244118168
 21
58.5800564675
 31
0.0
  0
LINE
  5
DC
330
1F
100
AcDbEntity
  8
1
  6
CONTINUOUS
 62
     5
100
AcDbLine
 10
266.1244118168
 20
59.4175134675
 30
0.0
 11
256.1244118168
 21
59.4175134675
 31
0.0
  0
LINE
  5
DD
330
1F
100
AcDbEntity
  8
1
  6
CONTINUOUS
 62
     7
100
AcDbLine
 10
266.1244118168
 20
97.9261764675
 30
0.0
 11
266.1244118168
 21
54.4261764675
 31
0.0
  0
LINE
  5
DE
330
1F
100
AcDbEntity
  8
1
  6
CONTINUOUS
 62
     5
100
AcDbLine
 10
266.1244118168
 20
60.3211084675
 30
0.0
 11
256.1244118168
 21
60.3211084675
 31
0.0
  0
LINE
  5
DF
330
1F
100
AcDbEntity
  8
1
  6
CONTINUOUS
 62
     5
100
AcDbLine
 10
266.1244118168
 20
94.5403084675
 30
0.0
 11
256.1244118168
 21
94.5403084675
 31
0.0
  0
LINE
  5
E0
330
1F
100
AcDbEntity
  8
1
  6
CONTINUOUS
 62
     5
100
AcDbLine
 10
266.1244118168
 20
64.5219434675
 30
0.0
 11
256.1244118168
 21
64.5219434675
 31
0.0
  0
LINE
  5
E1
330
1F
100
AcDbEntity
  8
1
  6
CONTINUOUS
 62
     5
100
AcDbLine
 10
266.1244118168
 20
95.2358464675
 30
0.0
 11
256.1244118168
 21
95.2358464675
 31
0.0
  0
LINE
  5
E2
330
1F
100
AcDbEntity
  8
1
  6
CONTINUOUS
 62
     5
100
AcDbLine
 10
266.1244118168
 20
86.6543184675
 30
0.0
 11
256.1244118168
 21
86.6543184675
 31
0.0
  0
LINE
  5
E3
330
1F
100
AcDbEntity
  8
1
  6
CONTINUOUS
 62
     5
100
AcDbLine
 10
266.1244118168
 20
80.2517204675
 30
0.0
 11
256.1244118168
 21
80.2517204675
 31
0.0
  0
LINE
  5
E4
330
1F
100
AcDbEntity
  8
1
  6
CONTINUOUS
 62
     5
100
AcDbLine
 10
266.1244118168
 20
57.1165064675
 30
0.0
 11
256.1244118168
 21
57.1165064675
 31
0.0
  0
LINE
  5
E5
330
1F
100
AcDbEntity
  8
1
  6
CONTINUOUS
 62
     5
100
AcDbLine
 10
266.1244118168
 20
88.9605054675
 30
0.0
 11
256.1244118168
 21
88.9605054675
 31
0.0
  0
ARC
  5
E6
330
1F
100
AcDbEntity
  8
1
  6
CONTINUOUS
 62
     7
100
AcDbCircle
 10
164.9247208168
 20
85.1480184648
 30
0.0
 40
0.499903
100
AcDbArc
 50
37.233973
 51
128.169678
  0
ARC
  5
E7
330
1F
100
AcDbEntity
  8
1
  6
CONTINUOUS
 62
     7
100
AcDbCircle
 10
147.3913418168
 20
62.50536946479999
 30
0.0
 40
0.499591
100
AcDbArc
 50
269.939947
 51
338.187777
  0
ARC
  5
E8
330
1F
100
AcDbEntity
  8
1
  6
CONTINUOUS
 62
     7
100
AcDbCircle
 10
161.6003198168
 20
78.4470154648
 30
0.0
 40
6.147426
100
AcDbArc
 50
6.68553
 51
23.308823
  0
ARC
  5
E9
330
1F
100
AcDbEntity
  8
1
  6
CONTINUOUS
 62
     7
100
AcDbCircle
 10
139.4538728168
 20
70.4427604648
 30
0.0
 40
0.499591
100
AcDbArc
 50
111.807374
 51
180.060132
  0
ARC
  5
EA
330
1F
100
AcDbEntity
  8
1
  6
CONTINUOUS
 62
     7
100
AcDbCircle
 10
144.6489758168
 20
73.9048824648
 30
0.0
 40
6.14791
100
AcDbArc
 50
186.686257
 51
203.309287
  0
ARC
  5
EB
330
1F
100
AcDbEntity
  8
1
  6
CONTINUOUS
 62
     7
100
AcDbCircle
 10
139.4541608168
 20
81.9091834648
 30
0.0
 40
0.499903
100
AcDbArc
 50
157.233977
 51
248.169658
  0
LINE
  5
EC
330
1F
100
AcDbEntity
  8
1
  6
CONTINUOUS
 62
     7
100
AcDbLine
 10
147.3908188168
 20
62.0057784648
 30
0.0
 11
147.1976648168
 21
62.0446744648
 31
0.0
  0
ARC
  5
ED
330
1F
100
AcDbEntity
  8
1
  6
CONTINUOUS
 62
     7
100
AcDbCircle
 10
150.7969848168
 20
84.8623454648
 30
0.0
 40
5.931891
100
AcDbArc
 50
96.46012000000003
 51
113.545657
  0
ARC
  5
EE
330
1F
100
AcDbEntity
  8
1
  6
CONTINUOUS
 62
     7
100
AcDbCircle
 10
155.3953868168
 20
84.6513304648
 30
0.0
 40
6.147906
100
AcDbArc
 50
66.686254
 51
83.309289
  0
ARC
  5
EF
330
1F
100
AcDbEntity
  8
1
  6
CONTINUOUS
 62
     7
100
AcDbCircle
 10
159.3290078168
 20
82.3805014648
 30
0.0
 40
6.147694
100
AcDbArc
 50
36.685948
 51
53.309082
  0
ARC
  5
F0
330
1F
100
AcDbEntity
  8
1
  6
CONTINUOUS
 62
     7
100
AcDbCircle
 10
144.6487558168
 20
78.4469124648
 30
0.0
 40
6.147692
100
AcDbArc
 50
156.685947
 51
173.3090829999999
  0
ARC
  5
F1
330
1F
100
AcDbEntity
  8
1
  6
CONTINUOUS
 62
     7
100
AcDbCircle
 10
146.9196018168
 20
82.3806674648
 30
0.0
 40
6.147428
100
AcDbArc
 50
126.685532
 51
143.308821
  0
LINE
  5
F2
330
1F
100
AcDbEntity
  8
1
  6
CONTINUOUS
 62
     7
100
AcDbLine
 10
239.6244118168
 20
78.176176468
 30
0.0
 11
239.6244118168
 21
74.176176468
 31
0.0
  0
LINE
  5
F3
330
1F
100
AcDbEntity
  8
1
  6
CONTINUOUS
 62
     7
100
AcDbLine
 10
238.6244118168
 20
56.9261764676
 30
0.0
 11
230.6244118168
 21
56.9261764676
 31
0.0
  0
LINE
  5
F4
330
1F
100
AcDbEntity
  8
1
  6
CONTINUOUS
 62
     7
100
AcDbLine
 10
239.6244118168
 20
57.9261764676
 30
0.0
 11
239.6244118168
 21
58.6815344343
 31
0.0
  0
LINE
  5
F5
330
1F
100
AcDbEntity
  8
1
  6
CONTINUOUS
 62
     7
100
AcDbLine
 10
239.6244118168
 20
58.6815344343
 30
0.0
 11
230.6244118168
 21
58.6815344343
 31
0.0
  0
LINE
  5
F6
330
1F
100
AcDbEntity
  8
1
  6
CONTINUOUS
 62
     7
100
AcDbLine
 10
239.6244118168
 20
94.4261764676
 30
0.0
 11
239.6244118168
 21
93.6708184889
 31
0.0
  0
LINE
  5
F7
330
1F
100
AcDbEntity
  8
1
  6
CONTINUOUS
 62
     7
100
AcDbLine
 10
238.6244118168
 20
95.4261764676
 30
0.0
 11
230.6244118168
 21
95.4261764676
 31
0.0
  0
ARC
  5
F8
330
1F
100
AcDbEntity
  8
1
  6
CONTINUOUS
 62
     7
100
AcDbCircle
 10
159.3288728168
 20
69.9714434648
 30
0.0
 40
6.147912
100
AcDbArc
 50
306.686259
 51
323.309285
  0
LINE
  5
F9
330
1F
100
AcDbEntity
  8
1
  6
CONTINUOUS
 62
     7
100
AcDbLine
 10
239.6244118168
 20
87.4254361404
 30
0.0
 11
239.6244118168
 21
89.6680768413
 31
0.0
  0
LINE
  5
FA
330
1F
100
AcDbEntity
  8
1
  6
CONTINUOUS
 62
     7
100
AcDbLine
 10
238.6244118168
 20
90.6680768413
 30
0.0
 11
230.6244118168
 21
90.6680768413
 31
0.0
  0
LINE
  5
FB
330
1F
100
AcDbEntity
  8
1
  6
CONTINUOUS
 62
     7
100
AcDbLine
 10
238.6244118168
 20
86.4254361404
 30
0.0
 11
230.6244118168
 21
86.4254361404
 31
0.0
  0
LINE
  5
FC
330
1F
100
AcDbEntity
  8
1
  6
CONTINUOUS
 62
     7
100
AcDbLine
 10
238.6244118168
 20
79.176176468
 30
0.0
 11
230.6244118168
 21
79.176176468
 31
0.0
  0
LINE
  5
FD
330
1F
100
AcDbEntity
  8
1
  6
CONTINUOUS
 62
     7
100
AcDbLine
 10
238.6244118168
 20
61.6842761165
 30
0.0
 11
230.6244118168
 21
61.6842761165
 31
0.0
  0
ARC
  5
FE
330
1F
100
AcDbEntity
  8
1
  6
CONTINUOUS
 62
     7
100
AcDbCircle
 10
238.6244118168
 20
94.4261764676
 30
0.0
 40
1.0
100
AcDbArc
 50
0.0
 51
90.0
  0
ARC
  5
FF
330
1F
100
AcDbEntity
  8
1
  6
CONTINUOUS
 62
     7
100
AcDbCircle
 10
238.6244118168
 20
89.6680768413
 30
0.0
 40
1.0
100
AcDbArc
 50
0.0
 51
90.0
  0
ARC
  5
100
330
1F
100
AcDbEntity
  8
1
  6
CONTINUOUS
 62
     7
100
AcDbCircle
 10
238.6244118167
 20
64.9269168083
 30
0.0
 40
1.0
100
AcDbArc
 50
0.0
 51
90.0
  0
LINE
  5
101
330
1F
100
AcDbEntity
  8
1
  6
CONTINUOUS
 62
     7
100
AcDbLine
 10
238.6244118168
 20
73.176176468
 30
0.0
 11
230.6244118168
 21
73.176176468
 31
0.0
  0
ARC
  5
102
330
1F
100
AcDbEntity
  8
1
  6
CONTINUOUS
 62
     7
100
AcDbCircle
 10
238.6244118168
 20
62.6842761165
 30
0.0
 40
1.0
100
AcDbArc
 50
270.0
 51
0.0
  0
LINE
  5
103
330
1F
100
AcDbEntity
  8
1
  6
CONTINUOUS
 62
     7
100
AcDbLine
 10
255.6244118168
 20
54.4261764676
 30
0.0
 11
266.1244118168
 21
54.4261764676
 31
0.0
  0
ARC
  5
104
330
1F
100
AcDbEntity
  8
1
  6
CONTINUOUS
 62
     7
100
AcDbCircle
 10
238.6244118168
 20
87.4254361404
 30
0.0
 40
1.0
100
AcDbArc
 50
270.0
 51
0.0
  0
LINE
  5
105
330
1F
100
AcDbEntity
  8
1
  6
CONTINUOUS
 62
     7
100
AcDbLine
 10
256.1244118168
 20
54.4261764676
 30
0.0
 11
256.1244118168
 21
97.9261764676
 31
0.0
  0
LINE
  5
106
330
1F
100
AcDbEntity
  8
1
  6
CONTINUOUS
 62
     7
100
AcDbLine
 10
230.6244118168
 20
93.6708184889
 30
0.0
 11
239.6244118168
 21
93.6708184889
 31
0.0
  0
ARC
  5
107
330
1F
100
AcDbEntity
  8
1
  6
CONTINUOUS
 62
     7
100
AcDbCircle
 10
147.3912888168
 20
89.8464224648
 30
0.0
 40
0.499591
100
AcDbArc
 50
21.807374
 51
90.06013200000002
  0
LINE
  5
108
330
1F
100
AcDbEntity
  8
1
  6
CONTINUOUS
 62
     7
100
AcDbLine
 10
239.6244118168
 20
62.6842761165
 30
0.0
 11
239.6244118168
 21
64.9269168083
 31
0.0
  0
ARC
  5
109
330
1F
100
AcDbEntity
  8
1
  6
CONTINUOUS
 62
     7
100
AcDbCircle
 10
238.6244118168
 20
57.9261764676
 30
0.0
 40
1.0
100
AcDbArc
 50
270.0
 51
0.0
  0
LINE
  5
10A
330
1F
100
AcDbEntity
  8
1
  6
CONTINUOUS
 62
     7
100
AcDbLine
 10
255.6244118168
 20
97.9261764676
 30
0.0
 11
266.1244118168
 21
97.9261764676
 31
0.0
  0
ARC
  5
10B
330
1F
100
AcDbEntity
  8
1
  6
CONTINUOUS
 62
     7
100
AcDbCircle
 10
161.6349688168
 20
73.8955024648
 30
0.0
 40
6.111943
100
AcDbArc
 50
336.636929
 51
353.357743
  0
LINE
  5
10C
330
1F
100
AcDbEntity
  8
1
  6
CONTINUOUS
 62
     7
100
AcDbLine
 10
141.6330388168
 20
66.8107324648
 30
0.0
 11
141.3236398168
 21
66.7038224648
 31
0.0
  0
ARC
  5
10D
330
1F
100
AcDbEntity
  8
1
  6
CONTINUOUS
 62
     7
100
AcDbCircle
 10
166.7949248168
 20
70.4428134648
 30
0.0
 40
0.499591
100
AcDbArc
 50
359.939947
 51
68.187701
  0
ARC
  5
10E
330
1F
100
AcDbEntity
  8
1
  6
CONTINUOUS
 62
     7
100
AcDbCircle
 10
150.8533148168
 20
67.6999634648
 30
0.0
 40
6.147423
100
AcDbArc
 50
246.685528
 51
263.308824
  0
ARC
  5
10F
330
1F
100
AcDbEntity
  8
1
  6
CONTINUOUS
 62
     7
100
AcDbCircle
 10
155.4518268168
 20
67.4894494648
 30
0.0
 40
5.931921
100
AcDbArc
 50
276.460249
 51
293.549545
  0
ARC
  5
110
330
1F
100
AcDbEntity
  8
1
  6
CONTINUOUS
 62
     7
100
AcDbCircle
 10
238.6244118168
 20
78.176176468
 30
0.0
 40
1.0
100
AcDbArc
 50
0.0
 51
90.0
  0
LINE
  5
111
330
1F
100
AcDbEntity
  8
1
  6
CONTINUOUS
 62
     7
100
AcDbLine
 10
162.4895618168
 20
64.6845094648
 30
0.0
 11
162.5964718168
 21
64.3751114648
 31
0.0
  0
ARC
  5
112
330
1F
100
AcDbEntity
  8
1
  6
CONTINUOUS
 62
     7
100
AcDbCircle
 10
154.9943538168
 20
61.4704484648
 30
0.0
 40
0.499903
100
AcDbArc
 50
277.233968
 51
8.16965700000003
  0
ARC
  5
113
330
1F
100
AcDbEntity
  8
1
  6
CONTINUOUS
 62
     7
100
AcDbCircle
 10
138.4189768168
 20
74.3059414648
 30
0.0
 40
0.499903
100
AcDbArc
 50
187.233967
 51
278.169656
  0
ARC
  5
114
330
1F
100
AcDbEntity
  8
1
  6
CONTINUOUS
 62
     7
100
AcDbCircle
 10
167.8298468168
 20
78.0458254648
 30
0.0
 40
0.499903
100
AcDbArc
 50
7.233968000000002
 51
98.169657
  0
ARC
  5
115
330
1F
100
AcDbEntity
  8
1
  6
CONTINUOUS
 62
     7
100
AcDbCircle
 10
146.8942618168
 20
69.9457124648
 30
0.0
 40
6.111938
100
AcDbArc
 50
216.636926
 51
233.357746
  0
LINE
  5
116
330
1F
100
AcDbEntity
  8
1
  6
CONTINUOUS
 62
     7
100
AcDbLine
 10
238.6244118167
 20
65.9269168083
 30
0.0
 11
230.6244118168
 21
65.9269168083
 31
0.0
  0
ARC
  5
117
330
1F
100
AcDbEntity
  8
1
  6
CONTINUOUS
 62
     7
100
AcDbCircle
 10
238.6244118168
 20
74.176176468
 30
0.0
 40
1.0
100
AcDbArc
 50
270.0
 51
0.0
  0
LINE
  5
118
330
1F
100
AcDbEntity
  8
1
  6
CONTINUOUS
 62
     7
100
AcDbLine
 10
218.6244118168
 20
62.95567647069999
 30
0.0
 11
218.2864118168
 21
62.95567647069999
 31
0.0
  0
LINE
  5
119
330
1F
100
AcDbEntity
  8
1
  6
CONTINUOUS
 62
     7
100
AcDbLine
 10
216.1244118168
 20
64.1176764707
 30
0.0
 11
218.6244118168
 21
64.1176764707
 31
0.0
  0
LINE
  5
11A
330
1F
100
AcDbEntity
  8
0
  6
CONTINUOUS
 62
     7
100
AcDbLine
 10
228.6244118168
 20
92.67617647048668
 30
0.0
 11
230.6244118168
 21
92.67617647049987
 31
0.0
  0
LINE
  5
11B
330
1F
100
AcDbEntity
  8
0
  6
CONTINUOUS
 62
     7
100
AcDbLine
 10
228.6244118168
 20
59.67617647048668
 30
0.0
 11
228.6244118168
 21
92.67617647048668
 31
0.0
  0
LINE
  5
11C
330
1F
100
AcDbEntity
  8
1
  6
CONTINUOUS
 62
     7
100
AcDbLine
 10
218.6244118168
 20
89.3966764707
 30
0.0
 11
218.2864118168
 21
89.3966764707
 31
0.0
  0
LINE
  5
11D
330
1F
100
AcDbEntity
  8
0
  6
CONTINUOUS
 62
     7
100
AcDbLine
 10
228.6244118168
 20
59.67617647048668
 30
0.0
 11
230.6244118168
 21
59.67617647049987
 31
0.0
  0
LINE
  5
11E
330
1F
100
AcDbEntity
  8
1
  6
CONTINUOUS
 62
     7
100
AcDbLine
 10
218.6244118168
 20
88.2346764707
 30
0.0
 11
216.1244118168
 21
88.2346764707
 31
0.0
  0
LINE
  5
11F
330
1F
100
AcDbEntity
  8
1
  6
CONTINUOUS
 62
     7
100
AcDbLine
 10
218.6244118168
 20
81.700579469
 30
0.0
 11
218.6244118168
 21
70.651352469
 31
0.0
  0
LINE
  5
120
330
1F
100
AcDbEntity
  8
1
  6
CONTINUOUS
 62
     7
100
AcDbLine
 10
218.6401158168
 20
84.708735469
 30
0.0
 11
218.6244118168
 21
84.592958469
 31
0.0
  0
LINE
  5
121
330
1F
100
AcDbEntity
  8
1
  6
CONTINUOUS
 62
     7
100
AcDbLine
 10
218.6288128168
 20
90.160120469
 30
0.0
 11
218.6244008168
 21
90.101011469
 31
0.0
  0
ARC
  5
122
330
1F
100
AcDbEntity
  8
1
  6
CONTINUOUS
 62
     7
100
AcDbCircle
 10
219.4632108168
 20
71.748301469
 30
0.0
 40
1.432511999999997
100
AcDbArc
 50
235.430765
 51
274.454641
  0
LINE
  5
123
330
1F
100
AcDbEntity
  8
1
  6
CONTINUOUS
 62
     7
100
AcDbLine
 10
218.6244118168
 20
81.708643469
 30
0.0
 11
218.6408068168
 21
81.767909469
 31
0.0
  0
LINE
  5
124
330
1F
100
AcDbEntity
  8
1
  6
CONTINUOUS
 62
     7
100
AcDbLine
 10
218.6399908168
 20
70.582387469
 30
0.0
 11
218.6387138168
 21
70.588007469
 31
0.0
  0
LINE
  5
125
330
1F
100
AcDbEntity
  8
1
  6
CONTINUOUS
 62
     7
100
AcDbLine
 10
218.6292668168
 20
81.670988469
 30
0.0
 11
218.6387898168
 21
81.764033469
 31
0.0
  0
LINE
  5
126
330
1F
100
AcDbEntity
  8
1
  6
CONTINUOUS
 62
     7
100
AcDbLine
 10
218.6244018168
 20
87.405243469
 30
0.0
 11
218.6244018168
 21
84.576458469
 31
0.0
  0
LINE
  5
127
330
1F
100
AcDbEntity
  8
1
  6
CONTINUOUS
 62
     7
100
AcDbLine
 10
218.6387898168
 20
81.764033469
 30
0.0
 11
218.6400208168
 21
81.769435469
 31
0.0
  0
LINE
  5
128
330
1F
100
AcDbEntity
  8
1
  6
CONTINUOUS
 62
     7
100
AcDbLine
 10
218.6405628168
 20
64.790313469
 30
0.0
 11
218.6391118168
 21
64.798308469
 31
0.0
  0
LINE
  5
129
330
1F
100
AcDbEntity
  8
1
  6
CONTINUOUS
 62
     7
100
AcDbLine
 10
218.6391118168
 20
64.798308469
 30
0.0
 11
218.6279478168
 21
64.927070469
 31
0.0
  0
ARC
  5
12A
330
1F
100
AcDbEntity
  8
1
  6
CONTINUOUS
 62
     7
100
AcDbCircle
 10
219.6091968168
 20
89.046326469
 30
0.0
 40
0.9915259999999926
100
AcDbArc
 50
92.00691200000001
 51
167.959205
  0
LINE
  5
12B
330
1F
100
AcDbEntity
  8
1
  6
CONTINUOUS
 62
     7
100
AcDbLine
 10
219.5744738168
 20
64.173959469
 30
0.0
 11
225.0994428168
 21
63.97756546900001
 31
0.0
  0
LINE
  5
12C
330
1F
100
AcDbEntity
  8
1
  6
CONTINUOUS
 62
     7
100
AcDbLine
 10
218.6504018168
 20
70.568712469
 30
0.0
 11
218.6407848168
 21
70.584025469
 31
0.0
  0
LINE
  5
12D
330
1F
100
AcDbEntity
  8
1
  6
CONTINUOUS
 62
     7
100
AcDbLine
 10
218.6287158168
 20
87.424712469
 30
0.0
 11
218.6244018168
 21
87.405247469
 31
0.0
  0
LINE
  5
12E
330
1F
100
AcDbEntity
  8
1
  6
CONTINUOUS
 62
     7
100
AcDbLine
 10
218.6387138168
 20
70.588007469
 30
0.0
 11
218.6292538168
 21
70.679822469
 31
0.0
  0
LINE
  5
12F
330
1F
100
AcDbEntity
  8
1
  6
CONTINUOUS
 62
     7
100
AcDbLine
 10
218.6280788168
 20
90.160196469
 30
0.0
 11
218.6461508168
 21
90.329256469
 31
0.0
  0
LINE
  5
130
330
1F
100
AcDbEntity
  8
1
  6
CONTINUOUS
 62
     7
100
AcDbLine
 10
218.6244118168
 20
74.510693469
 30
0.0
 11
218.6398938168
 21
74.477568469
 31
0.0
  0
LINE
  5
131
330
1F
100
AcDbEntity
  8
1
  6
CONTINUOUS
 62
     7
100
AcDbLine
 10
218.6244118168
 20
62.226186469
 30
0.0
 11
218.6244118168
 21
62.153336469
 31
0.0
  0
LINE
  5
132
330
1F
100
AcDbEntity
  8
1
  6
CONTINUOUS
 62
     7
100
AcDbLine
 10
218.6407688168
 20
64.791191469
 30
0.0
 11
218.6244118168
 21
64.927761469
 31
0.0
  0
LINE
  5
133
330
1F
100
AcDbEntity
  8
1
  6
CONTINUOUS
 62
     7
100
AcDbLine
 10
218.6244118168
 20
89.089345469
 30
0.0
 11
218.6244118168
 21
87.4052925895
 31
0.0
  0
LINE
  5
134
330
1F
100
AcDbEntity
  8
1
  6
CONTINUOUS
 62
     7
100
AcDbLine
 10
218.6244118168
 20
87.424095469
 30
0.0
 11
218.6407898168
 21
87.560749469
 31
0.0
  0
LINE
  5
135
330
1F
100
AcDbEntity
  8
1
  6
CONTINUOUS
 62
     7
100
AcDbLine
 10
218.6244118168
 20
63.262480469
 30
0.0
 11
218.6394528168
 21
63.098831469
 31
0.0
  0
LINE
  5
136
330
1F
100
AcDbEntity
  8
1
  6
CONTINUOUS
 62
     7
100
AcDbLine
 10
218.6394558168
 20
87.555040469
 30
0.0
 11
218.6406008168
 21
87.561319469
 31
0.0
  0
ARC
  5
137
330
1F
100
AcDbEntity
  8
1
  6
CONTINUOUS
 62
     7
100
AcDbCircle
 10
225.8140998168
 20
65.304933469
 30
0.0
 40
1.276844999999999
100
AcDbArc
 50
333.0895650000001
 51
56.83302199999996
  0
LINE
  5
138
330
1F
100
AcDbEntity
  8
1
  6
CONTINUOUS
 62
     7
100
AcDbLine
 10
218.6298488168
 20
81.671020469
 30
0.0
 11
218.6244048168
 21
81.700581469
 31
0.0
  0
ARC
  5
139
330
1F
100
AcDbEntity
  8
1
  6
CONTINUOUS
 62
     7
100
AcDbCircle
 10
219.6244118168
 20
62.127132469
 30
0.0
 40
1.000000000000001
100
AcDbArc
 50
180.0
 51
267.130641
  0
ARC
  5
13A
330
1F
100
AcDbEntity
  8
1
  6
CONTINUOUS
 62
     7
100
AcDbCircle
 10
225.1441788168
 20
72.222085469
 30
0.0
 40
1.973457000000012
100
AcDbArc
 50
268.7010540000001
 51
56.36055399999999
  0
ARC
  5
13B
330
1F
100
AcDbEntity
  8
1
  6
CONTINUOUS
 62
     7
100
AcDbCircle
 10
219.4387258168
 20
80.727703469
 30
0.0
 40
1.31099300000001
100
AcDbArc
 50
84.056588
 51
127.49103
  0
LINE
  5
13C
330
1F
100
AcDbEntity
  8
1
  6
CONTINUOUS
 62
     7
100
AcDbLine
 10
218.6394848168
 20
89.253167469
 30
0.0
 11
218.6244118168
 21
89.089345469
 31
0.0
  0
LINE
  5
13D
330
1F
100
AcDbEntity
  8
1
  6
CONTINUOUS
 62
     7
100
AcDbLine
 10
219.5742438168
 20
91.223374469
 30
0.0
 11
228.6395848168
 21
91.676641469
 31
0.0
  0
LINE
  5
13E
330
1F
100
AcDbEntity
  8
1
  6
CONTINUOUS
 62
     7
100
AcDbLine
 10
218.7571168168
 20
74.195795469
 30
0.0
 11
218.6244048168
 21
74.515579469
 31
0.0
  0
ARC
  5
13F
330
1F
100
AcDbEntity
  8
1
  6
CONTINUOUS
 62
     7
100
AcDbCircle
 10
219.5234458168
 20
84.265160469
 30
0.0
 40
0.9884490000000024
100
AcDbArc
 50
87.040851
 51
153.335966
  0
ARC
  5
140
330
1F
100
AcDbEntity
  8
1
  6
CONTINUOUS
 62
     7
100
AcDbCircle
 10
225.0597658168
 20
64.638278469
 30
0.0
 40
2.263341000000002
100
AcDbArc
 50
50.065251
 51
88.99552700000001
  0
LINE
  5
141
330
1F
100
AcDbEntity
  8
1
  6
CONTINUOUS
 62
     7
100
AcDbLine
 10
218.6244118168
 20
64.927761469
 30
0.0
 11
218.6244118168
 21
62.250773469
 31
0.0
  0
ARC
  5
142
330
1F
100
AcDbEntity
  8
1
  6
CONTINUOUS
 62
     7
100
AcDbCircle
 10
219.5236328168
 20
68.086750469
 30
0.0
 40
0.9885829999999873
100
AcDbArc
 50
206.647473
 51
272.9479230000001
  0
ARC
  5
143
330
1F
100
AcDbEntity
  8
1
  6
CONTINUOUS
 62
     7
100
AcDbCircle
 10
219.5334428168
 20
87.224973469
 30
0.0
 40
0.9537159999999933
100
AcDbArc
 50
87.534257
 51
159.385912
  0
LINE
  5
144
330
1F
100
AcDbEntity
  8
1
  6
CONTINUOUS
 62
     7
100
AcDbLine
 10
218.6437378168
 20
62.033562469
 30
0.0
 11
218.6244118168
 21
62.226186469
 31
0.0
  0
LINE
  5
145
330
1F
100
AcDbEntity
  8
1
  6
CONTINUOUS
 62
     7
100
AcDbLine
 10
218.6244118168
 20
67.758928469
 30
0.0
 11
218.6400538168
 21
67.643370469
 31
0.0
  0
ARC
  5
146
330
1F
100
AcDbEntity
  8
1
  6
CONTINUOUS
 62
     7
100
AcDbCircle
 10
219.5334598168
 20
65.126755469
 30
0.0
 40
0.9536780000000133
100
AcDbArc
 50
200.601294
 51
272.464826
  0
LINE
  5
147
330
1F
100
AcDbEntity
  8
1
  6
CONTINUOUS
 62
     7
100
AcDbLine
 10
218.6244048168
 20
70.651357469
 30
0.0
 11
218.6301648168
 21
70.679740469
 31
0.0
  0
LINE
  5
148
330
1F
100
AcDbEntity
  8
1
  6
CONTINUOUS
 62
     7
100
AcDbLine
 10
218.6244118168
 20
84.592958469
 30
0.0
 11
218.6244118168
 21
81.708643469
 31
0.0
  0
LINE
  5
149
330
1F
100
AcDbEntity
  8
1
  6
CONTINUOUS
 62
     7
100
AcDbLine
 10
218.6244088168
 20
62.250779469
 30
0.0
 11
218.6288158168
 21
62.191691469
 31
0.0
  0
ARC
  5
14A
330
1F
100
AcDbEntity
  8
1
  6
CONTINUOUS
 62
     7
100
AcDbCircle
 10
225.3412078168
 20
66.045761469
 30
0.0
 40
2.082278999999992
100
AcDbArc
 50
263.3325849999999
 51
320.705362
  0
LINE
  5
14B
330
1F
100
AcDbEntity
  8
1
  6
CONTINUOUS
 62
     7
100
AcDbLine
 10
218.6397628168
 20
77.874200469
 30
0.0
 11
218.6244118168
 21
77.841222469
 31
0.0
  0
ARC
  5
14C
330
1F
100
AcDbEntity
  8
1
  6
CONTINUOUS
 62
     7
100
AcDbCircle
 10
219.6167288168
 20
62.236801469
 30
0.0
 40
0.9939909999999996
100
AcDbArc
 50
191.798342
 51
267.563577
  0
LINE
  5
14D
330
1F
100
AcDbEntity
  8
1
  6
CONTINUOUS
 62
     7
100
AcDbLine
 10
219.5744738168
 20
70.320116469
 30
0.0
 11
225.0994428168
 21
70.249136469
 31
0.0
  0
LINE
  5
14E
330
1F
100
AcDbEntity
  8
1
  6
CONTINUOUS
 62
     7
100
AcDbLine
 10
225.0994428168
 20
74.242992469
 30
0.0
 11
219.5744738168
 21
74.316444469
 31
0.0
  0
LINE
  5
14F
330
1F
100
AcDbEntity
  8
1
  6
CONTINUOUS
 62
     7
100
AcDbLine
 10
225.0994428168
 20
66.901271469
 30
0.0
 11
219.5744738168
 21
67.099475469
 31
0.0
  0
LINE
  5
150
330
1F
100
AcDbEntity
  8
1
  6
CONTINUOUS
 62
     7
100
AcDbLine
 10
218.6407848168
 20
70.584025469
 30
0.0
 11
218.6244118168
 21
70.643260469
 31
0.0
  0
ARC
  5
151
330
1F
100
AcDbEntity
  8
1
  6
CONTINUOUS
 62
     7
100
AcDbCircle
 10
219.4785648168
 20
75.799896469
 30
0.0
 40
2.237482000000013
100
AcDbArc
 50
87.54327200000002
 51
112.017305
  0
LINE
  5
152
330
1F
100
AcDbEntity
  8
1
  6
CONTINUOUS
 62
     7
100
AcDbLine
 10
218.6244118168
 20
70.643260469
 30
0.0
 11
218.6244118168
 21
64.946630469
 31
0.0
  0
LINE
  5
153
330
1F
100
AcDbEntity
  8
1
  6
CONTINUOUS
 62
     7
100
AcDbLine
 10
218.6244058168
 20
64.946636469
 30
0.0
 11
218.6287388168
 21
64.927085469
 31
0.0
  0
ARC
  5
154
330
1F
100
AcDbEntity
  8
1
  6
CONTINUOUS
 62
     7
100
AcDbCircle
 10
219.6092778168
 20
63.30551446899999
 30
0.0
 40
0.991604000000007
100
AcDbArc
 50
192.030527
 51
267.988612
  0
LINE
  5
155
330
1F
100
AcDbEntity
  8
1
  6
CONTINUOUS
 62
     7
100
AcDbLine
 10
218.6244008168
 20
90.101008469
 30
0.0
 11
218.6244008168
 21
89.065619469
 31
0.0
  0
ARC
  5
156
330
1F
100
AcDbEntity
  8
1
  6
CONTINUOUS
 62
     7
100
AcDbCircle
 10
219.6167148168
 20
90.114975469
 30
0.0
 40
0.9939800000000054
100
AcDbArc
 50
92.435613
 51
168.183259
  0
LINE
  5
157
330
1F
100
AcDbEntity
  8
1
  6
CONTINUOUS
 62
     7
100
AcDbLine
 10
218.6244118168
 20
90.125598469
 30
0.0
 11
218.6437988168
 21
90.318524469
 31
0.0
  0
LINE
  5
158
330
1F
100
AcDbEntity
  8
1
  6
CONTINUOUS
 62
     7
100
AcDbLine
 10
228.6244118168
 20
60.675883469
 30
0.0
 11
219.5742438168
 21
61.128391469
 31
0.0
  0
LINE
  5
159
330
1F
100
AcDbEntity
  8
1
  6
CONTINUOUS
 62
     7
100
AcDbLine
 10
218.8575448168
 20
74.100822469
 30
0.0
 11
218.7571168168
 21
74.195795469
 31
0.0
  0
LINE
  5
15A
330
1F
100
AcDbEntity
  8
1
  6
CONTINUOUS
 62
     7
100
AcDbLine
 10
218.6244118168
 20
90.198436469
 30
0.0
 11
218.6244118168
 21
90.125598469
 31
0.0
  0
LINE
  5
15B
330
1F
100
AcDbEntity
  8
1
  6
CONTINUOUS
 62
     7
100
AcDbLine
 10
218.6396568168
 20
77.870476469
 30
0.0
 11
218.6398238168
 21
77.874155469
 31
0.0
  0
LINE
  5
15C
330
1F
100
AcDbEntity
  8
1
  6
CONTINUOUS
 62
     7
100
AcDbLine
 10
218.8165968168
 20
74.131286469
 30
0.0
 11
218.7570548168
 21
74.195726469
 31
0.0
  0
ARC
  5
15D
330
1F
100
AcDbEntity
  8
1
  6
CONTINUOUS
 62
     7
100
AcDbCircle
 10
219.4794328168
 20
76.556197469
 30
0.0
 40
2.241768000000005
100
AcDbArc
 50
248.00666
 51
272.429813
  0
ARC
  5
15E
330
1F
100
AcDbEntity
  8
1
  6
CONTINUOUS
 62
     7
100
AcDbCircle
 10
225.0993208168
 20
72.340420469
 30
0.0
 40
1.902572999999991
100
AcDbArc
 50
53.260245
 51
89.99633500000003
  0
LINE
  5
15F
330
1F
100
AcDbEntity
  8
1
  6
CONTINUOUS
 62
     7
100
AcDbLine
 10
167.1731628168
 20
76.1758834648
 30
0.0
 11
167.0741268168
 21
77.8410734648
 31
0.0
  0
ARC
  5
160
330
1F
100
AcDbEntity
  8
1
  6
CONTINUOUS
 62
     7
100
AcDbCircle
 10
153.1244118168
 20
76.1758834648
 30
0.0
 40
14.048751
100
AcDbArc
 50
323.192149
 51
336.807238
  0
ARC
  5
161
330
1F
100
AcDbEntity
  8
1
  6
CONTINUOUS
 62
     7
100
AcDbCircle
 10
153.1244118168
 20
76.1758834648
 30
0.0
 40
14.048751
100
AcDbArc
 50
113.192146
 51
126.807238
  0
ARC
  5
162
330
1F
100
AcDbEntity
  8
1
  6
CONTINUOUS
 62
     7
100
AcDbCircle
 10
153.1244178168
 20
76.1758774648
 30
0.0
 40
14.023765
100
AcDbArc
 50
126.799331
 51
143.199922
  0
LINE
  5
163
330
1F
100
AcDbEntity
  8
1
  6
CONTINUOUS
 62
     7
100
AcDbLine
 10
166.6654388168
 20
70.9260004648
 30
0.0
 11
166.0140868168
 21
70.6511804648
 31
0.0
  0
CIRCLE
  5
164
330
1F
100
AcDbEntity
  8
1
  6
CONTINUOUS
 62
     7
100
AcDbCircle
 10
153.1244118168
 20
76.1758834648
 30
0.0
 40
13.2205
  0
ARC
  5
165
330
1F
100
AcDbEntity
  8
1
  6
CONTINUOUS
 62
     7
100
AcDbCircle
 10
153.1244058168
 20
76.1758774648
 30
0.0
 40
14.023773
100
AcDbArc
 50
36.799343
 51
53.199937
  0
LINE
  5
166
330
1F
100
AcDbEntity
  8
1
  6
CONTINUOUS
 62
     7
100
AcDbLine
 10
164.4195178168
 20
67.0072314648
 30
0.0
 11
164.4425098168
 21
67.0752304648
 31
0.0
  0
LINE
  5
167
330
1F
100
AcDbEntity
  8
1
  6
CONTINUOUS
 62
     7
100
AcDbLine
 10
143.9554688168
 20
64.8808764648
 30
0.0
 11
144.0239868168
 21
64.8575944648
 31
0.0
  0
ARC
  5
168
330
1F
100
AcDbEntity
  8
1
  6
CONTINUOUS
 62
     7
100
AcDbCircle
 10
219.6244118168
 20
90.224634469
 30
0.0
 40
1.000000000000001
100
AcDbArc
 50
92.869359
 51
180.0
  0
ARC
  5
169
330
1F
100
AcDbEntity
  8
1
  6
CONTINUOUS
 62
     7
100
AcDbCircle
 10
153.1244098168
 20
76.1758914648
 30
0.0
 40
14.02377
100
AcDbArc
 50
276.799341
 51
293.199935
  0
LINE
  5
16A
330
1F
100
AcDbEntity
  8
1
  6
CONTINUOUS
 62
     7
100
AcDbLine
 10
218.6280148168
 20
90.160112469
 30
0.0
 11
218.6459568168
 21
90.328763469
 31
0.0
  0
ARC
  5
16B
330
1F
100
AcDbEntity
  8
1
  6
CONTINUOUS
 62
     7
100
AcDbCircle
 10
153.1244118168
 20
76.1758834648
 30
0.0
 40
14.048751
100
AcDbArc
 50
53.19214900000001
 51
66.807236
  0
ARC
  5
16C
330
1F
100
AcDbEntity
  8
1
  6
CONTINUOUS
 62
     7
100
AcDbCircle
 10
153.1244118168
 20
76.1758834648
 30
0.0
 40
14.048751
100
AcDbArc
 50
23.192146
 51
36.807239
  0
ARC
  5
16D
330
1F
100
AcDbEntity
  8
1
  6
CONTINUOUS
 62
     7
100
AcDbCircle
 10
153.1244138168
 20
76.1758914648
 30
0.0
 40
14.02377
100
AcDbArc
 50
246.799334
 51
263.1999260000001
  0
ARC
  5
16E
330
1F
100
AcDbEntity
  8
1
  6
CONTINUOUS
 62
     7
100
AcDbCircle
 10
153.1244208168
 20
76.1758814648
 30
0.0
 40
14.023767
100
AcDbArc
 50
156.799339
 51
173.199933
  0
ARC
  5
16F
330
1F
100
AcDbEntity
  8
1
  6
CONTINUOUS
 62
     7
100
AcDbCircle
 10
153.1244028168
 20
76.1758814648
 30
0.0
 40
14.023773
100
AcDbArc
 50
6.799337
 51
23.199928
  0
ARC
  5
170
330
1F
100
AcDbEntity
  8
1
  6
CONTINUOUS
 62
     7
100
AcDbCircle
 10
153.1244118168
 20
76.1758834648
 30
0.0
 40
14.048751
100
AcDbArc
 50
143.192146
 51
156.807239
  0
LINE
  5
171
330
1F
100
AcDbEntity
  8
1
  6
CONTINUOUS
 62
     7
100
AcDbLine
 10
154.7848968168
 20
90.1009814648
 30
0.0
 11
155.3483488168
 21
90.5276924648
 31
0.0
  0
LINE
  5
172
330
1F
100
AcDbEntity
  8
1
  6
CONTINUOUS
 62
     7
100
AcDbLine
 10
158.3739948168
 20
89.7170174648
 30
0.0
 11
158.6491088168
 21
89.0655504648
 31
0.0
  0
LINE
  5
173
330
1F
100
AcDbEntity
  8
1
  6
CONTINUOUS
 62
     7
100
AcDbLine
 10
167.4762458168
 20
78.3997334648
 30
0.0
 11
167.0495488168
 21
77.8361894648
 31
0.0
  0
LINE
  5
174
330
1F
100
AcDbEntity
  8
1
  6
CONTINUOUS
 62
     7
100
AcDbLine
 10
167.1731628168
 20
76.1758834648
 30
0.0
 11
168.1719148168
 21
76.1758834648
 31
0.0
  0
LINE
  5
175
330
1F
100
AcDbEntity
  8
1
  6
CONTINUOUS
 62
     7
100
AcDbLine
 10
162.2265898168
 20
64.8590404648
 30
0.0
 11
161.5248468168
 21
64.9465174648
 31
0.0
  0
LINE
  5
176
330
1F
100
AcDbEntity
  8
1
  6
CONTINUOUS
 62
     7
100
AcDbLine
 10
151.4639238168
 20
62.2507794648
 30
0.0
 11
150.9004048168
 21
61.8240754648
 31
0.0
  0
ARC
  5
177
330
1F
100
AcDbEntity
  8
1
  6
CONTINUOUS
 62
     7
100
AcDbCircle
 10
153.1244118168
 20
76.1758834648
 30
0.0
 40
14.048751
100
AcDbArc
 50
83.19214899999999
 51
96.807238
  0
ARC
  5
178
330
1F
100
AcDbEntity
  8
1
  6
CONTINUOUS
 62
     7
100
AcDbCircle
 10
153.1244208168
 20
76.1758854648
 30
0.0
 40
14.023767
100
AcDbArc
 50
186.79933
 51
203.199927
  0
ARC
  5
179
330
1F
100
AcDbEntity
  8
1
  6
CONTINUOUS
 62
     7
100
AcDbCircle
 10
153.1244028168
 20
76.1758854648
 30
0.0
 40
14.023773
100
AcDbArc
 50
336.79933
 51
353.199921
  0
ARC
  5
17A
330
1F
100
AcDbEntity
  8
1
  6
CONTINUOUS
 62
     7
100
AcDbCircle
 10
153.1244118168
 20
76.1758834648
 30
0.0
 40
14.048751
100
AcDbArc
 50
233.192146
 51
246.807238
  0
LINE
  5
17B
330
1F
100
AcDbEntity
  8
1
  6
CONTINUOUS
 62
     7
100
AcDbLine
 10
147.8744058168
 20
62.63490846479999
 30
0.0
 11
147.5997108168
 21
63.2862104648
 31
0.0
  0
LINE
  5
17C
330
1F
100
AcDbEntity
  8
1
  6
CONTINUOUS
 62
     7
100
AcDbLine
 10
139.5834558168
 20
81.4259274648
 30
0.0
 11
140.2347418168
 21
81.7005814648
 31
0.0
  0
LINE
  5
17D
330
1F
100
AcDbEntity
  8
1
  6
CONTINUOUS
 62
     7
100
AcDbLine
 10
167.0741098168
 20
74.5105434648
 30
0.0
 11
167.1731638168
 21
76.1758834648
 31
0.0
  0
LINE
  5
17E
330
1F
100
AcDbEntity
  8
1
  6
CONTINUOUS
 62
     7
100
AcDbLine
 10
141.8073698168
 20
67.0739544648
 30
0.0
 11
141.8950448168
 21
67.7754524648
 31
0.0
  0
LINE
  5
17F
330
1F
100
AcDbEntity
  8
1
  6
CONTINUOUS
 62
     7
100
AcDbLine
 10
167.4906458168
 20
73.8828494648
 30
0.0
 11
167.4765498168
 21
73.9538284648
 31
0.0
  0
ARC
  5
180
330
1F
100
AcDbEntity
  8
1
  6
CONTINUOUS
 62
     7
100
AcDbCircle
 10
153.1244098168
 20
76.1758744648
 30
0.0
 40
14.023764
100
AcDbArc
 50
66.79934000000002
 51
83.199938
  0
LINE
  5
181
330
1F
100
AcDbEntity
  8
1
  6
CONTINUOUS
 62
     7
100
AcDbLine
 10
166.0141528168
 20
81.7004124648
 30
0.0
 11
166.6654478168
 21
81.4257424648
 31
0.0
  0
ARC
  5
182
330
1F
100
AcDbEntity
  8
1
  6
CONTINUOUS
 62
     7
100
AcDbCircle
 10
153.1244178168
 20
76.1758894648
 30
0.0
 40
14.023768
100
AcDbArc
 50
216.7993260000001
 51
233.199918
  0
LINE
  5
183
330
1F
100
AcDbEntity
  8
1
  6
CONTINUOUS
 62
     7
100
AcDbLine
 10
167.0495188168
 20
74.5153934648
 30
0.0
 11
167.4762418168
 21
73.9520054648
 31
0.0
  0
ARC
  5
184
330
1F
100
AcDbEntity
  8
1
  6
CONTINUOUS
 62
     7
100
AcDbCircle
 10
153.1244118168
 20
76.1758834648
 30
0.0
 40
14.048751
100
AcDbArc
 50
203.192149
 51
216.807238
  0
LINE
  5
185
330
1F
100
AcDbEntity
  8
1
  6
CONTINUOUS
 62
     7
100
AcDbLine
 10
150.9004298168
 20
90.5276894648
 30
0.0
 11
151.4641068168
 21
90.1010114648
 31
0.0
  0
LINE
  5
186
330
1F
100
AcDbEntity
  8
1
  6
CONTINUOUS
 62
     7
100
AcDbLine
 10
164.3536638168
 20
67.7753094648
 30
0.0
 11
164.4414788168
 21
67.0739904648
 31
0.0
  0
ARC
  5
187
330
1F
100
AcDbEntity
  8
1
  6
CONTINUOUS
 62
     7
100
AcDbCircle
 10
153.1244118168
 20
76.1758834648
 30
0.0
 40
14.048751
100
AcDbArc
 50
293.192148
 51
306.807236
  0
ARC
  5
188
330
1F
100
AcDbEntity
  8
1
  6
CONTINUOUS
 62
     7
100
AcDbCircle
 10
153.1244118168
 20
76.1758834648
 30
0.0
 40
14.048751
100
AcDbArc
 50
173.19215
 51
186.807236
  0
ARC
  5
189
330
1F
100
AcDbEntity
  8
1
  6
CONTINUOUS
 62
     7
100
AcDbCircle
 10
153.1244118168
 20
76.1758834648
 30
0.0
 40
14.048751
100
AcDbArc
 50
263.1921459999999
 51
276.8072379999999
  0
ARC
  5
18A
330
1F
100
AcDbEntity
  8
1
  6
CONTINUOUS
 62
     7
100
AcDbCircle
 10
153.1244138168
 20
76.1758744648
 30
0.0
 40
14.023764
100
AcDbArc
 50
96.799336
 51
113.199928
  0
LINE
  5
18B
330
1F
100
AcDbEntity
  8
1
  6
CONTINUOUS
 62
     7
100
AcDbLine
 10
158.6489408168
 20
63.28614646480001
 30
0.0
 11
158.3739758168
 21
62.6347364648
 31
0.0
  0
LINE
  5
18C
330
1F
100
AcDbEntity
  8
1
  6
CONTINUOUS
 62
     7
100
AcDbLine
 10
164.4415648168
 20
85.2776764648
 30
0.0
 11
164.3537798168
 21
84.5763194648
 31
0.0
  0
LINE
  5
18D
330
1F
100
AcDbEntity
  8
1
  6
CONTINUOUS
 62
     7
100
AcDbLine
 10
140.2346768168
 20
70.6513574648
 30
0.0
 11
139.5834088168
 21
70.9259664648
 31
0.0
  0
LINE
  5
18E
330
1F
100
AcDbEntity
  8
1
  6
CONTINUOUS
 62
     7
100
AcDbLine
 10
144.7238348168
 20
64.9466364648
 30
0.0
 11
144.0225648168
 21
64.8587774648
 31
0.0
  0
LINE
  5
18F
330
1F
100
AcDbEntity
  8
1
  6
CONTINUOUS
 62
     7
100
AcDbLine
 10
161.5249878168
 20
87.4051364648
 30
0.0
 11
162.2266078168
 21
87.4927144648
 31
0.0
  0
LINE
  5
190
330
1F
100
AcDbEntity
  8
1
  6
CONTINUOUS
 62
     7
100
AcDbLine
 10
139.1993108168
 20
77.8363694648
 30
0.0
 11
138.7726548168
 21
78.4002014648
 31
0.0
  0
ARC
  5
191
330
1F
100
AcDbEntity
  8
1
  6
CONTINUOUS
 62
     7
100
AcDbCircle
 10
153.1244058168
 20
76.1758894648
 30
0.0
 40
14.02377
100
AcDbArc
 50
306.799344
 51
323.199942
  0
LINE
  5
192
330
1F
100
AcDbEntity
  8
1
  6
CONTINUOUS
 62
     7
100
AcDbLine
 10
141.8951668168
 20
84.5764574648
 30
0.0
 11
141.8073898168
 21
85.2778314648
 31
0.0
  0
LINE
  5
193
330
1F
100
AcDbEntity
  8
1
  6
CONTINUOUS
 62
     7
100
AcDbLine
 10
144.0225898168
 20
87.4930054648
 30
0.0
 11
144.7239818168
 21
87.4052474648
 31
0.0
  0
LINE
  5
194
330
1F
100
AcDbEntity
  8
1
  6
CONTINUOUS
 62
     7
100
AcDbLine
 10
138.7726508168
 20
73.9515904648
 30
0.0
 11
139.1992808168
 21
74.5155794648
 31
0.0
  0
LINE
  5
195
330
1F
100
AcDbEntity
  8
1
  6
CONTINUOUS
 62
     7
100
AcDbLine
 10
158.3218658168
 20
62.5879844648
 30
0.0
 11
158.3752998168
 21
62.63522646480001
 31
0.0
  0
LINE
  5
196
330
1F
100
AcDbEntity
  8
1
  6
CONTINUOUS
 62
     7
100
AcDbLine
 10
147.5998868168
 20
89.0656154648
 30
0.0
 11
147.8744328168
 21
89.7168624648
 31
0.0
  0
LINE
  5
197
330
1F
100
AcDbEntity
  8
1
  6
CONTINUOUS
 62
     7
100
AcDbLine
 10
162.2931498168
 20
87.4709604648
 30
0.0
 11
162.2255198168
 21
87.4936144648
 31
0.0
  0
LINE
  5
198
330
1F
100
AcDbEntity
  8
1
  6
CONTINUOUS
 62
     7
100
AcDbLine
 10
155.3482188168
 20
61.8240464648
 30
0.0
 11
154.7847188168
 21
62.2507494648
 31
0.0
  0
LINE
  5
199
330
1F
100
AcDbEntity
  8
1
  6
CONTINUOUS
 62
     7
100
AcDbLine
 10
138.7582188168
 20
78.4687054648
 30
0.0
 11
138.7724148168
 21
78.3988084648
 31
0.0
  0
LINE
  5
19A
330
1F
100
AcDbEntity
  8
1
  6
CONTINUOUS
 62
     7
100
AcDbLine
 10
139.5365738168
 20
70.9783604648
 30
0.0
 11
139.5839668168
 21
70.9244494648
 31
0.0
  0
LINE
  5
19B
330
1F
100
AcDbEntity
  8
1
  6
CONTINUOUS
 62
     7
100
AcDbLine
 10
155.4171438168
 20
90.5420574648
 30
0.0
 11
155.3467598168
 21
90.5279694648
 31
0.0
  0
LINE
  5
19C
330
1F
100
AcDbEntity
  8
1
  6
CONTINUOUS
 62
     7
100
AcDbLine
 10
150.8316798168
 20
61.8097084648
 30
0.0
 11
150.9022618168
 21
61.8237574648
 31
0.0
  0
LINE
  5
19D
330
1F
100
AcDbEntity
  8
1
  6
CONTINUOUS
 62
     7
100
AcDbLine
 10
166.7122498168
 20
81.3734064648
 30
0.0
 11
166.6647918168
 21
81.4275074648
 31
0.0
  0
LINE
  5
19E
330
1F
100
AcDbEntity
  8
1
  6
CONTINUOUS
 62
     7
100
AcDbLine
 10
147.9271198168
 20
89.7639244648
 30
0.0
 11
147.8726988168
 21
89.7162274648
 31
0.0
  0
LINE
  5
19F
330
1F
100
AcDbEntity
  8
1
  6
CONTINUOUS
 62
     7
100
AcDbLine
 10
154.681763789
 20
95.1134665504
 30
0.0
 11
156.1244118355
 21
93.6708185039
 31
0.0
  0
ARC
  5
1A0
330
1F
100
AcDbEntity
  8
1
  6
CONTINUOUS
 62
     7
100
AcDbCircle
 10
171.3545951173
 20
77.026421629
 30
0.0
 40
1.0
100
AcDbArc
 50
2.6703068119
 51
45.0
  0
ARC
  5
1A1
330
1F
100
AcDbEntity
  8
1
  6
CONTINUOUS
 62
     7
100
AcDbCircle
 10
134.8942285163
 20
77.026421629
 30
0.0
 40
1.0
100
AcDbArc
 50
135.0
 51
177.3296931881
  0
CIRCLE
  5
1A2
330
1F
100
AcDbEntity
  8
1
  6
CONTINUOUS
 62
     7
100
AcDbCircle
 10
153.1244118168
 20
76.1761764702
 30
0.0
 40
13.2205
  0
ARC
  5
1A3
330
1F
100
AcDbEntity
  8
1
  6
CONTINUOUS
 62
     7
100
AcDbCircle
 10
153.1244118168
 20
76.1761764702
 30
0.0
 40
17.75
100
AcDbArc
 50
234.7305008649
 51
260.2694992566
  0
ARC
  5
1A4
330
1F
100
AcDbEntity
  8
1
  6
CONTINUOUS
 62
     7
100
AcDbCircle
 10
140.834939724
 20
62.6842760969
 30
0.0
 40
1.0
100
AcDbArc
 50
227.6703069132
 51
270.0
  0
CIRCLE
  5
1A5
330
1F
100
AcDbEntity
  8
1
  6
CONTINUOUS
 62
     7
100
AcDbCircle
 10
153.1244118168
 20
76.176176471
 30
0.0
 40
21.75
  0
LINE
  5
1A6
330
1F
100
AcDbEntity
  8
1
  6
CONTINUOUS
 62
     7
100
AcDbLine
 10
134.1871217351
 20
77.7335284102
 30
0.0
 11
135.6297697958
 21
79.176176471
 31
0.0
  0
ARC
  5
1A7
330
1F
100
AcDbEntity
  8
1
  6
CONTINUOUS
 62
     7
100
AcDbCircle
 10
139.6325114652
 20
63.8867043536
 30
0.0
 40
1.0
100
AcDbArc
 50
180.0
 51
222.3296931881
  0
ARC
  5
1A8
330
1F
100
AcDbEntity
  8
1
  6
CONTINUOUS
 62
     7
100
AcDbCircle
 10
153.1244118168
 20
76.1761764702
 30
0.0
 40
19.25
100
AcDbArc
 50
357.3296930868
 51
2.67030681189999
  0
LINE
  5
1A9
330
1F
100
AcDbEntity
  8
1
  6
CENTER
 62
     5
100
AcDbLine
 10
153.1244118168
 20
104.1761764708
 30
0.0
 11
153.1244118168
 21
48.1761764708
 31
0.0
  0
LINE
  5
1AB
330
1F
100
AcDbEntity
  8
1
  6
CONTINUOUS
 62
     7
100
AcDbLine
 10
217.1244118167
 20
64.1176764707
 30
0.0
 11
218.2864118168
 21
62.95567647069999
 31
0.0
  0
ARC
  5
1AC
330
1F
100
AcDbEntity
  8
1
  6
CONTINUOUS
 62
     7
100
AcDbCircle
 10
152.2741666579
 20
57.9459931697
 30
0.0
 40
1.0
100
AcDbArc
 50
225.0
 51
267.3296931878
  0
ARC
  5
1AD
330
1F
100
AcDbEntity
  8
1
  6
CONTINUOUS
 62
     7
100
AcDbCircle
 10
153.1244118168
 20
76.1761764702
 30
0.0
 40
19.25
100
AcDbArc
 50
42.3296930867
 51
47.670306812
  0
ARC
  5
1AE
330
1F
100
AcDbEntity
  8
1
  6
CONTINUOUS
 62
     7
100
AcDbCircle
 10
153.1244118168
 20
76.1761764702
 30
0.0
 40
17.75
100
AcDbArc
 50
54.7305007434
 51
80.2694991351
  0
LINE
  5
1AF
330
1F
100
AcDbEntity
  8
1
  6
CONTINUOUS
 62
     7
100
AcDbLine
 10
216.1244118168
 20
88.2346764707
 30
0.0
 11
216.1244118168
 21
64.1176764707
 31
0.0
  0
ARC
  5
1B0
330
1F
100
AcDbEntity
  8
1
  6
CONTINUOUS
 62
     7
100
AcDbCircle
 10
153.1244118168
 20
76.1761764702
 30
0.0
 40
17.75
100
AcDbArc
 50
279.7305007434
 51
305.2694991351
  0
LINE
  5
1B1
330
1F
100
AcDbEntity
  8
1
  6
CONTINUOUS
 62
     7
100
AcDbLine
 10
172.0617018985
 20
77.7335284102
 30
0.0
 11
170.6190538377
 21
79.176176471
 31
0.0
  0
LINE
  5
1B2
330
1F
100
AcDbEntity
  8
1
  6
CONTINUOUS
 62
     7
100
AcDbLine
 10
218.2864118168
 20
89.3966764707
 30
0.0
 11
218.2864118168
 21
62.95567647069999
 31
0.0
  0
ARC
  5
1B3
330
1F
100
AcDbEntity
  8
1
  6
CONTINUOUS
 62
     7
100
AcDbCircle
 10
134.8942285178
 20
75.3259312792
 30
0.0
 40
1.0
100
AcDbArc
 50
182.6703069132
 51
225.0
  0
ARC
  5
1B4
330
1F
100
AcDbEntity
  8
1
  6
CONTINUOUS
 62
     7
100
AcDbCircle
 10
153.1244118168
 20
76.1761764702
 30
0.0
 40
19.25
100
AcDbArc
 50
132.329693188
 51
137.6703069133
  0
LINE
  5
1B5
330
1F
100
AcDbEntity
  8
1
  6
CONTINUOUS
 62
     7
100
AcDbLine
 10
140.8349397002
 20
90.6680768217
 30
0.0
 11
142.8751521534
 21
90.6680768217
 31
0.0
  0
ARC
  5
1B6
330
1F
100
AcDbEntity
  8
1
  6
CONTINUOUS
 62
     7
100
AcDbCircle
 10
153.1244118168
 20
76.1761764702
 30
0.0
 40
19.25
100
AcDbArc
 50
312.3296930868
 51
317.6703068119
  0
LINE
  5
1B7
330
1F
100
AcDbEntity
  8
1
  6
CONTINUOUS
 62
     7
100
AcDbLine
 10
138.6325114435
 20
88.4656485629
 30
0.0
 11
138.6325114435
 21
86.4254361299
 31
0.0
  0
ARC
  5
1B8
330
1F
100
AcDbEntity
  8
1
  6
CONTINUOUS
 62
     7
100
AcDbCircle
 10
153.1244118168
 20
76.1761764702
 30
0.0
 40
19.25
100
AcDbArc
 50
177.3296931881
 51
182.6703069132
  0
LINE
  5
1B9
330
1F
100
AcDbEntity
  8
1
  6
CONTINUOUS
 62
     7
100
AcDbLine
 10
167.6163121683
 20
63.8867043536
 30
0.0
 11
167.6163121683
 21
65.9269168069
 31
0.0
  0
ARC
  5
1BA
330
1F
100
AcDbEntity
  8
1
  6
CONTINUOUS
 62
     7
100
AcDbCircle
 10
140.8349397002
 20
89.6680768217
 30
0.0
 40
1.0
100
AcDbArc
 50
90.0
 51
132.329693188
  0
LINE
  5
1BB
330
1F
100
AcDbEntity
  8
1
  6
CONTINUOUS
 62
     7
100
AcDbLine
 10
165.4138839095
 20
61.6842760969
 30
0.0
 11
163.3736714765
 21
61.6842760969
 31
0.0
  0
LINE
  5
1BC
330
1F
100
AcDbEntity
  8
1
  6
CENTER
 62
     5
100
AcDbLine
 10
200.3244118168
 20
76.1761764703
 30
0.0
 11
276.1244118168
 21
76.1761764708
 31
0.0
  0
LINE
  5
1BD
330
1F
100
AcDbEntity
  8
1
  6
CENTER
 62
     5
100
AcDbLine
 10
125.1244118168
 20
76.1761764708
 30
0.0
 11
181.1244118168
 21
76.1761764735
 31
0.0
  0
ARC
  5
1BE
330
1F
100
AcDbEntity
  8
1
  6
CONTINUOUS
 62
     7
100
AcDbCircle
 10
153.1244118168
 20
76.1761764702
 30
0.0
 40
17.75
100
AcDbArc
 50
324.7305008148
 51
350.2694991351
  0
LINE
  5
1BF
330
1F
100
AcDbEntity
  8
1
  6
CONTINUOUS
 62
     7
100
AcDbLine
 10
172.061701897
 20
74.618824498
 30
0.0
 11
170.6190538505
 21
73.1761764515
 31
0.0
  0
LINE
  5
1C0
330
1F
100
AcDbEntity
  8
1
  6
CONTINUOUS
 62
     7
100
AcDbLine
 10
230.6244118168
 20
56.9261764706
 30
0.0
 11
230.6244118168
 21
95.4261764706
 31
0.0
  0
ARC
  5
1C1
330
1F
100
AcDbEntity
  8
1
  6
CONTINUOUS
 62
     7
100
AcDbCircle
 10
153.1244118168
 20
76.1761764702
 30
0.0
 40
17.75
100
AcDbArc
 50
99.73050086490001
 51
125.2694992566
  0
LINE
  5
1C2
330
1F
100
AcDbEntity
  8
1
  6
CONTINUOUS
 62
     7
100
AcDbLine
 10
165.4138839333
 20
90.6680768217
 30
0.0
 11
163.3736714801
 21
90.6680768217
 31
0.0
  0
ARC
  5
1C3
330
1F
100
AcDbEntity
  8
1
  6
CONTINUOUS
 62
     7
100
AcDbCircle
 10
139.6325114435
 20
88.4656485629
 30
0.0
 40
1.0
100
AcDbArc
 50
137.6703069133
 51
180.0
  0
LINE
  5
1C4
330
1F
100
AcDbEntity
  8
1
  6
CONTINUOUS
 62
     7
100
AcDbLine
 10
167.61631219
 20
88.4656485629
 30
0.0
 11
167.61631219
 21
86.4254361299
 31
0.0
  0
ARC
  5
1C5
330
1F
100
AcDbEntity
  8
1
  6
CONTINUOUS
 62
     7
100
AcDbCircle
 10
153.9746570078
 20
94.4063597692
 30
0.0
 40
1.0
100
AcDbArc
 50
45.0
 51
87.3296930867
  0
LINE
  5
1C6
330
1F
100
AcDbEntity
  8
1
  6
CONTINUOUS
 62
     7
100
AcDbLine
 10
217.1244118168
 20
64.1176764707
 30
0.0
 11
217.1244118168
 21
88.2346764707
 31
0.0
  0
LINE
  5
1C7
330
1F
100
AcDbEntity
  8
1
  6
CONTINUOUS
 62
     7
100
AcDbLine
 10
151.5670598767
 20
57.2388863885
 30
0.0
 11
150.124411816
 21
58.6815344493
 31
0.0
  0
ARC
  5
1C8
330
1F
100
AcDbEntity
  8
1
  6
CONTINUOUS
 62
     7
100
AcDbCircle
 10
153.1244118168
 20
76.1761764702
 30
0.0
 40
17.75
100
AcDbArc
 50
144.7305008649
 51
170.2694991852
  0
ARC
  5
1C9
330
1F
100
AcDbEntity
  8
1
  6
CONTINUOUS
 62
     7
100
AcDbCircle
 10
152.2741666257
 20
94.4063597692
 30
0.0
 40
1.0
100
AcDbArc
 50
92.6703069133
 51
135.0
  0
LINE
  5
1CA
330
1F
100
AcDbEntity
  8
1
  6
CONTINUOUS
 62
     7
100
AcDbLine
 10
151.5670598445
 20
95.1134665504
 30
0.0
 11
150.1244117981
 21
93.6708185039
 31
0.0
  0
LINE
  5
1CB
330
1F
100
AcDbEntity
  8
1
  6
CONTINUOUS
 62
     7
100
AcDbLine
 10
154.6817637568
 20
57.2388863885
 30
0.0
 11
156.1244118175
 21
58.6815344493
 31
0.0
  0
ARC
  5
1CC
330
1F
100
AcDbEntity
  8
1
  6
CONTINUOUS
 62
     7
100
AcDbCircle
 10
165.4138839333
 20
89.6680768217
 30
0.0
 40
1.0
100
AcDbArc
 50
47.670306812
 51
90.0
  0
ARC
  5
1CD
330
1F
100
AcDbEntity
  8
1
  6
CONTINUOUS
 62
     7
100
AcDbCircle
 10
153.1244118168
 20
76.1761764702
 30
0.0
 40
17.75
100
AcDbArc
 50
9.7305008148
 51
35.2694991351
  0
ARC
  5
1CE
330
1F
100
AcDbEntity
  8
1
  6
CONTINUOUS
 62
     7
100
AcDbCircle
 10
166.61631219
 20
88.4656485629
 30
0.0
 40
1.0
100
AcDbArc
 50
0.0
 51
42.3296930867
  0
LINE
  5
1CF
330
1F
100
AcDbEntity
  8
1
  6
CONTINUOUS
 62
     7
100
AcDbLine
 10
217.1244118168
 20
88.2346764707
 30
0.0
 11
218.2864118168
 21
89.3966764707
 31
0.0
  0
CIRCLE
  5
1D0
330
1F
100
AcDbEntity
  8
1
  6
CONTINUOUS
 62
     7
100
AcDbCircle
 10
153.1244118168
 20
76.1761764702
 30
0.0
 40
12.0585
  0
ARC
  5
1D1
330
1F
100
AcDbEntity
  8
1
  6
CONTINUOUS
 62
     7
100
AcDbCircle
 10
153.1244118168
 20
76.1761764702
 30
0.0
 40
19.25
100
AcDbArc
 50
267.3296931878
 51
272.6703068122
  0
ARC
  5
1D2
330
1F
100
AcDbEntity
  8
1
  6
CONTINUOUS
 62
     7
100
AcDbCircle
 10
153.1244118168
 20
76.1761764702
 30
0.0
 40
17.75
100
AcDbArc
 50
189.7305008649
 51
215.2694991852
  0
ARC
  5
1D3
330
1F
100
AcDbEntity
  8
1
  6
CONTINUOUS
 62
     7
100
AcDbCircle
 10
153.1244118168
 20
76.1761764702
 30
0.0
 40
19.25
100
AcDbArc
 50
87.3296930867
 51
92.6703069133
  0
LINE
  5
1D4
330
1F
100
AcDbEntity
  8
1
  6
CONTINUOUS
 62
     7
100
AcDbLine
 10
134.1871217366
 20
74.618824498
 30
0.0
 11
135.629769783
 21
73.1761764515
 31
0.0
  0
ARC
  5
1D5
330
1F
100
AcDbEntity
  8
1
  6
CONTINUOUS
 62
     7
100
AcDbCircle
 10
153.1244118168
 20
76.1761764702
 30
0.0
 40
19.25
100
AcDbArc
 50
222.3296931881
 51
227.6703069132
  0
LINE
  5
1D6
330
1F
100
AcDbEntity
  8
1
  6
CONTINUOUS
 62
     7
100
AcDbLine
 10
138.6325114652
 20
63.8867043536
 30
0.0
 11
138.6325114652
 21
65.9269168069
 31
0.0
  0
LINE
  5
1D7
330
1F
100
AcDbEntity
  8
1
  6
CONTINUOUS
 62
     7
100
AcDbLine
 10
140.834939724
 20
61.6842760969
 30
0.0
 11
142.8751521571
 21
61.6842760969
 31
0.0
  0
ARC
  5
1D8
330
1F
100
AcDbEntity
  8
1
  6
CONTINUOUS
 62
     7
100
AcDbCircle
 10
226.8848278168
 20
91.067741469
 30
0.0
 40
0.2140730000000091
100
AcDbArc
 50
306.112389
 51
91.36277200000002
  0
ARC
  5
1D9
330
1F
100
AcDbEntity
  8
1
  6
CONTINUOUS
 62
     7
100
AcDbCircle
 10
225.9555798168
 20
87.070289469
 30
0.0
 40
1.143168999999999
100
AcDbArc
 50
344.047482
 51
72.07242900000001
  0
LINE
  5
1DA
330
1F
100
AcDbEntity
  8
1
  6
CONTINUOUS
 62
     7
100
AcDbLine
 10
225.0994428168
 20
82.102630469
 30
0.0
 11
219.5744738168
 21
82.031649469
 31
0.0
  0
ARC
  5
1DB
330
1F
100
AcDbEntity
  8
1
  6
CONTINUOUS
 62
     7
100
AcDbCircle
 10
225.1637138168
 20
80.174387469
 30
0.0
 40
1.929313999999988
100
AcDbArc
 50
51.006221
 51
91.90904699999999
  0
ARC
  5
1DC
330
1F
100
AcDbEntity
  8
1
  6
CONTINUOUS
 62
     7
100
AcDbCircle
 10
171.3545951158
 20
75.3259312792
 30
0.0
 40
1.0
100
AcDbArc
 50
315.0
 51
357.3296930868
  0
ARC
  5
1DD
330
1F
100
AcDbEntity
  8
1
  6
CONTINUOUS
 62
     7
100
AcDbCircle
 10
225.0864848168
 20
58.518723469
 30
0.0
 40
3.525976000000014
100
AcDbArc
 50
58.042653
 51
89.78942999999998
  0
LINE
  5
1DE
330
1F
100
AcDbEntity
  8
1
  6
CONTINUOUS
 62
     7
100
AcDbLine
 10
225.0994428168
 20
88.374200469
 30
0.0
 11
219.5744738168
 21
88.177806469
 31
0.0
  0
ARC
  5
1DF
330
1F
100
AcDbEntity
  8
1
  6
CONTINUOUS
 62
     7
100
AcDbCircle
 10
225.0706258168
 20
80.130818469
 30
0.0
 40
2.022250000000003
100
AcDbArc
 50
270.816482
 51
49.73301099999997
  0
LINE
  5
1E0
330
1F
100
AcDbEntity
  8
1
  6
CONTINUOUS
 62
     7
100
AcDbLine
 10
219.5744738168
 20
61.243708469
 30
0.0
 11
225.0994428168
 21
60.974524469
 31
0.0
  0
LINE
  5
1E1
330
1F
100
AcDbEntity
  8
1
  6
CONTINUOUS
 62
     7
100
AcDbLine
 10
219.5744738168
 20
90.037245469
 30
0.0
 11
225.0994428168
 21
90.307090469
 31
0.0
  0
LINE
  5
1E2
330
1F
100
AcDbEntity
  8
1
  6
CONTINUOUS
 62
     7
100
AcDbLine
 10
219.5744738168
 20
78.035321469
 30
0.0
 11
225.0994428168
 21
78.108773469
 31
0.0
  0
ARC
  5
1E3
330
1F
100
AcDbEntity
  8
1
  6
CONTINUOUS
 62
     7
100
AcDbCircle
 10
226.8872738168
 20
61.306458469
 30
0.0
 40
0.2141069999999912
100
AcDbArc
 50
296.7807
 51
72.195604
  0
LINE
  5
1E4
330
1F
100
AcDbEntity
  8
1
  6
CONTINUOUS
 62
     7
100
AcDbLine
 10
225.0994428168
 20
62.044675469
 30
0.0
 11
219.5744738168
 21
62.314521469
 31
0.0
  0
LINE
  5
1E5
330
1F
100
AcDbEntity
  8
1
  6
CONTINUOUS
 62
     7
100
AcDbLine
 10
225.0994428168
 20
91.377241469
 30
0.0
 11
219.5744738168
 21
91.108057469
 31
0.0
  0
ARC
  5
1E6
330
1F
100
AcDbEntity
  8
1
  6
CONTINUOUS
 62
     7
100
AcDbCircle
 10
153.9746569757
 20
57.9459931697
 30
0.0
 40
1.0
100
AcDbArc
 50
272.6703068122
 51
315.0
  0
ARC
  5
1E7
330
1F
100
AcDbEntity
  8
1
  6
CONTINUOUS
 62
     7
100
AcDbCircle
 10
225.1176318168
 20
93.650497469
 30
0.0
 40
3.343455999999994
100
AcDbArc
 50
269.68829
 51
304.491891
  0
ARC
  5
1E8
330
1F
100
AcDbEntity
  8
1
  6
CONTINUOUS
 62
     7
100
AcDbCircle
 10
166.6163121683
 20
63.8867043536
 30
0.0
 40
1.0
100
AcDbArc
 50
317.6703068119
 51
0.0
  0
ARC
  5
1E9
330
1F
100
AcDbEntity
  8
1
  6
CONTINUOUS
 62
     7
100
AcDbCircle
 10
225.6892868168
 20
65.760038469
 30
0.0
 40
4.821727999999998
100
AcDbArc
 50
262.9733780000001
 51
285.5728539999999
  0
ARC
  5
1EA
330
1F
100
AcDbEntity
  8
1
  6
CONTINUOUS
 62
     7
100
AcDbCircle
 10
225.6802098168
 20
85.561364469
 30
0.0
 40
5.84480200000001
100
AcDbArc
 50
78.157051
 51
95.702586
  0
ARC
  5
1EB
330
1F
100
AcDbEntity
  8
1
  6
CONTINUOUS
 62
     7
100
AcDbCircle
 10
165.4138839095
 20
62.6842760969
 30
0.0
 40
1.0
100
AcDbArc
 50
270.0
 51
312.3296930868
  0
ARC
  5
1EC
330
1F
100
AcDbEntity
  8
1
  6
CONTINUOUS
 62
     7
100
AcDbCircle
 10
225.1106838168
 20
87.550582469
 30
0.0
 40
2.100118000000012
100
AcDbArc
 50
269.693316
 51
337.771358
  0
ARC
  5
1ED
330
1F
100
AcDbEntity
  8
1
  6
CONTINUOUS
 62
     7
100
AcDbCircle
 10
225.2620978168
 20
85.800535469
 30
0.0
 40
2.578799999999992
100
AcDbArc
 50
66.085747
 51
93.616265
  0
LINE
  5
1EE
330
1F
100
AcDbEntity
  8
1
  6
CONTINUOUS
 62
     7
100
AcDbLine
 10
219.5744738168
 20
85.252291469
 30
0.0
 11
225.0994428168
 21
85.450494469
 31
0.0
  0
POINT
  5
1EF
330
1F
100
AcDbEntity
  8
1
 62
     7
100
AcDbPoint
 10
153.1244118168
 20
76.1761764648
 30
0.0
  0
POINT
  5
1F0
330
1F
100
AcDbEntity
  8
1
 62
     7
100
AcDbPoint
 10
153.1244118168
 20
76.1761764648
 30
0.0
  0
POINT
  5
1F1
330
1F
100
AcDbEntity
  8
1
 62
     7
100
AcDbPoint
 10
153.1244118168
 20
76.1761764648
 30
0.0
  0
CIRCLE
  5
1F2
330
1F
100
AcDbEntity
  8
0
  6
CONTINUOUS
 62
     7
100
AcDbCircle
 10
153.1244118168
 20
76.1761764648
 30
0.0
 40
10.55
  0
ARC
  5
1F3
330
1F
100
AcDbEntity
  8
1
  6
CONTINUOUS
 62
     7
100
AcDbCircle
 10
162.0960548168
 20
64.3758464648
 30
0.0
 40
0.500418
100
AcDbArc
 50
307.259907
 51
359.915797
  0
ARC
  5
1F4
330
1F
100
AcDbEntity
  8
1
  6
CONTINUOUS
 62
     7
100
AcDbCircle
 10
158.8577118168
 20
89.8461344648
 30
0.0
 40
0.499903
100
AcDbArc
 50
67.233977
 51
158.169659
  0
ARC
  5
1F5
330
1F
100
AcDbEntity
  8
1
  6
CONTINUOUS
 62
     7
100
AcDbCircle
 10
144.5577928168
 20
68.7216964648
 30
0.0
 40
4.06241
100
AcDbArc
 50
206.622778
 51
223.769381
  0
ARC
  5
1F6
330
1F
100
AcDbEntity
  8
1
  6
CONTINUOUS
 62
     7
100
AcDbCircle
 10
151.2849248168
 20
82.9698814648
 30
0.0
 40
8.398829
100
AcDbArc
 50
98.90207000000001
 51
119.120392
  0
ARC
  5
1F7
330
1F
100
AcDbEntity
  8
1
  6
CONTINUOUS
 62
     7
100
AcDbCircle
 10
155.2969598168
 20
65.0246184648
 30
0.0
 40
4.057178
100
AcDbArc
 50
266.613572
 51
283.765005
  0
CIRCLE
  5
1F8
330
1F
100
AcDbEntity
  8
1
  6
CONTINUOUS
 62
     7
100
AcDbCircle
 10
153.1244118168
 20
76.1758834648
 30
0.0
 40
15.5
  0
ARC
  5
1F9
330
1F
100
AcDbEntity
  8
1
  6
CONTINUOUS
 62
     7
100
AcDbCircle
 10
159.9280118168
 20
74.3719114648
 30
0.0
 40
8.398748
100
AcDbArc
 50
338.901584
 51
359.120491
  0
LINE
  5
1FA
330
1F
100
AcDbEntity
  8
1
  6
CONTINUOUS
 62
     7
100
AcDbLine
 10
138.4900108168
 20
78.5406264648
 30
0.0
 11
138.5424648168
 21
79.1632364648
 31
0.0
  0
ARC
  5
1FB
330
1F
100
AcDbEntity
  8
1
  6
CONTINUOUS
 62
     7
100
AcDbCircle
 10
144.1522768168
 20
87.9761924648
 30
0.0
 40
0.499903
100
AcDbArc
 50
127.233973
 51
218.169679
  0
LINE
  5
1FC
330
1F
100
AcDbEntity
  8
1
  6
CONTINUOUS
 62
     7
100
AcDbLine
 10
139.0025798168
 20
80.8802214648
 30
0.0
 11
139.2682778168
 21
81.4451564648
 31
0.0
  0
ARC
  5
1FD
330
1F
100
AcDbEntity
  8
1
  6
CONTINUOUS
 62
     7
100
AcDbCircle
 10
149.4287528168
 20
65.4293074648
 30
0.0
 40
4.053824
100
AcDbArc
 50
236.60786
 51
253.762773
  0
LINE
  5
1FE
330
1F
100
AcDbEntity
  8
1
  6
CONTINUOUS
 62
     7
100
AcDbLine
 10
162.4895398168
 20
87.6672744648
 30
0.0
 11
163.0025098168
 21
87.3105434648
 31
0.0
  0
ARC
  5
1FF
330
1F
100
AcDbEntity
  8
1
  6
CONTINUOUS
 62
     7
100
AcDbCircle
 10
158.0854688168
 20
81.1622214648
 30
0.0
 40
8.403535
100
AcDbArc
 50
38.900011
 51
59.115946
  0
ARC
  5
200
330
1F
100
AcDbEntity
  8
1
  6
CONTINUOUS
 62
     7
100
AcDbCircle
 10
161.6955818168
 20
83.6331044648
 30
0.0
 40
4.056983
100
AcDbArc
 50
26.613262
 51
43.765084
  0
ARC
  5
201
330
1F
100
AcDbEntity
  8
1
  6
CONTINUOUS
 62
     7
100
AcDbCircle
 10
154.9943198168
 20
90.8813674648
 30
0.0
 40
0.499903
100
AcDbArc
 50
351.825371
 51
82.761454
  0
ARC
  5
202
330
1F
100
AcDbEntity
  8
1
  6
CONTINUOUS
 62
     7
100
AcDbCircle
 10
144.1522818168
 20
64.3755144648
 30
0.0
 40
0.499903
100
AcDbArc
 50
141.825396
 51
232.761455
  0
ARC
  5
203
330
1F
100
AcDbEntity
  8
1
  6
CONTINUOUS
 62
     7
100
AcDbCircle
 10
154.9622448168
 20
69.3861264648
 30
0.0
 40
8.40334
100
AcDbArc
 50
278.899978
 51
299.116175
  0
LINE
  5
204
330
1F
100
AcDbEntity
  8
1
  6
CONTINUOUS
 62
     7
100
AcDbLine
 10
139.5365738168
 20
81.3734064648
 30
0.0
 11
139.2682778168
 21
81.4451564648
 31
0.0
  0
LINE
  5
205
330
1F
100
AcDbEntity
  8
1
  6
CONTINUOUS
 62
     7
100
AcDbLine
 10
164.2594048168
 20
86.0535794648
 30
0.0
 11
164.6158028168
 21
85.5410114648
 31
0.0
  0
LINE
  5
206
330
1F
100
AcDbEntity
  8
1
  6
CONTINUOUS
 62
     7
100
AcDbLine
 10
138.4900108168
 20
78.5406264648
 30
0.0
 11
138.7582378168
 21
78.4686154648
 31
0.0
  0
ARC
  5
207
330
1F
100
AcDbEntity
  8
1
  6
CONTINUOUS
 62
     7
100
AcDbCircle
 10
163.8632358168
 20
72.4840664648
 30
0.0
 40
4.06241
100
AcDbArc
 50
326.622779
 51
343.769381
  0
ARC
  5
208
330
1F
100
AcDbEntity
  8
1
  6
CONTINUOUS
 62
     7
100
AcDbCircle
 10
151.3216268168
 20
69.3798714648
 30
0.0
 40
8.406354
100
AcDbArc
 50
248.8990959999999
 51
269.113196
  0
ARC
  5
209
330
1F
100
AcDbEntity
  8
1
  6
CONTINUOUS
 62
     7
100
AcDbCircle
 10
148.1402838168
 20
81.1351474648
 30
0.0
 40
8.406351
100
AcDbArc
 50
128.899128
 51
149.113197
  0
ARC
  5
20A
330
1F
100
AcDbEntity
  8
1
  6
CONTINUOUS
 62
     7
100
AcDbCircle
 10
145.6654398168
 20
84.7496964648
 30
0.0
 40
4.053835
100
AcDbArc
 50
116.607867
 51
133.762808
  0
ARC
  5
20B
330
1F
100
AcDbEntity
  8
1
  6
CONTINUOUS
 62
     7
100
AcDbCircle
 10
158.1123038168
 20
71.2135834648
 30
0.0
 40
8.401563
100
AcDbArc
 50
308.900651
 51
329.117786
  0
ARC
  5
20C
330
1F
100
AcDbEntity
  8
1
  6
CONTINUOUS
 62
     7
100
AcDbCircle
 10
166.7946888168
 20
81.9092374648
 30
0.0
 40
0.499903
100
AcDbArc
 50
291.825347
 51
22.76147600000002
  0
ARC
  5
20D
330
1F
100
AcDbEntity
  8
1
  6
CONTINUOUS
 62
     7
100
AcDbCircle
 10
158.8577658168
 20
62.50560646480001
 30
0.0
 40
0.499903
100
AcDbArc
 50
201.82541
 51
292.761471
  0
ARC
  5
20E
330
1F
100
AcDbEntity
  8
1
  6
CONTINUOUS
 62
     7
100
AcDbCircle
 10
162.0965418168
 20
87.9762514648
 30
0.0
 40
0.499903
100
AcDbArc
 50
321.825396
 51
52.76145500000001
  0
ARC
  5
20F
330
1F
100
AcDbEntity
  8
1
  6
CONTINUOUS
 62
     7
100
AcDbCircle
 10
164.9247798168
 20
67.2037534648
 30
0.0
 40
0.499903
100
AcDbArc
 50
231.82543
 51
322.761506
  0
ARC
  5
210
330
1F
100
AcDbEntity
  8
1
  6
CONTINUOUS
 62
     7
100
AcDbCircle
 10
160.5802488168
 20
67.6067704648
 30
0.0
 40
4.059442
100
AcDbArc
 50
296.617724
 51
313.766488
  0
ARC
  5
211
330
1F
100
AcDbEntity
  8
1
  6
CONTINUOUS
 62
     7
100
AcDbCircle
 10
159.9113268168
 20
78.0126334648
 30
0.0
 40
8.40635
100
AcDbArc
 50
8.899125
 51
29.11319800000001
  0
LINE
  5
212
330
1F
100
AcDbEntity
  8
1
  6
CONTINUOUS
 62
     7
100
AcDbLine
 10
155.4891548168
 20
90.8102844648
 30
0.0
 11
156.1116518168
 21
90.7578564648
 31
0.0
  0
ARC
  5
213
330
1F
100
AcDbEntity
  8
1
  6
CONTINUOUS
 62
     7
100
AcDbCircle
 10
164.2790398168
 20
78.3486364648
 30
0.0
 40
4.053833
100
AcDbArc
 50
356.607865
 51
13.76281599999998
  0
ARC
  5
214
330
1F
100
AcDbEntity
  8
1
  6
CONTINUOUS
 62
     7
100
AcDbCircle
 10
146.3330138168
 20
74.3374014648
 30
0.0
 40
8.40159
100
AcDbArc
 50
188.900684
 51
209.117754
  0
LINE
  5
215
330
1F
100
AcDbEntity
  8
1
  6
CONTINUOUS
 62
     7
100
AcDbLine
 10
164.4195178168
 20
85.3445344648
 30
0.0
 11
164.6158028168
 21
85.5410114648
 31
0.0
  0
ARC
  5
216
330
1F
100
AcDbEntity
  8
1
  6
CONTINUOUS
 62
     7
100
AcDbCircle
 10
141.9754448168
 20
74.0034974648
 30
0.0
 40
4.059463
100
AcDbArc
 50
176.617768
 51
193.766445
  0
ARC
  5
217
330
1F
100
AcDbEntity
  8
1
  6
CONTINUOUS
 62
     7
100
AcDbCircle
 10
167.8298958168
 20
74.3059754648
 30
0.0
 40
0.499903
100
AcDbArc
 50
261.825372
 51
352.761454
  0
ARC
  5
218
330
1F
100
AcDbEntity
  8
1
  6
CONTINUOUS
 62
     7
100
AcDbCircle
 10
151.2545038168
 20
61.4704004648
 30
0.0
 40
0.499903
100
AcDbArc
 50
171.825451
 51
262.761492
  0
ARC
  5
219
330
1F
100
AcDbEntity
  8
1
  6
CONTINUOUS
 62
     7
100
AcDbCircle
 10
141.3240428168
 20
85.1480124648
 30
0.0
 40
0.499903
100
AcDbArc
 50
51.825396
 51
142.761454
  0
LINE
  5
21A
330
1F
100
AcDbEntity
  8
1
  6
CONTINUOUS
 62
     7
100
AcDbLine
 10
138.9931628168
 20
70.2491194648
 30
0.0
 11
138.9542818168
 21
70.4422364648
 31
0.0
  0
LINE
  5
21B
330
1F
100
AcDbEntity
  8
1
  6
CONTINUOUS
 62
     7
100
AcDbLine
 10
147.1976478168
 20
90.3071314648
 30
0.0
 11
147.3907648168
 21
90.3460124648
 31
0.0
  0
LINE
  5
21C
330
1F
100
AcDbEntity
  8
1
  6
CONTINUOUS
 62
     7
100
AcDbLine
 10
167.2945158168
 20
70.4422904648
 30
0.0
 11
167.2556198168
 21
70.2491364648
 31
0.0
  0
LINE
  5
21D
330
1F
100
AcDbEntity
  8
1
  6
CONTINUOUS
 62
     7
100
AcDbLine
 10
162.4895398168
 20
87.6672744648
 30
0.0
 11
162.2930638168
 21
87.4709894648
 31
0.0
  0
ARC
  5
21E
330
1F
100
AcDbEntity
  8
1
  6
CONTINUOUS
 62
     7
100
AcDbCircle
 10
142.3806838168
 20
79.8701234648
 30
0.0
 40
4.056983
100
AcDbArc
 50
146.613262
 51
163.765084
  0
ARC
  5
21F
330
1F
100
AcDbEntity
  8
1
  6
CONTINUOUS
 62
     7
100
AcDbCircle
 10
148.1603268168
 20
71.1857794648
 30
0.0
 40
8.398748
100
AcDbArc
 50
218.901584
 51
239.120491
  0
ARC
  5
220
330
1F
100
AcDbEntity
  8
1
  6
CONTINUOUS
 62
     7
100
AcDbCircle
 10
141.3243758168
 20
67.2042404648
 30
0.0
 40
0.500418
100
AcDbArc
 50
217.259906
 51
269.915797
  0
ARC
  5
221
330
1F
100
AcDbEntity
  8
1
  6
CONTINUOUS
 62
     7
100
AcDbCircle
 10
154.9279438168
 20
82.9766744648
 30
0.0
 40
8.401563
100
AcDbArc
 50
68.900652
 51
89.11778599999998
  0
ARC
  5
222
330
1F
100
AcDbEntity
  8
1
  6
CONTINUOUS
 62
     7
100
AcDbCircle
 10
156.8175538168
 20
86.9173644648
 30
0.0
 40
4.059463
100
AcDbArc
 50
56.61776799999999
 51
73.766445
  0
ARC
  5
223
330
1F
100
AcDbEntity
  8
1
  6
CONTINUOUS
 62
     7
100
AcDbCircle
 10
150.9522108168
 20
87.3216654648
 30
0.0
 40
4.062631
100
AcDbArc
 50
86.62301800000002
 51
103.769489
  0
ARC
  5
224
330
1F
100
AcDbEntity
  8
1
  6
CONTINUOUS
 62
     7
100
AcDbCircle
 10
146.3255878168
 20
77.9791154648
 30
0.0
 40
8.403535
100
AcDbArc
 50
158.900011
 51
179.115946
  0
ARC
  5
225
330
1F
100
AcDbEntity
  8
1
  6
CONTINUOUS
 62
     7
100
AcDbCircle
 10
138.4189288168
 20
78.0457914648
 30
0.0
 40
0.499903
100
AcDbArc
 50
81.82545200000001
 51
172.761493
  0
ARC
  5
226
330
1F
100
AcDbEntity
  8
1
  6
CONTINUOUS
 62
     7
100
AcDbCircle
 10
151.2544698168
 20
90.8813184648
 30
0.0
 40
0.499903
100
AcDbArc
 50
97.234
 51
188.169725
  0
ENDSEC
  0
SECTION
  2
OBJECTS
  0
DICTIONARY
  5
C
330
0
100
AcDbDictionary
  3
ACAD_GROUP
350
D
  3
ACAD_LAYOUT
350
1A
  3
ACAD_MATERIAL
350
43
  3
ACAD_MLEADERSTYLE
350
6B
  3
ACAD_MLINESTYLE
350
17
  3
ACAD_PLOTSETTINGS
350
19
  3
ACAD_SCALELIST
350
47
  3
ACAD_VISUALSTYLE
350
2A
  3
ACDBHEADERROUNDTRIPXREC
350
227
  3
ACDBVARIABLEDICTIONARY
350
248
  0
DICTIONARY
  5
24F
330
8
100
AcDbDictionary
280
     1
  3
ACAD_XREC_ROUNDTRIP
360
250
  0
DICTIONARY
  5
D
102
{ACAD_REACTORS
330
C
102
}
330
C
100
AcDbDictionary
  0
DICTIONARY
  5
1A
102
{ACAD_REACTORS
330
C
102
}
330
C
100
AcDbDictionary
  0
DICTIONARY
  5
43
102
{ACAD_REACTORS
330
C
102
}
330
C
100
AcDbDictionary
  3
BYBLOCK
350
45
  3
BYLAYER
350
44
  3
GLOBAL
350
46
  0
DICTIONARY
  5
6B
102
{ACAD_REACTORS
330
C
102
}
330
C
100
AcDbDictionary
  3
STANDARD
350
6C
  0
DICTIONARY
  5
17
102
{ACAD_REACTORS
330
C
102
}
330
C
100
AcDbDictionary
  3
STANDARD
350
18
  0
DICTIONARY
  5
19
102
{ACAD_REACTORS
330
C
102
}
330
C
100
AcDbDictionary
  0
DICTIONARY
  5
47
102
{ACAD_REACTORS
330
C
102
}
330
C
100
AcDbDictionary
  3
A0
350
48
  3
A1
350
49
  3
A2
350
4A
  3
A3
350
4B
  3
A4
350
4C
  3
A5
350
4D
  3
A6
350
4E
  3
A7
350
4F
  3
A8
350
50
  3
A9
350
51
  3
B0
350
52
  3
B1
350
53
  3
B2
350
54
  3
B3
350
55
  3
B4
350
56
  3
B5
350
57
  3
B6
350
58
  3
B7
350
59
  3
B8
350
5A
  3
B9
350
5B
  3
C0
350
5C
  3
C1
350
5D
  3
C2
350
5E
  3
C3
350
5F
  3
C4
350
60
  3
C5
350
61
  3
C6
350
62
  3
C7
350
63
  3
C8
350
64
  3
C9
350
65
  3
D0
350
66
  3
D1
350
67
  3
D2
350
68
  0
DICTIONARY
  5
2A
102
{ACAD_REACTORS
330
C
102
}
330
C
100
AcDbDictionary
  3
2DWIREFRAME
350
2F
  3
BASIC
350
32
  3
BRIGHTEN
350
36
  3
COLORCHANGE
350
3A
  3
CONCEPTUAL
350
34
  3
DIM
350
35
  3
EDGECOLOROFF
350
3D
  3
FACEPATTERN
350
39
  3
FLAT
350
2B
  3
FLATWITHEDGES
350
2C
  3
GOURAUD
350
2D
  3
GOURAUDWITHEDGES
350
2E
  3
HIDDEN
350
31
  3
JITTEROFF
350
3B
  3
LINEPATTERN
350
38
  3
OVERHANGOFF
350
3C
  3
REALISTIC
350
33
  3
SHADED
350
42
  3
SHADED_WITH_EDGES
350
41
  3
SHADES_OF_GRAY
350
3E
  3
SKETCHY
350
3F
  3
THICKEN
350
37
  3
WIREFRAME
350
30
  3
X-RAY
350
40
  0
DICTIONARY
  5
227
102
{ACAD_REACTORS
330
C
102
}
330
C
100
AcDbDictionary
  3
CEPSNID
350
231
  3
CEPSNTYPE
350
230
  3
DIMSTYLEDATA
350
247
  3
FINGERPRINTGUID
350
232
  3
HYPERLINKBASE
350
22A
  3
INSUNITS
350
22F
  3
LAYOUTDICT
350
22C
  3
LWETCUNION
350
22E
  3
PLOTSETDICT
350
22D
  3
PSVPSCALE
350
234
  3
PUCSBASE
350
237
  3
PUCSORGBACK
350
23D
  3
PUCSORGBOTTOM
350
239
  3
PUCSORGFRONT
350
23C
  3
PUCSORGLEFT
350
23A
  3
PUCSORGRIGHT
350
23B
  3
PUCSORGTOP
350
238
  3
PUCSORTHOREF
350
235
  3
PUCSORTHOVIEW
350
236
  3
STYLESHEET
350
22B
  3
TSTACKALIGN
350
228
  3
TSTACKSIZE
350
229
  3
UCSBASE
350
240
  3
UCSORGBACK
350
246
  3
UCSORGBOTTOM
350
242
  3
UCSORGFRONT
350
245
  3
UCSORGLEFT
350
243
  3
UCSORGRIGHT
350
244
  3
UCSORGTOP
350
241
  3
UCSORTHOREF
350
23E
  3
UCSORTHOVIEW
350
23F
  3
VERSIONGUID
350
233
  0
DICTIONARY
  5
248
102
{ACAD_REACTORS
330
C
102
}
330
C
100
AcDbDictionary
  3
CANNOSCALE
350
251
  3
CMLEADERSTYLE
350
24A
  3
CTABLESTYLE
350
249
  3
DIMASSOC
350
24D
  3
HIDETEXT
350
24E
  3
MSLTSCALE
350
252
  0
XRECORD
  5
250
102
{ACAD_REACTORS
330
24F
102
}
330
24F
100
AcDbXrecord
102
VTR_0.000_0.000_1.000_1.000_VISUALSTYLE
340
2F
102
VTR_0.000_0.000_1.000_1.000_GRIDDISPLAY
 70
     3
102
VTR_0.000_0.000_1.000_1.000_GRIDMAJOR
 70
     5
102
VTR_0.000_0.000_1.000_1.000_DEFAULTLIGHTING
280
     1
102
VTR_0.000_0.000_1.000_1.000_DEFAULTLIGHTINGTYPE
 70
     1
102
VTR_0.000_0.000_1.000_1.000_BRIGHTNESS
141
0.0
102
VTR_0.000_0.000_1.000_1.000_CONTRAST
142
0.0
  0
MATERIAL
  5
45
102
{ACAD_REACTORS
330
43
102
}
102
{ACAD_XDICTIONARY
360
255
102
}
330
43
100
AcDbMaterial
  1
BYBLOCK
  0
MATERIAL
  5
44
102
{ACAD_REACTORS
330
43
102
}
102
{ACAD_XDICTIONARY
360
253
102
}
330
43
100
AcDbMaterial
  1
BYLAYER
  0
MATERIAL
  5
46
102
{ACAD_REACTORS
330
43
102
}
102
{ACAD_XDICTIONARY
360
257
102
}
330
43
100
AcDbMaterial
  1
GLOBAL
  0
ACAD_PROXY_OBJECT
  5
6C
102
{ACAD_REACTORS
330
6B
102
}
330
6B
100
AcDbProxyObject
 90
      499
 91
      505
 93
      610
310
40901902A4063FBFFFFFE056BD1B81E855B9FC0AD7A3703D0AD73F4214DD185B99185C9900AD7A3703D0AC73F90141901A02B5E8DC0F42B1CFC02B5E8DC0F42B1CFE5764000000000000300FC0
340
14
340
0
340
11
340
0
 94
        0
1001
ACAD_MLEADERVER
1070
     2
  0
MLINESTYLE
  5
18
102
{ACAD_REACTORS
330
17
102
}
330
17
100
AcDbMlineStyle
  2
Standard
 70
     0
  3

 62
   256
 51
90.0
 52
90.0
 71
     2
 49
0.5
 62
   256
  6
BYLAYER
 49
-0.5
 62
   256
  6
BYLAYER
  0
ACAD_PROXY_OBJECT
  5
48
102
{ACAD_REACTORS
330
47
102
}
330
47
100
AcDbProxyObject
 90
      499
 91
      503
 93
       41
310
903313A31580
  0
ACAD_PROXY_OBJECT
  5
49
102
{ACAD_REACTORS
330
47
102
}
330
47
100
AcDbProxyObject
 90
      499
 91
      503
 93
      105
310
903313A324000000000000004000
  0
ACAD_PROXY_OBJECT
  5
4A
102
{ACAD_REACTORS
330
47
102
}
330
47
100
AcDbProxyObject
 90
      499
 91
      503
 93
      105
310
903313A344000000000000104000
  0
ACAD_PROXY_OBJECT
  5
4B
102
{ACAD_REACTORS
330
47
102
}
330
47
100
AcDbProxyObject
 90
      499
 91
      503
 93
      105
310
903313A354000000000000144000
  0
ACAD_PROXY_OBJECT
  5
4C
102
{ACAD_REACTORS
330
47
102
}
330
47
100
AcDbProxyObject
 90
      499
 91
      503
 93
      105
310
903313A384000000000000204000
  0
ACAD_PROXY_OBJECT
  5
4D
102
{ACAD_REACTORS
330
47
102
}
330
47
100
AcDbProxyObject
 90
      499
 91
      503
 93
      113
310
904313A31304000000000000244000
  0
ACAD_PROXY_OBJECT
  5
4E
102
{ACAD_REACTORS
330
47
102
}
330
47
100
AcDbProxyObject
 90
      499
 91
      503
 93
      113
310
904313A31364000000000000304000
  0
ACAD_PROXY_OBJECT
  5
4F
102
{ACAD_REACTORS
330
47
102
}
330
47
100
AcDbProxyObject
 90
      499
 91
      503
 93
      113
310
904313A32304000000000000344000
  0
ACAD_PROXY_OBJECT
  5
50
102
{ACAD_REACTORS
330
47
102
}
330
47
100
AcDbProxyObject
 90
      499
 91
      503
 93
      113
310
904313A333040000000000003E4000
  0
ACAD_PROXY_OBJECT
  5
51
102
{ACAD_REACTORS
330
47
102
}
330
47
100
AcDbProxyObject
 90
      499
 91
      503
 93
      113
310
904313A34304000000000000444000
  0
ACAD_PROXY_OBJECT
  5
52
102
{ACAD_REACTORS
330
47
102
}
330
47
100
AcDbProxyObject
 90
      499
 91
      503
 93
      113
310
904313A35304000000000000494000
  0
ACAD_PROXY_OBJECT
  5
53
102
{ACAD_REACTORS
330
47
102
}
330
47
100
AcDbProxyObject
 90
      499
 91
      503
 93
      121
310
905313A3130304000000000000594000
  0
ACAD_PROXY_OBJECT
  5
54
102
{ACAD_REACTORS
330
47
102
}
330
47
100
AcDbProxyObject
 90
      499
 91
      503
 93
      105
310
903323A310000000000000010100
  0
ACAD_PROXY_OBJECT
  5
55
102
{ACAD_REACTORS
330
47
102
}
330
47
100
AcDbProxyObject
 90
      499
 91
      503
 93
      105
310
903343A310000000000000410100
  0
ACAD_PROXY_OBJECT
  5
56
102
{ACAD_REACTORS
330
47
102
}
330
47
100
AcDbProxyObject
 90
      499
 91
      503
 93
      105
310
903383A310000000000000810100
  0
ACAD_PROXY_OBJECT
  5
57
102
{ACAD_REACTORS
330
47
102
}
330
47
100
AcDbProxyObject
 90
      499
 91
      503
 93
      113
310
90431303A310000000000000910100
  0
ACAD_PROXY_OBJECT
  5
58
102
{ACAD_REACTORS
330
47
102
}
330
47
100
AcDbProxyObject
 90
      499
 91
      503
 93
      121
310
9053130303A310000000000001650100
  0
ACAD_PROXY_OBJECT
  5
59
102
{ACAD_REACTORS
330
47
102
}
330
47
100
AcDbProxyObject
 90
      499
 91
      503
 93
      257
310
90E312F31323822203D2031272D3022000000000000200FC000000000000284000
  0
ACAD_PROXY_OBJECT
  5
5A
102
{ACAD_REACTORS
330
47
102
}
330
47
100
AcDbProxyObject
 90
      499
 91
      503
 93
      249
310
90D312F363422203D2031272D3022000000000000240FC000000000000284000
  0
ACAD_PROXY_OBJECT
  5
5B
102
{ACAD_REACTORS
330
47
102
}
330
47
100
AcDbProxyObject
 90
      499
 91
      503
 93
      249
310
90D312F333222203D2031272D3022000000000000280FC000000000000284000
  0
ACAD_PROXY_OBJECT
  5
5C
102
{ACAD_REACTORS
330
47
102
}
330
47
100
AcDbProxyObject
 90
      499
 91
      503
 93
      249
310
90D312F313622203D2031272D30220000000000002C0FC000000000000284000
  0
ACAD_PROXY_OBJECT
  5
5D
102
{ACAD_REACTORS
330
47
102
}
330
47
100
AcDbProxyObject
 90
      499
 91
      503
 93
      249
310
90D332F333222203D2031272D30220000000000002E0FC000000000000284000
  0
ACAD_PROXY_OBJECT
  5
5E
102
{ACAD_REACTORS
330
47
102
}
330
47
100
AcDbProxyObject
 90
      499
 91
      503
 93
      241
310
90C312F3822203D2031272D3022000000000000300FC000000000000284000
  0
ACAD_PROXY_OBJECT
  5
5F
102
{ACAD_REACTORS
330
47
102
}
330
47
100
AcDbProxyObject
 90
      499
 91
      503
 93
      249
310
90D332F313622203D2031272D3022000000000000320FC000000000000284000
  0
ACAD_PROXY_OBJECT
  5
60
102
{ACAD_REACTORS
330
47
102
}
330
47
100
AcDbProxyObject
 90
      499
 91
      503
 93
      241
310
90C312F3422203D2031272D3022000000000000340FC000000000000284000
  0
ACAD_PROXY_OBJECT
  5
61
102
{ACAD_REACTORS
330
47
102
}
330
47
100
AcDbProxyObject
 90
      499
 91
      503
 93
      241
310
90C332F3822203D2031272D3022000000000000360FC000000000000284000
  0
ACAD_PROXY_OBJECT
  5
62
102
{ACAD_REACTORS
330
47
102
}
330
47
100
AcDbProxyObject
 90
      499
 91
      503
 93
      241
310
90C312F3222203D2031272D3022000000000000380FC000000000000284000
  0
ACAD_PROXY_OBJECT
  5
63
102
{ACAD_REACTORS
330
47
102
}
330
47
100
AcDbProxyObject
 90
      499
 91
      503
 93
      241
310
90C332F3422203D2031272D30220000000000003A0FC000000000000284000
  0
ACAD_PROXY_OBJECT
  5
64
102
{ACAD_REACTORS
330
47
102
}
330
47
100
AcDbProxyObject
 90
      499
 91
      503
 93
      161
310
90A3122203D2031272D30224000000000000284000
  0
ACAD_PROXY_OBJECT
  5
65
102
{ACAD_REACTORS
330
47
102
}
330
47
100
AcDbProxyObject
 90
      499
 91
      503
 93
      257
310
90E312D312F3222203D2031272D30220000000000003E0FC000000000000284000
  0
ACAD_PROXY_OBJECT
  5
66
102
{ACAD_REACTORS
330
47
102
}
330
47
100
AcDbProxyObject
 90
      499
 91
      503
 93
      225
310
90A3322203D2031272D302200000000000002100000000000000284000
  0
ACAD_PROXY_OBJECT
  5
67
102
{ACAD_REACTORS
330
47
102
}
330
47
100
AcDbProxyObject
 90
      499
 91
      503
 93
      225
310
90A3622203D2031272D302200000000000006100000000000000284000
  0
ACAD_PROXY_OBJECT
  5
68
102
{ACAD_REACTORS
330
47
102
}
330
47
100
AcDbProxyObject
 90
      499
 91
      503
 93
      249
310
90D31272D3022203D2031272D30220000000000000A100000000000000284000
  0
ACAD_PROXY_OBJECT
  5
2F
102
{ACAD_REACTORS
330
2A
102
}
330
2A
100
AcDbProxyObject
 90
      499
 91
      501
 93
      436
310
42CC9915DA5C99599C985B595049028333333333333E33F0000000000000F90107901411070040501600405405064090741402480A0340
1001
ACAD
1000
AcDbSavedByObjectVersion
1070
     0
  0
ACAD_PROXY_OBJECT
  5
32
102
{ACAD_REACTORS
330
2A
102
}
330
2A
100
AcDbProxyObject
 90
      499
 91
      501
 93
      388
310
4150985CDA58D07406404333333333333E33F0000000000000F90107A41107004050150841D405064090741402480A0350
1001
ACAD
1000
AcDbSavedByObjectVersion
1070
     0
  0
ACAD_PROXY_OBJECT
  5
36
102
{ACAD_REACTORS
330
2A
102
}
330
2A
100
AcDbProxyObject
 90
      499
 91
      501
 93
      428
310
42109C9A59DA1D195B90C409028333333333333E33F0000000000000F9010790141107004050150841D405064090741402480A029950
1001
ACAD
1000
AcDbSavedByObjectVersion
1070
     0
  0
ACAD_PROXY_OBJECT
  5
3A
102
{ACAD_REACTORS
330
2A
102
}
330
2A
100
AcDbProxyObject
 90
      499
 91
      501
 93
      452
310
42D0DBDB1BDC90DA185B99D95104090240C333333333333E33F0000000000000F90108901411070040501508421405064090741402480A0350
1001
ACAD
1000
AcDbSavedByObjectVersion
1070
     0
  0
ACAD_PROXY_OBJECT
  5
34
102
{ACAD_REACTORS
330
2A
102
}
330
2A
100
AcDbProxyObject
 90
      499
 91
      501
 93
      500
310
4290DBDB98D95C1D1D585B10940D028333333333333E33F0000000000000F90107902409070040501000000000018199010841D405064090740C02480A0340
1001
ACAD
1000
AcDbSavedByObjectVersion
1070
     0
  0
ACAD_PROXY_OBJECT
  5
35
102
{ACAD_REACTORS
330
2A
102
}
330
2A
100
AcDbProxyObject
 90
      499
 91
      501
 93
      412
310
40D11A5B50B409028333333333333E33F0000000000000F9010790141107004050150841D405064090741402480A02677FFFFFD0
1001
ACAD
1000
AcDbSavedByObjectVersion
1070
     0
  0
ACAD_PROXY_OBJECT
  5
3D
102
{ACAD_REACTORS
330
2A
102
}
330
2A
100
AcDbProxyObject
 90
      499
 91
      501
 93
      452
310
43115919D950DBDB1BDC93D999916409028333333333333E33F0000000000000F9010790141107004050150841D405064090741402480A0350
1001
ACAD
1000
AcDbSavedByObjectVersion
1070
     0
  0
ACAD_PROXY_OBJECT
  5
39
102
{ACAD_REACTORS
330
2A
102
}
330
2A
100
AcDbProxyObject
 90
      499
 91
      501
 93
      444
310
42D19858D95C185D1D195C9B90F409028333333333333E33F0000000000000F9010790141107004050150841D405064090741402480A0350
1001
ACAD
1000
AcDbSavedByObjectVersion
1070
     0
  0
ACAD_PROXY_OBJECT
  5
2B
102
{ACAD_REACTORS
330
2A
102
}
330
2A
100
AcDbProxyObject
 90
      499
 91
      501
 93
      380
310
41119B185D240901404333333333333E33F0000000000000F9010740A907004050150841D405064090741402480A1B50
1001
ACAD
1000
AcDbSavedByObjectVersion
1070
     0
  0
ACAD_PROXY_OBJECT
  5
2C
102
{ACAD_REACTORS
330
2A
102
}
330
2A
100
AcDbProxyObject
 90
      499
 91
      501
 93
      468
310
43519B185D15DA5D1A115919D95CD0140901404333333333333E33F0000000000000F90107409019070040501600405405064090741402480A1B50
1001
ACAD
1000
AcDbSavedByObjectVersion
1070
     0
  0
ACAD_PROXY_OBJECT
  5
2D
102
{ACAD_REACTORS
330
2A
102
}
330
2A
100
AcDbProxyObject
 90
      499
 91
      501
 93
      404
310
41D1DBDD5C985D5910240902404333333333333E33F0000000000000F9010740A9070040501641D405064090741402480A1B50
1001
ACAD
1000
AcDbSavedByObjectVersion
1070
     0
  0
ACAD_PROXY_OBJECT
  5
2E
102
{ACAD_REACTORS
330
2A
102
}
330
2A
100
AcDbProxyObject
 90
      499
 91
      501
 93
      492
310
4411DBDD5C985D5915DA5D1A115919D95CD0340902404333333333333E33F0000000000000F90107409019070040501600405405064090741402480A1B50
1001
ACAD
1000
AcDbSavedByObjectVersion
1070
     0
  0
ACAD_PROXY_OBJECT
  5
31
102
{ACAD_REACTORS
330
2A
102
}
330
2A
100
AcDbProxyObject
 90
      499
 91
      501
 93
      476
310
41921A5919195B90640502408333333333333E33F0000000000000F901079024090700405020000000000001110200405405064090740C02480A0340
1001
ACAD
1000
AcDbSavedByObjectVersion
1070
     0
  0
ACAD_PROXY_OBJECT
  5
3B
102
{ACAD_REACTORS
330
2A
102
}
330
2A
100
AcDbProxyObject
 90
      499
 91
      501
 93
      428
310
42529A5D1D195C93D999914409028333333333333E33F0000000000000F9010790141107004050150A41D405064090741402480A0350
1001
ACAD
1000
AcDbSavedByObjectVersion
1070
     0
  0
ACAD_PROXY_OBJECT
  5
38
102
{ACAD_REACTORS
330
2A
102
}
330
2A
100
AcDbProxyObject
 90
      499
 91
      501
 93
      444
310
42D31A5B995C185D1D195C9B90E409028333333333333E33F0000000000000F9010790141107004050750841D405064090741402483A0350
1001
ACAD
1000
AcDbSavedByObjectVersion
1070
     0
  0
ACAD_PROXY_OBJECT
  5
3C
102
{ACAD_REACTORS
330
2A
102
}
330
2A
100
AcDbProxyObject
 90
      499
 91
      501
 93
      444
310
42D3DD995C9A185B99D3D999915409028333333333333E33F0000000000000F9010790141107004050150941D405064090741402480A0350
1001
ACAD
1000
AcDbSavedByObjectVersion
1070
     0
  0
ACAD_PROXY_OBJECT
  5
33
102
{ACAD_REACTORS
330
2A
102
}
330
2A
100
AcDbProxyObject
 90
      499
 91
      501
 93
      428
310
425499585B1A5CDD1A58D08409038333333333333E33F0000000000000F9010740A907004050150800405405064090740C02480A1B40
1001
ACAD
1000
AcDbSavedByObjectVersion
1070
     0
  0
ACAD_PROXY_OBJECT
  5
42
102
{ACAD_REACTORS
330
2A
102
}
330
2A
100
AcDbProxyObject
 90
      499
 91
      501
 93
      420
310
4194DA1859195911B40902404333333333333E33F0000000000000F9010740A41107004050150800405405064090840C02480A0B40
1001
ACAD
1000
AcDbSavedByObjectVersion
1070
     0
  0
ACAD_PROXY_OBJECT
  5
41
102
{ACAD_REACTORS
330
2A
102
}
330
2A
100
AcDbProxyObject
 90
      499
 91
      501
 93
      516
310
4454DA18591959081DDA5D1A08195919D95CD1A40902404333333333333E33F0000000000000F901074090142907004050250800405405064090740C02480A0B40
1001
ACAD
1000
AcDbSavedByObjectVersion
1070
     0
  0
ACAD_PROXY_OBJECT
  5
3E
102
{ACAD_REACTORS
330
2A
102
}
330
2A
100
AcDbProxyObject
 90
      499
 91
      501
 93
      532
310
4394DA1859195CC81BD98811DC985E5174090240C333333333333E33F0000000000000F901079024090741D01000000000000111010841D405064090740C02480A0340
1001
ACAD
1000
AcDbSavedByObjectVersion
1070
     0
  0
ACAD_PROXY_OBJECT
  5
3F
102
{ACAD_REACTORS
330
2A
102
}
330
2A
100
AcDbProxyObject
 90
      499
 91
      501
 93
      476
310
41D4DAD95D18DA1E51840502408333333333333E33F0000000000000F901079024090741D01000000000000111010B41D405064090741802480A0340
1001
ACAD
1000
AcDbSavedByObjectVersion
1070
     0
  0
ACAD_PROXY_OBJECT
  5
37
102
{ACAD_REACTORS
330
2A
102
}
330
2A
100
AcDbProxyObject
 90
      499
 91
      501
 93
      412
310
41D51A1A58DAD95B90D409028333333333333E33F0000000000000F9010790141107004050150C41D405064090741402480A0350
1001
ACAD
1000
AcDbSavedByObjectVersion
1070
     0
  0
ACAD_PROXY_OBJECT
  5
30
102
{ACAD_REACTORS
330
2A
102
}
330
2A
100
AcDbProxyObject
 90
      499
 91
      501
 93
      420
310
4255DA5C99599C985B595059028333333333333E33F0000000000000F90107901411070040501600405405064090740C02480A0340
1001
ACAD
1000
AcDbSavedByObjectVersion
1070
     0
  0
ACAD_PROXY_OBJECT
  5
40
102
{ACAD_REACTORS
330
2A
102
}
330
2A
100
AcDbProxyObject
 90
      499
 91
      501
 93
      404
310
41560B54985E51940902404000000000000E03F0000000000000F9010740501907004050150841D405064090740C02480A1B40
1001
ACAD
1000
AcDbSavedByObjectVersion
1070
     0
  0
XRECORD
  5
231
102
{ACAD_REACTORS
330
227
102
}
330
227
100
AcDbXrecord
340
0
  0
XRECORD
  5
230
102
{ACAD_REACTORS
330
227
102
}
330
227
100
AcDbXrecord
 90
        0
  0
XRECORD
  5
247
102
{ACAD_REACTORS
330
227
102
}
330
227
100
AcDbXrecord
1000
DSTYLE
1002
{
1070
   179
 70
     2
1070
   171
 70
     2
1070
   143
 40
25.4
1070
   274
 70
     2
1070
    41
 40
2.0
1070
   141
 40
0.09
1070
    43
 40
0.38
1070
   278
 70
    46
1070
    44
 40
1.0
1070
    42
 40
0.0625
1070
   147
 40
1.75
1070
   272
 70
     4
1070
    73
 70
     1
1070
   172
 70
     0
1070
    74
 70
     1
1070
   283
 70
     1
1070
   340
340
6F
1070
   140
 40
3.5
1070
   284
 70
     0
1070
    78
 70
     0
1002
}
  0
XRECORD
  5
232
102
{ACAD_REACTORS
330
227
102
}
330
227
100
AcDbXrecord
  1
{769A2486-45D6-4030-823A-3F5B1357BCDF}
  0
XRECORD
  5
22A
102
{ACAD_REACTORS
330
227
102
}
330
227
100
AcDbXrecord
  1

  0
XRECORD
  5
22F
102
{ACAD_REACTORS
330
227
102
}
330
227
100
AcDbXrecord
 90
        4
  0
XRECORD
  5
22C
102
{ACAD_REACTORS
330
227
102
}
330
227
100
AcDbXrecord
340
1A
  0
XRECORD
  5
22E
102
{ACAD_REACTORS
330
227
102
}
330
227
100
AcDbXrecord
 90
    10269
  0
XRECORD
  5
22D
102
{ACAD_REACTORS
330
227
102
}
330
227
100
AcDbXrecord
340
19
  0
XRECORD
  5
234
102
{ACAD_REACTORS
330
227
102
}
330
227
100
AcDbXrecord
 40
0.0
  0
XRECORD
  5
237
102
{ACAD_REACTORS
330
227
102
}
330
227
100
AcDbXrecord
340
0
  0
XRECORD
  5
23D
102
{ACAD_REACTORS
330
227
102
}
330
227
100
AcDbXrecord
 10
0.0
 20
0.0
 30
0.0
  0
XRECORD
  5
239
102
{ACAD_REACTORS
330
227
102
}
330
227
100
AcDbXrecord
 10
0.0
 20
0.0
 30
0.0
  0
XRECORD
  5
23C
102
{ACAD_REACTORS
330
227
102
}
330
227
100
AcDbXrecord
 10
0.0
 20
0.0
 30
0.0
  0
XRECORD
  5
23A
102
{ACAD_REACTORS
330
227
102
}
330
227
100
AcDbXrecord
 10
0.0
 20
0.0
 30
0.0
  0
XRECORD
  5
23B
102
{ACAD_REACTORS
330
227
102
}
330
227
100
AcDbXrecord
 10
0.0
 20
0.0
 30
0.0
  0
XRECORD
  5
238
102
{ACAD_REACTORS
330
227
102
}
330
227
100
AcDbXrecord
 10
0.0
 20
0.0
 30
0.0
  0
XRECORD
  5
235
102
{ACAD_REACTORS
330
227
102
}
330
227
100
AcDbXrecord
340
0
  0
XRECORD
  5
236
102
{ACAD_REACTORS
330
227
102
}
330
227
100
AcDbXrecord
 70
     0
  0
XRECORD
  5
22B
102
{ACAD_REACTORS
330
227
102
}
330
227
100
AcDbXrecord
  1

  0
XRECORD
  5
228
102
{ACAD_REACTORS
330
227
102
}
330
227
100
AcDbXrecord
 90
        1
  0
XRECORD
  5
229
102
{ACAD_REACTORS
330
227
102
}
330
227
100
AcDbXrecord
 90
       70
  0
XRECORD
  5
240
102
{ACAD_REACTORS
330
227
102
}
330
227
100
AcDbXrecord
340
0
  0
XRECORD
  5
246
102
{ACAD_REACTORS
330
227
102
}
330
227
100
AcDbXrecord
 10
0.0
 20
0.0
 30
0.0
  0
XRECORD
  5
242
102
{ACAD_REACTORS
330
227
102
}
330
227
100
AcDbXrecord
 10
0.0
 20
0.0
 30
0.0
  0
XRECORD
  5
245
102
{ACAD_REACTORS
330
227
102
}
330
227
100
AcDbXrecord
 10
0.0
 20
0.0
 30
0.0
  0
XRECORD
  5
243
102
{ACAD_REACTORS
330
227
102
}
330
227
100
AcDbXrecord
 10
0.0
 20
0.0
 30
0.0
  0
XRECORD
  5
244
102
{ACAD_REACTORS
330
227
102
}
330
227
100
AcDbXrecord
 10
0.0
 20
0.0
 30
0.0
  0
XRECORD
  5
241
102
{ACAD_REACTORS
330
227
102
}
330
227
100
AcDbXrecord
 10
0.0
 20
0.0
 30
0.0
  0
XRECORD
  5
23E
102
{ACAD_REACTORS
330
227
102
}
330
227
100
AcDbXrecord
340
0
  0
XRECORD
  5
23F
102
{ACAD_REACTORS
330
227
102
}
330
227
100
AcDbXrecord
 70
     0
  0
XRECORD
  5
233
102
{ACAD_REACTORS
330
227
102
}
330
227
100
AcDbXrecord
  1
{FAEB1C32-E019-11D5-929B-00C0DF256EC4}
  0
DICTIONARYVAR
  5
251
102
{ACAD_REACTORS
330
248
102
}
330
248
100
DictionaryVariables
280
     0
  1
1:1
  0
DICTIONARYVAR
  5
24A
102
{ACAD_REACTORS
330
248
102
}
330
248
100
DictionaryVariables
280
     0
  1
Standard
  0
DICTIONARYVAR
  5
249
102
{ACAD_REACTORS
330
248
102
}
330
248
100
DictionaryVariables
280
     0
  1
Standard
  0
DICTIONARYVAR
  5
24D
102
{ACAD_REACTORS
330
248
102
}
330
248
100
DictionaryVariables
280
     0
  1
2
  0
DICTIONARYVAR
  5
24E
102
{ACAD_REACTORS
330
248
102
}
330
248
100
DictionaryVariables
280
     0
  1
1
  0
DICTIONARYVAR
  5
252
102
{ACAD_REACTORS
330
248
102
}
330
248
100
DictionaryVariables
280
     0
  1
1
  0
DICTIONARY
  5
255
330
45
100
AcDbDictionary
280
     1
  3
ACAD_XREC_ROUNDTRIP
360
256
  0
DICTIONARY
  5
253
330
44
100
AcDbDictionary
280
     1
  3
ACAD_XREC_ROUNDTRIP
360
254
  0
DICTIONARY
  5
257
330
46
100
AcDbDictionary
280
     1
  3
ACAD_XREC_ROUNDTRIP
360
258
  0
XRECORD
  5
256
102
{ACAD_REACTORS
330
255
102
}
330
255
100
AcDbXrecord
102
MATERIAL
148
0.0
149
0.0
149
0.0
 93
        0
 94
      127
282
     0
 72
     1
 77
     1
171
     1
175
     1
179
     1
273
     0
  0
XRECORD
  5
254
102
{ACAD_REACTORS
330
253
102
}
330
253
100
AcDbXrecord
102
MATERIAL
148
0.0
149
0.0
149
0.0
 93
        0
 94
      127
282
     0
 72
     1
 77
     1
171
     1
175
     1
179
     1
273
     0
  0
XRECORD
  5
258
102
{ACAD_REACTORS
330
257
102
}
330
257
100
AcDbXrecord
102
MATERIAL
148
0.0
149
0.0
149
0.0
 93
        0
 94
      127
282
     0
 72
     1
 77
     1
171
     1
175
     1
179
     1
273
     0
  0
ENDSEC
  0
EOF
