  0
SECTION
  2
HEADER
  9
$ACADVER
  1
AC1014
  9
$ACADMAINTVER
 70
     9
  9
$DWGCODEPAGE
  3
ANSI_932
  9
$INSBASE
 10
0.0
 20
0.0
 30
0.0
  9
$EXTMIN
 10
-37.00511232054065
 20
145.0053139049326
 30
0.0
  9
$EXTMAX
 10
185.630127079757
 20
240.2899971433916
 30
0.0
  9
$LIMMIN
 10
0.0
 20
0.0
  9
$LIMMAX
 10
12.0
 20
9.0
  9
$ORTHOMODE
 70
     0
  9
$REGENMODE
 70
     1
  9
$FILLMODE
 70
     1
  9
$QTEXTMODE
 70
     0
  9
$MIRRTEXT
 70
     1
  9
$DRAGMODE
 70
     2
  9
$LTSCALE
 40
1.0
  9
$OSMODE
 70
    37
  9
$ATTMODE
 70
     1
  9
$TEXTSIZE
 40
0.2
  9
$TRACEWID
 40
0.05
  9
$TEXTSTYLE
  7
STANDARD
  9
$CLAYER
  8
0
  9
$CELTYPE
  6
BYLAYER
  9
$CECOLOR
 62
   256
  9
$CELTSCALE
 40
1.0
  9
$DELOBJ
 70
     1
  9
$DISPSILH
 70
     0
  9
$DIMSCALE
 40
1.0
  9
$DIMASZ
 40
3.0
  9
$DIMEXO
 40
0.0625
  9
$DIMDLI
 40
0.38
  9
$DIMRND
 40
0.0
  9
$DIMDLE
 40
0.0
  9
$DIMEXE
 40
1.5
  9
$DIMTP
 40
0.0
  9
$DIMTM
 40
0.0
  9
$DIMTXT
 40
3.0
  9
$DIMCEN
 40
0.09
  9
$DIMTSZ
 40
0.0
  9
$DIMTOL
 70
     0
  9
$DIMLIM
 70
     0
  9
$DIMTIH
 70
     1
  9
$DIMTOH
 70
     1
  9
$DIMSE1
 70
     0
  9
$DIMSE2
 70
     0
  9
$DIMTAD
 70
     1
  9
$DIMZIN
 70
     0
  9
$DIMBLK
  1

  9
$DIMASO
 70
     1
  9
$DIMSHO
 70
     1
  9
$DIMPOST
  1

  9
$DIMAPOST
  1

  9
$DIMALT
 70
     0
  9
$DIMALTD
 70
     2
  9
$DIMALTF
 40
25.4
  9
$DIMLFAC
 40
1.0
  9
$DIMTOFL
 70
     0
  9
$DIMTVP
 40
0.0
  9
$DIMTIX
 70
     0
  9
$DIMSOXD
 70
     0
  9
$DIMSAH
 70
     0
  9
$DIMBLK1
  1

  9
$DIMBLK2
  1

  9
$DIMSTYLE
  2
STANDARD
  9
$DIMCLRD
 70
     0
  9
$DIMCLRE
 70
     0
  9
$DIMCLRT
 70
     0
  9
$DIMTFAC
 40
1.0
  9
$DIMGAP
 40
1.5
  9
$DIMJUST
 70
     0
  9
$DIMSD1
 70
     0
  9
$DIMSD2
 70
     0
  9
$DIMTOLJ
 70
     1
  9
$DIMTZIN
 70
     0
  9
$DIMALTZ
 70
     0
  9
$DIMALTTZ
 70
     0
  9
$DIMFIT
 70
     3
  9
$DIMUPT
 70
     0
  9
$DIMUNIT
 70
     2
  9
$DIMDEC
 70
     2
  9
$DIMTDEC
 70
     4
  9
$DIMALTU
 70
     2
  9
$DIMALTTD
 70
     2
  9
$DIMTXSTY
  7
ＭＳ_ゴシック
  9
$DIMAUNIT
 70
     0
  9
$LUNITS
 70
     2
  9
$LUPREC
 70
     4
  9
$SKETCHINC
 40
0.1
  9
$FILLETRAD
 40
0.5
  9
$AUNITS
 70
     0
  9
$AUPREC
 70
     0
  9
$MENU
  1
.
  9
$ELEVATION
 40
0.0
  9
$PELEVATION
 40
0.0
  9
$THICKNESS
 40
0.0
  9
$LIMCHECK
 70
     0
  9
$CHAMFERA
 40
0.0
  9
$CHAMFERB
 40
0.0
  9
$CHAMFERC
 40
0.0
  9
$CHAMFERD
 40
0.0
  9
$SKPOLY
 70
     0
  9
$TDCREATE
 40
2459991.699610694
  9
$TDUPDATE
 40
2459991.699611053
  9
$TDINDWG
 40
0.0000000116
  9
$TDUSRTIMER
 40
0.0000000116
  9
$USRTIMER
 70
     1
  9
$ANGBASE
 50
0.0
  9
$ANGDIR
 70
     0
  9
$PDMODE
 70
     0
  9
$PDSIZE
 40
0.0
  9
$PLINEWID
 40
0.0
  9
$COORDS
 70
     1
  9
$SPLFRAME
 70
     0
  9
$SPLINETYPE
 70
     6
  9
$SPLINESEGS
 70
     8
  9
$ATTDIA
 70
     0
  9
$ATTREQ
 70
     1
  9
$HANDLING
 70
     1
  9
$HANDSEED
  5
4FE
  9
$SURFTAB1
 70
     6
  9
$SURFTAB2
 70
     6
  9
$SURFTYPE
 70
     6
  9
$SURFU
 70
     6
  9
$SURFV
 70
     6
  9
$UCSNAME
  2

  9
$UCSORG
 10
0.0
 20
0.0
 30
0.0
  9
$UCSXDIR
 10
1.0
 20
0.0
 30
0.0
  9
$UCSYDIR
 10
0.0
 20
1.0
 30
0.0
  9
$PUCSNAME
  2

  9
$PUCSORG
 10
0.0
 20
0.0
 30
0.0
  9
$PUCSXDIR
 10
1.0
 20
0.0
 30
0.0
  9
$PUCSYDIR
 10
0.0
 20
1.0
 30
0.0
  9
$USERI1
 70
     0
  9
$USERI2
 70
     0
  9
$USERI3
 70
     0
  9
$USERI4
 70
     0
  9
$USERI5
 70
     0
  9
$USERR1
 40
0.0
  9
$USERR2
 40
0.0
  9
$USERR3
 40
0.0
  9
$USERR4
 40
0.0
  9
$USERR5
 40
0.0
  9
$WORLDVIEW
 70
     1
  9
$SHADEDGE
 70
     3
  9
$SHADEDIF
 70
    70
  9
$TILEMODE
 70
     1
  9
$MAXACTVP
 70
    64
  9
$PINSBASE
 10
0.0
 20
0.0
 30
0.0
  9
$PLIMCHECK
 70
     0
  9
$PEXTMIN
 10
1.000000000000000E+20
 20
1.000000000000000E+20
 30
1.000000000000000E+20
  9
$PEXTMAX
 10
-1.000000000000000E+20
 20
-1.000000000000000E+20
 30
-1.000000000000000E+20
  9
$PLIMMIN
 10
0.0
 20
0.0
  9
$PLIMMAX
 10
12.0
 20
9.0
  9
$UNITMODE
 70
     0
  9
$VISRETAIN
 70
     1
  9
$PLINEGEN
 70
     0
  9
$PSLTSCALE
 70
     1
  9
$TREEDEPTH
 70
  3020
  9
$PICKSTYLE
 70
     1
  9
$CMLSTYLE
  2
STANDARD
  9
$CMLJUST
 70
     0
  9
$CMLSCALE
 40
1.0
  9
$PROXYGRAPHICS
 70
     1
  9
$MEASUREMENT
 70
     1
  0
ENDSEC
  0
SECTION
  2
CLASSES
  0
CLASS
  1
ACDBDICTIONARYWDFLT
  2
AcDbDictionaryWithDefault
  3
ObjectDBX Classes
 90
        0
280
     0
281
     0
  0
CLASS
  1
VISUALSTYLE
  2
AcDbVisualStyle
  3
ObjectDBX Classes
 90
     4095
280
     0
281
     0
  0
CLASS
  1
MATERIAL
  2
AcDbMaterial
  3
ObjectDBX Classes
 90
     1153
280
     0
281
     0
  0
CLASS
  1
SCALE
  2
AcDbScale
  3
ObjectDBX Classes
 90
     1153
280
     0
281
     0
  0
CLASS
  1
TABLESTYLE
  2
AcDbTableStyle
  3
ObjectDBX Classes
 90
     4095
280
     0
281
     0
  0
CLASS
  1
MLEADERSTYLE
  2
AcDbMLeaderStyle
  3
ACDB_MLEADERSTYLE_CLASS
 90
     4095
280
     0
281
     0
  0
CLASS
  1
SUN
  2
AcDbSun
  3
SCENEOE
 90
     1153
280
     0
281
     0
  0
CLASS
  1
DICTIONARYVAR
  2
AcDbDictionaryVar
  3
ObjectDBX Classes
 90
        0
280
     0
281
     0
  0
CLASS
  1
XRECORD
  2
AcDbXrecord
  3
ObjectDBX Classes
 90
        0
280
     0
281
     0
  0
CLASS
  1
LWPOLYLINE
  2
AcDbPolyline
  3
ObjectDBX Classes
 90
        0
280
     0
281
     1
  0
CLASS
  1
HATCH
  2
AcDbHatch
  3
ObjectDBX Classes
 90
        0
280
     0
281
     1
  0
CLASS
  1
ACDBPLACEHOLDER
  2
AcDbPlaceHolder
  3
ObjectDBX Classes
 90
        0
280
     0
281
     0
  0
CLASS
  1
LAYOUT
  2
AcDbLayout
  3
ObjectDBX Classes
 90
        0
280
     0
281
     0
  0
ENDSEC
  0
SECTION
  2
TABLES
  0
TABLE
  2
VPORT
  5
8
102
{ACAD_XDICTIONARY
360
4F3
102
}
330
0
100
AcDbSymbolTable
 70
     1
  0
VPORT
  5
29
330
8
100
AcDbSymbolTableRecord
100
AcDbViewportTableRecord
  2
*ACTIVE
 70
     0
 10
0.0
 20
0.0
 11
1.0
 21
1.0
 12
74.31250737960818
 22
192.6476555241621
 13
0.0
 23
0.0
 14
0.5
 24
0.5
 15
0.5
 25
0.5
 16
0.0
 26
0.0
 36
1.0
 17
0.0
 27
0.0
 37
0.0
 40
95.28468323845905
 41
1.6
 42
50.0
 43
0.0
 44
0.0
 50
0.0
 51
0.0
 71
     0
 72
   100
 73
     1
 74
     3
 75
     0
 76
     0
 77
     0
 78
     0
  0
ENDTAB
  0
TABLE
  2
LTYPE
  5
5
330
0
100
AcDbSymbolTable
 70
     2
  0
LTYPE
  5
14
330
5
100
AcDbSymbolTableRecord
100
AcDbLinetypeTableRecord
  2
BYBLOCK
 70
     0
  3

 72
    65
 73
     0
 40
0.0
  0
LTYPE
  5
15
330
5
100
AcDbSymbolTableRecord
100
AcDbLinetypeTableRecord
  2
BYLAYER
 70
     0
  3

 72
    65
 73
     0
 40
0.0
  0
LTYPE
  5
16
330
5
100
AcDbSymbolTableRecord
100
AcDbLinetypeTableRecord
  2
CONTINUOUS
 70
     0
  3
Solid line
 72
    65
 73
     0
 40
0.0
  0
LTYPE
  5
78
330
5
100
AcDbSymbolTableRecord
100
AcDbLinetypeTableRecord
  2
CENTER
 70
     0
  3

 72
    65
 73
     0
 40
0.0
  0
ENDTAB
  0
TABLE
  2
LAYER
  5
2
330
0
100
AcDbSymbolTable
 70
     1
  0
LAYER
  5
10
330
2
100
AcDbSymbolTableRecord
100
AcDbLayerTableRecord
  2
0
 70
     0
 62
     7
  6
CONTINUOUS
  0
ENDTAB
  0
TABLE
  2
STYLE
  5
3
330
0
100
AcDbSymbolTable
 70
     2
  0
STYLE
  5
11
330
3
100
AcDbSymbolTableRecord
100
AcDbTextStyleTableRecord
  2
STANDARD
 70
     0
 40
0.0
 41
1.0
 50
0.0
 71
     0
 42
0.2
  3
txt
  4

  0
STYLE
  5
6E
330
3
100
AcDbSymbolTableRecord
100
AcDbTextStyleTableRecord
  2
ＭＳ_ゴシック
 70
     0
 40
0.0
 41
1.0
 50
0.0
 71
     0
 42
0.2
  3
ＭＳ ゴシック.shx
  4

  0
ENDTAB
  0
TABLE
  2
VIEW
  5
6
330
0
100
AcDbSymbolTable
 70
     0
  0
ENDTAB
  0
TABLE
  2
UCS
  5
7
330
0
100
AcDbSymbolTable
 70
     0
  0
ENDTAB
  0
TABLE
  2
APPID
  5
9
330
0
100
AcDbSymbolTable
 70
     2
  0
APPID
  5
12
330
9
100
AcDbSymbolTableRecord
100
AcDbRegAppTableRecord
  2
ACAD
 70
     0
  0
APPID
  5
4FD
330
9
100
AcDbSymbolTableRecord
100
AcDbRegAppTableRecord
  2
ACAD_MLEADERVER
 70
     0
  0
ENDTAB
  0
TABLE
  2
DIMSTYLE
  5
A
330
0
100
AcDbSymbolTable
 70
     1
  0
DIMSTYLE
105
27
330
A
100
AcDbSymbolTableRecord
100
AcDbDimStyleTableRecord
  2
STANDARD
 70
     0
  3

  4

  5

  6

  7

 40
1.0
 41
0.18
 42
0.0625
 43
0.38
 44
0.18
 45
0.0
 46
0.0
 47
0.0
 48
0.0
140
0.18
141
0.09
142
0.0
143
25.4
144
1.0
145
0.0
146
1.0
147
0.09
 71
     0
 72
     0
 73
     1
 74
     1
 75
     0
 76
     0
 77
     0
 78
     0
170
     0
171
     2
172
     0
173
     0
174
     0
175
     0
176
     0
177
     0
178
     0
270
     2
271
     4
272
     4
273
     2
274
     2
340
11
275
     0
280
     0
281
     0
282
     0
283
     1
284
     0
285
     0
286
     0
287
     3
288
     0
  0
ENDTAB
  0
TABLE
  2
BLOCK_RECORD
  5
1
330
0
100
AcDbSymbolTable
 70
     0
  0
BLOCK_RECORD
  5
1F
330
1
100
AcDbSymbolTableRecord
100
AcDbBlockTableRecord
  2
*MODEL_SPACE
  0
BLOCK_RECORD
  5
1B
330
1
100
AcDbSymbolTableRecord
100
AcDbBlockTableRecord
  2
*PAPER_SPACE
  0
ENDTAB
  0
ENDSEC
  0
SECTION
  2
BLOCKS
  0
BLOCK
  5
20
330
1F
100
AcDbEntity
  8
0
100
AcDbBlockBegin
  2
*MODEL_SPACE
 70
     0
 10
0.0
 20
0.0
 30
0.0
  3
*MODEL_SPACE
  1

  0
ENDBLK
  5
21
330
1F
100
AcDbEntity
  8
0
100
AcDbBlockEnd
  0
BLOCK
  5
1C
330
1B
100
AcDbEntity
 67
     1
  8
0
100
AcDbBlockBegin
  2
*PAPER_SPACE
 70
     0
 10
0.0
 20
0.0
 30
0.0
  3
*PAPER_SPACE
  1

  0
ENDBLK
  5
1D
330
1B
100
AcDbEntity
 67
     1
  8
0
100
AcDbBlockEnd
  0
ENDSEC
  0
SECTION
  2
ENTITIES
  0
LINE
  5
6F
330
1F
100
AcDbEntity
  8
0
  6
CONTINUOUS
 62
     7
100
AcDbLine
 10
170.8801270797497
 20
171.2899971433584
 30
0.0
 11
170.8801270797497
 21
186.5399971433662
 31
0.0
  0
LINE
  5
70
330
1F
100
AcDbEntity
  8
0
  6
CONTINUOUS
 62
     7
100
AcDbLine
 10
-23.76195289317867
 20
210.4838874324415
 30
0.0
 11
-23.77782730320867
 21
210.5135503772812
 31
0.0
  0
LINE
  5
71
330
1F
100
AcDbEntity
  8
0
  6
CONTINUOUS
 62
     7
100
AcDbLine
 10
144.9513016450091
 20
175.7899971433606
 30
0.0
 11
162.1390795333952
 21
175.7899971433606
 31
0.0
  0
LINE
  5
72
330
1F
100
AcDbEntity
  8
0
  6
CONTINUOUS
 62
     7
100
AcDbLine
 10
-23.83278695360325
 20
210.591922840186
 30
0.0
 11
-23.85333681293994
 21
210.6142232043457
 31
0.0
  0
LINE
  5
73
330
1F
100
AcDbEntity
  8
0
  6
CONTINUOUS
 62
     7
100
AcDbLine
 10
-23.73370570737304
 20
210.4186272626527
 30
0.0
 11
-23.74719661495391
 21
210.4521468738561
 31
0.0
  0
LINE
  5
74
330
1F
100
AcDbEntity
  8
0
  6
CONTINUOUS
 62
     7
100
AcDbLine
 10
143.5787259180462
 20
173.531178098257
 30
0.0
 11
143.9853758187197
 21
175.0488161884628
 31
0.0
  0
LINE
  5
75
330
1F
100
AcDbEntity
  8
0
  6
CONTINUOUS
 62
     7
100
AcDbLine
 10
-17.11429553081584
 20
170.289997143358
 30
0.0
 11
-11.08094922331951
 21
170.289997143358
 31
0.0
  0
LINE
  5
76
330
1F
100
AcDbEntity
  8
0
  6
CONTINUOUS
 62
     7
100
AcDbLine
 10
-23.87489391143099
 20
210.6344691736326
 30
0.0
 11
-23.89739359980758
 21
210.6525752481652
 31
0.0
  0
LINE
  5
77
330
1F
100
AcDbEntity
  8
0
  6
CENTER
 62
     1
100
AcDbLine
 10
185.630127079757
 20
202.7899971433743
 30
0.0
 11
65.63012707969703
 21
202.7899971433743
 31
0.0
  0
LINE
  5
79
330
1F
100
AcDbEntity
  8
0
  6
CONTINUOUS
 62
     7
100
AcDbLine
 10
165.1474540677257
 20
202.7899971433743
 30
0.0
 11
165.1474540677257
 21
170.289997143358
 31
0.0
  0
LINE
  5
7A
330
1F
100
AcDbEntity
  8
0
  6
CONTINUOUS
 62
     7
100
AcDbLine
 10
-25.04378645742711
 20
205.5205341196204
 30
0.0
 11
-25.91042375351056
 21
205.4751155834888
 31
0.0
  0
LINE
  5
7B
330
1F
100
AcDbEntity
  8
0
  6
CONTINUOUS
 62
     7
100
AcDbLine
 10
165.1474540677257
 20
170.289997143358
 30
0.0
 11
168.3801270797485
 21
170.289997143358
 31
0.0
  0
LINE
  5
7C
330
1F
100
AcDbEntity
  8
0
  6
CONTINUOUS
 62
     7
100
AcDbLine
 10
-23.68995443820027
 20
209.8210715907405
 30
0.0
 11
-23.68389038069873
 21
209.868646972566
 31
0.0
  0
LINE
  5
7D
330
1F
100
AcDbEntity
  8
0
  6
CONTINUOUS
 62
     7
100
AcDbLine
 10
-23.67416940191214
 20
210.0088105163263
 30
0.0
 11
-23.67376236855883
 21
210.0545722405581
 31
0.0
  0
LINE
  5
7E
330
1F
100
AcDbEntity
  8
0
  6
CONTINUOUS
 62
     7
100
AcDbLine
 10
-24.41375638551724
 20
206.4032707724379
 30
0.0
 11
-24.40761645628493
 21
206.4422729871693
 31
0.0
  0
LINE
  5
7F
330
1F
100
AcDbEntity
  8
0
  6
CONTINUOUS
 62
     7
100
AcDbLine
 10
-23.70114736203749
 20
210.3086929927092
 30
0.0
 11
-23.71064886556037
 21
210.3467704341418
 31
0.0
  0
LINE
  5
80
330
1F
100
AcDbEntity
  8
0
  6
CONTINUOUS
 62
     7
100
AcDbLine
 10
142.6128000917566
 20
172.7899971433591
 30
0.0
 11
142.6128000917566
 21
202.7899971433743
 31
0.0
  0
LINE
  5
81
330
1F
100
AcDbEntity
  8
0
  6
CONTINUOUS
 62
     7
100
AcDbLine
 10
170.8801270797497
 20
201.7899971433737
 30
0.0
 11
170.8801270797497
 21
202.7899971433743
 31
0.0
  0
LINE
  5
82
330
1F
100
AcDbEntity
  8
0
  6
CONTINUOUS
 62
     7
100
AcDbLine
 10
-23.74019627396645
 20
209.5822380725782
 30
0.0
 11
-23.72760299294605
 21
209.6295844536071
 31
0.0
  0
LINE
  5
83
330
1F
100
AcDbEntity
  8
0
  6
CONTINUOUS
 62
     7
100
AcDbLine
 10
-23.71624878108902
 20
209.6773053570802
 30
0.0
 11
-23.70616702616559
 21
209.7252364218551
 31
0.0
  0
LINE
  5
84
330
1F
100
AcDbEntity
  8
0
  6
CONTINUOUS
 62
     7
100
AcDbLine
 10
-23.68107095966632
 20
210.1869358838548
 30
0.0
 11
-23.68635926653064
 21
210.2288894951773
 31
0.0
  0
LINE
  5
85
330
1F
100
AcDbEntity
  8
0
  6
CONTINUOUS
 62
     7
100
AcDbLine
 10
-33.43885639492972
 20
209.0150283154956
 30
0.0
 11
-36.45552954867794
 21
203.7899971433746
 31
0.0
  0
LINE
  5
86
330
1F
100
AcDbEntity
  8
0
  6
CONTINUOUS
 62
     7
100
AcDbLine
 10
81.88012707970526
 20
168.2899971433569
 30
0.0
 11
94.88012707971176
 21
168.2899971433569
 31
0.0
  0
LINE
  5
87
330
1F
100
AcDbEntity
  8
0
  6
CONTINUOUS
 62
     7
100
AcDbLine
 10
162.1390795333952
 20
175.7899971433606
 30
0.0
 11
162.1390795333952
 21
202.7899971433743
 31
0.0
  0
LINE
  5
88
330
1F
100
AcDbEntity
  8
0
  6
CONTINUOUS
 62
     7
100
AcDbLine
 10
170.8801270797497
 20
170.289997143358
 30
0.0
 11
176.3801270797524
 21
170.289997143358
 31
0.0
  0
LINE
  5
89
330
1F
100
AcDbEntity
  8
0
  6
CONTINUOUS
 62
     7
100
AcDbLine
 10
34.42863175388294
 20
196.5649659712528
 30
0.0
 11
37.44530490763113
 21
201.7899971433737
 31
0.0
  0
LINE
  5
8A
330
1F
100
AcDbEntity
  8
0
  6
CONTINUOUS
 62
     7
100
AcDbLine
 10
144.9513016450091
 20
202.7899971433743
 30
0.0
 11
144.9513016450091
 21
175.7899971433607
 31
0.0
  0
LINE
  5
8B
330
1F
100
AcDbEntity
  8
0
  6
CONTINUOUS
 62
     7
100
AcDbLine
 10
170.8801270797497
 20
170.289997143358
 30
0.0
 11
170.8801270797497
 21
171.2899971433584
 31
0.0
  0
LINE
  5
8C
330
1F
100
AcDbEntity
  8
0
  6
CONTINUOUS
 62
     7
100
AcDbLine
 10
-23.67376236855884
 20
210.0545722405581
 30
0.0
 11
-23.67477517451218
 21
210.0996191285521
 31
0.0
  0
LINE
  5
8D
330
1F
100
AcDbEntity
  8
0
  6
CONTINUOUS
 62
     7
100
AcDbLine
 10
99.88012707971416
 20
172.7899971433591
 30
0.0
 11
142.6128000917566
 21
172.7899971433591
 31
0.0
  0
LINE
  5
8E
330
1F
100
AcDbEntity
  8
0
  6
CONTINUOUS
 62
     7
100
AcDbLine
 10
-24.43906927678024
 20
206.2789217591543
 30
0.0
 11
-24.42846455243835
 21
206.325844226245
 31
0.0
  0
LINE
  5
8F
330
1F
100
AcDbEntity
  8
0
  6
CONTINUOUS
 62
     7
100
AcDbLine
 10
-23.7215123857904
 20
210.383458486769
 30
0.0
 11
-23.73370570737307
 21
210.4186272626527
 31
0.0
  0
LINE
  5
90
330
1F
100
AcDbEntity
  8
0
  6
CONTINUOUS
 62
     7
100
AcDbLine
 10
19.83612169733873
 20
171.2899971433584
 30
0.0
 11
22.85279485108692
 21
176.5150283154794
 31
0.0
  0
LINE
  5
91
330
1F
100
AcDbEntity
  8
0
  6
CONTINUOUS
 62
     7
100
AcDbLine
 10
-23.85333681293994
 20
210.6142232043457
 30
0.0
 11
-23.87489391143104
 21
210.6344691736326
 31
0.0
  0
LINE
  5
92
330
1F
100
AcDbEntity
  8
0
  6
CONTINUOUS
 62
     7
100
AcDbLine
 10
-23.77782730320865
 20
210.5135503772811
 30
0.0
 11
-23.79496754946869
 21
210.5415009267726
 31
0.0
  0
LINE
  5
93
330
1F
100
AcDbEntity
  8
0
  6
CONTINUOUS
 62
     7
100
AcDbLine
 10
12.0707245822726
 20
170.289997143358
 30
0.0
 11
18.10407088976894
 21
170.289997143358
 31
0.0
  0
LINE
  5
94
330
1F
100
AcDbEntity
  8
0
  6
CONTINUOUS
 62
     7
100
AcDbLine
 10
168.3801270797486
 20
170.289997143358
 30
0.0
 11
168.3801270797486
 21
202.7899971433743
 31
0.0
  0
LINE
  5
95
330
1F
100
AcDbEntity
  8
0
  6
CONTINUOUS
 62
     7
100
AcDbLine
 10
94.88012707971177
 20
168.2899971433569
 30
0.0
 11
95.88012707971227
 21
168.2899971433569
 31
0.0
  0
LINE
  5
96
330
1F
100
AcDbEntity
  8
0
  6
CONTINUOUS
 62
     7
100
AcDbLine
 10
-23.89739359980758
 20
210.6525752481653
 30
0.0
 11
-23.92146038061788
 21
210.6689351123646
 31
0.0
  0
LINE
  5
97
330
1F
100
AcDbEntity
  8
0
  6
CONTINUOUS
 62
     7
100
AcDbLine
 10
-23.81330898268985
 20
210.5676535810346
 30
0.0
 11
-23.83278695360323
 21
210.5919228401861
 31
0.0
  0
LINE
  5
98
330
1F
100
AcDbEntity
  8
0
  6
CONTINUOUS
 62
     7
100
AcDbLine
 10
-23.68389038069873
 20
209.868646972566
 30
0.0
 11
-23.67923233121159
 21
209.9157750711231
 31
0.0
  0
LINE
  5
99
330
1F
100
AcDbEntity
  8
0
  6
CONTINUOUS
 62
     7
100
AcDbLine
 10
81.88012707970526
 20
168.2899971433569
 30
0.0
 11
94.88012707971176
 21
168.2899971433569
 31
0.0
  0
LINE
  5
9A
330
1F
100
AcDbEntity
  8
0
  6
CONTINUOUS
 62
     7
100
AcDbLine
 10
-23.68635926653062
 20
210.2288894951774
 30
0.0
 11
-23.69304009057608
 21
210.2693560504086
 31
0.0
  0
LINE
  5
9B
330
1F
100
AcDbEntity
  8
0
  6
CONTINUOUS
 62
     7
100
AcDbLine
 10
163.1050053596849
 20
175.0488161884629
 30
0.0
 11
164.1815282414363
 21
171.0311780982559
 31
0.0
  0
LINE
  5
9C
330
1F
100
AcDbEntity
  8
0
  6
CONTINUOUS
 62
     7
100
AcDbLine
 10
-23.92146038061793
 20
210.6689351123646
 30
0.0
 11
-23.94646151601911
 21
210.6830420788503
 31
0.0
  0
LINE
  5
9D
330
1F
100
AcDbEntity
  8
0
  6
CONTINUOUS
 62
     7
100
AcDbLine
 10
-24.42071058536643
 20
206.3644323308611
 30
0.0
 11
-24.41375638551724
 21
206.4032707724378
 31
0.0
  0
LINE
  5
9E
330
1F
100
AcDbEntity
  8
0
  6
CONTINUOUS
 62
     7
100
AcDbLine
 10
94.88012707971177
 20
168.2899971433569
 30
0.0
 11
94.88012707971177
 21
202.7899971433743
 31
0.0
  0
LINE
  5
9F
330
1F
100
AcDbEntity
  8
0
  6
CONTINUOUS
 62
     7
100
AcDbLine
 10
74.88012707970165
 20
173.5399971433596
 30
0.0
 11
74.88012707970165
 21
202.7899971433743
 31
0.0
  0
LINE
  5
A0
330
1F
100
AcDbEntity
  8
0
  6
CENTER
 62
     1
100
AcDbLine
 10
0.4948876794765855
 20
165.289997143357
 30
0.0
 11
0.4948876794765855
 21
240.2899971433916
 31
0.0
  0
LINE
  5
A1
330
1F
100
AcDbEntity
  8
0
  6
CONTINUOUS
 62
     7
100
AcDbLine
 10
-36.45552954867792
 20
201.7899971433737
 30
0.0
 11
-33.43885639492975
 21
196.5649659712528
 31
0.0
  0
LINE
  5
A2
330
1F
100
AcDbEntity
  8
0
  6
CONTINUOUS
 62
     7
100
AcDbLine
 10
74.88012707970182
 20
173.5399971433596
 30
0.0
 11
77.38012707970292
 21
173.5399971433596
 31
0.0
  0
LINE
  5
A3
330
1F
100
AcDbEntity
  8
0
  6
CONTINUOUS
 62
     7
100
AcDbLine
 10
-23.67721048360405
 20
210.1437930523156
 30
0.0
 11
-23.68107095966628
 21
210.1869358838549
 31
0.0
  0
LINE
  5
A4
330
1F
100
AcDbEntity
  8
0
  6
CONTINUOUS
 62
     7
100
AcDbLine
 10
-23.7106488655604
 20
210.3467704341419
 30
0.0
 11
-23.7215123857904
 21
210.3834584867691
 31
0.0
  0
LINE
  5
A5
330
1F
100
AcDbEntity
  8
0
  6
CONTINUOUS
 62
     7
100
AcDbLine
 10
-23.70616702616557
 20
209.7252364218549
 30
0.0
 11
-23.69739111594592
 21
209.7732132867893
 31
0.0
  0
LINE
  5
A6
330
1F
100
AcDbEntity
  8
0
  6
CONTINUOUS
 62
     7
100
AcDbLine
 10
81.88012707970526
 20
202.7899971433743
 30
0.0
 11
81.88012707970526
 21
168.2899971433569
 31
0.0
  0
LINE
  5
A7
330
1F
100
AcDbEntity
  8
0
  6
CONTINUOUS
 62
     7
100
AcDbLine
 10
170.8801270797497
 20
186.5399971433661
 30
0.0
 11
170.8801270797497
 21
201.7899971433738
 31
0.0
  0
LINE
  5
A8
330
1F
100
AcDbEntity
  8
0
  6
CONTINUOUS
 62
     7
100
AcDbLine
 10
-11.08094922331943
 20
235.2899971433904
 30
0.0
 11
-17.11429553081581
 21
235.2899971433904
 31
0.0
  0
LINE
  5
A9
330
1F
100
AcDbEntity
  8
0
  6
CONTINUOUS
 62
     7
100
AcDbLine
 10
79.38012707970398
 20
170.7899971433582
 30
0.0
 11
79.38012707970398
 21
202.7899971433744
 31
0.0
  0
LINE
  5
AA
330
1F
100
AcDbEntity
  8
0
  6
CONTINUOUS
 62
     7
100
AcDbLine
 10
176.3801270797524
 20
170.289997143358
 30
0.0
 11
176.3801270797524
 21
202.7899971433743
 31
0.0
  0
LINE
  5
AB
330
1F
100
AcDbEntity
  8
0
  6
CONTINUOUS
 62
     7
100
AcDbLine
 10
37.44530490763109
 20
203.7899971433746
 30
0.0
 11
34.4286317538829
 21
209.0150283154956
 31
0.0
  0
LINE
  5
AC
330
1F
100
AcDbEntity
  8
0
  6
CONTINUOUS
 62
     7
100
AcDbLine
 10
-23.74719661495395
 20
210.4521468738562
 30
0.0
 11
-23.76195289317867
 21
210.4838874324414
 31
0.0
  0
LINE
  5
AD
330
1F
100
AcDbEntity
  8
0
  6
CONTINUOUS
 62
     7
100
AcDbLine
 10
-23.67923233121155
 20
209.9157750711231
 30
0.0
 11
-23.67599361074032
 21
209.9624920838504
 31
0.0
  0
LINE
  5
AE
330
1F
100
AcDbEntity
  8
0
  6
CONTINUOUS
 62
     7
100
AcDbLine
 10
22.85279485108693
 20
229.0649659712691
 30
0.0
 11
19.83612169733874
 21
234.2899971433901
 31
0.0
  0
LINE
  5
AF
330
1F
100
AcDbEntity
  8
0
  6
CONTINUOUS
 62
     7
100
AcDbLine
 10
170.3801270797496
 20
170.289997143358
 30
0.0
 11
170.8801270797498
 21
170.289997143358
 31
0.0
  0
LINE
  5
B0
330
1F
100
AcDbEntity
  8
0
  6
CONTINUOUS
 62
     7
100
AcDbLine
 10
-18.83322470885673
 20
186.6658632035762
 30
0.0
 11
-18.85743402778229
 21
186.6970191711717
 31
0.0
  0
LINE
  5
B1
330
1F
100
AcDbEntity
  8
0
  6
CONTINUOUS
 62
     7
100
AcDbLine
 10
-10.50336555793785
 20
225.4410475990773
 30
0.0
 11
-10.46282379831118
 21
225.467544526434
 31
0.0
  0
LINE
  5
B2
330
1F
100
AcDbEntity
  8
0
  6
CONTINUOUS
 62
     7
100
AcDbLine
 10
-18.54326947906049
 20
186.0344343883362
 30
0.0
 11
-18.54959276158011
 21
186.0720958107169
 31
0.0
  0
LINE
  5
B3
330
1F
100
AcDbEntity
  8
0
  6
CONTINUOUS
 62
     7
100
AcDbLine
 10
-20.88244744227618
 20
189.4843139924278
 30
0.0
 11
-20.91303698452435
 21
189.5218639769554
 31
0.0
  0
LINE
  5
B4
330
1F
100
AcDbEntity
  8
0
  6
CONTINUOUS
 62
     7
100
AcDbLine
 10
-18.78196233228685
 20
186.595002296353
 30
0.0
 11
-18.80973657527479
 21
186.6342804012295
 31
0.0
  0
LINE
  5
B5
330
1F
100
AcDbEntity
  8
0
  6
CONTINUOUS
 62
     7
100
AcDbLine
 10
-20.76916744138246
 20
189.3247161998567
 30
0.0
 11
-20.79592610968376
 21
189.3657557441294
 31
0.0
  0
LINE
  5
B6
330
1F
100
AcDbEntity
  8
0
  6
CONTINUOUS
 62
     7
100
AcDbLine
 10
-18.72988121010688
 20
186.5147220155756
 30
0.0
 11
-18.75531540979838
 21
186.5551043336072
 31
0.0
  0
LINE
  5
B7
330
1F
100
AcDbEntity
  8
0
  6
CONTINUOUS
 62
     7
100
AcDbLine
 10
-21.0087912752519
 20
189.6268676739479
 30
0.0
 11
-21.04199194471134
 21
189.6592164061074
 31
0.0
  0
LINE
  5
B8
330
1F
100
AcDbEntity
  8
0
  6
CONTINUOUS
 62
     7
100
AcDbLine
 10
-24.50362764498703
 20
199.5112142000443
 30
0.0
 11
-24.52080055103609
 21
199.5542701662129
 31
0.0
  0
LINE
  5
B9
330
1F
100
AcDbEntity
  8
0
  6
CONTINUOUS
 62
     7
100
AcDbLine
 10
-10.42341075301451
 20
225.4948721975689
 30
0.0
 11
-10.38527090695938
 21
225.5229454453597
 31
0.0
  0
LINE
  5
BA
330
1F
100
AcDbEntity
  8
0
  6
CONTINUOUS
 62
     7
100
AcDbLine
 10
-18.56763593617039
 20
186.1497409107169
 30
0.0
 11
-18.57926498850564
 21
186.1894483063471
 31
0.0
  0
LINE
  5
BB
330
1F
100
AcDbEntity
  8
0
  6
CONTINUOUS
 62
     7
100
AcDbLine
 10
-20.94433473687507
 20
189.5582045939979
 30
0.0
 11
-20.97624089597458
 21
189.5932010525351
 31
0.0
  0
LINE
  5
BC
330
1F
100
AcDbEntity
  8
0
  6
CONTINUOUS
 62
     7
100
AcDbLine
 10
-18.55772827082114
 20
186.1105788747813
 30
0.0
 11
-18.56763593617036
 21
186.149740910717
 31
0.0
  0
LINE
  5
BD
330
1F
100
AcDbEntity
  8
0
  6
CONTINUOUS
 62
     7
100
AcDbLine
 10
-22.53690984282752
 20
189.5964430529404
 30
0.0
 11
-21.72524262899374
 21
189.9080129047486
 31
0.0
  0
LINE
  5
BE
330
1F
100
AcDbEntity
  8
0
  6
CONTINUOUS
 62
     7
100
AcDbLine
 10
-18.85743402778228
 20
186.6970191711719
 30
0.0
 11
-18.88230990727186
 21
186.7276796034022
 31
0.0
  0
LINE
  5
BF
330
1F
100
AcDbEntity
  8
0
  6
CONTINUOUS
 62
     7
100
AcDbLine
 10
-20.97624089597461
 20
189.5932010525351
 30
0.0
 11
-21.00879127525192
 21
189.6268676739479
 31
0.0
  0
LINE
  5
C0
330
1F
100
AcDbEntity
  8
0
  6
CONTINUOUS
 62
     7
100
AcDbLine
 10
-24.48758484243091
 20
199.4672187789802
 30
0.0
 11
-24.50362764498707
 21
199.5112142000443
 31
0.0
  0
LINE
  5
C1
330
1F
100
AcDbEntity
  8
0
  6
CONTINUOUS
 62
     7
100
AcDbLine
 10
-14.14074096622303
 20
223.4776464632809
 30
0.0
 11
-14.10161832413128
 21
223.4817148298025
 31
0.0
  0
LINE
  5
C2
330
1F
100
AcDbEntity
  8
0
  6
CONTINUOUS
 62
     7
100
AcDbLine
 10
-18.75531540979836
 20
186.5551043336072
 30
0.0
 11
-18.78196233228679
 21
186.5950022963531
 31
0.0
  0
LINE
  5
C3
330
1F
100
AcDbEntity
  8
0
  6
CONTINUOUS
 62
     7
100
AcDbLine
 10
-18.68299258830503
 20
186.4330463239912
 30
0.0
 11
-18.70574513550989
 21
186.4739908448423
 31
0.0
  0
LINE
  5
C4
330
1F
100
AcDbEntity
  8
0
  6
CONTINUOUS
 62
     7
100
AcDbLine
 10
-18.66170897078967
 20
186.392023955606
 30
0.0
 11
-18.68299258830501
 21
186.4330463239912
 31
0.0
  0
LINE
  5
C5
330
1F
100
AcDbEntity
  8
0
  6
CONTINUOUS
 62
     7
100
AcDbLine
 10
-10.27846438927626
 20
225.6117539050638
 30
0.0
 11
-10.24566572702132
 21
225.6426488180452
 31
0.0
  0
LINE
  5
C6
330
1F
100
AcDbEntity
  8
0
  6
CONTINUOUS
 62
     7
100
AcDbLine
 10
-10.21446764400491
 20
225.6740167297884
 30
0.0
 11
-10.18498943467828
 21
225.7057538116258
 31
0.0
  0
LINE
  5
C7
330
1F
100
AcDbEntity
  8
0
  6
CONTINUOUS
 62
     7
100
AcDbLine
 10
-13.89586145754373
 20
223.5266983103281
 30
0.0
 11
-13.85364866237739
 21
223.5403676629196
 31
0.0
  0
LINE
  5
C8
330
1F
100
AcDbEntity
  8
0
  6
CONTINUOUS
 62
     7
100
AcDbLine
 10
-9.985543288712261
 20
226.0894899351197
 30
0.0
 11
-9.982721428319241
 21
226.1196833129423
 31
0.0
  0
LINE
  5
C9
330
1F
100
AcDbEntity
  8
0
  6
CONTINUOUS
 62
     7
100
AcDbLine
 10
-9.982721428319241
 20
226.1196833129423
 30
0.0
 11
-9.982100255391687
 21
226.1492505568434
 31
0.0
  0
LINE
  5
CA
330
1F
100
AcDbEntity
  8
0
  6
CONTINUOUS
 62
     7
100
AcDbLine
 10
-9.982100255391702
 20
226.1492505568434
 30
0.0
 11
-9.983700049919344
 21
226.1780864124662
 31
0.0
  0
LINE
  5
CB
330
1F
100
AcDbEntity
  8
0
  6
CONTINUOUS
 62
     7
100
AcDbLine
 10
-14.10161832413126
 20
223.4817148298025
 30
0.0
 11
-14.06163518889247
 21
223.4874746724895
 31
0.0
  0
LINE
  5
CC
330
1F
100
AcDbEntity
  8
0
  6
CONTINUOUS
 62
     7
100
AcDbLine
 10
-20.85266591348428
 20
189.4456894314347
 30
0.0
 11
-20.88244744227625
 21
189.4843139924279
 31
0.0
  0
LINE
  5
CD
330
1F
100
AcDbEntity
  8
0
  6
CONTINUOUS
 62
     7
100
AcDbLine
 10
-10.63031827368299
 20
225.3673929508999
 30
0.0
 11
-10.58725728053524
 21
225.3908866441879
 31
0.0
  0
LINE
  5
CE
330
1F
100
AcDbEntity
  8
0
  6
CONTINUOUS
 62
     7
100
AcDbLine
 10
-20.82379220150221
 20
189.4061250849953
 30
0.0
 11
-20.85266591348427
 21
189.4456894314347
 31
0.0
  0
LINE
  5
CF
330
1F
100
AcDbEntity
  8
0
  6
CONTINUOUS
 62
     7
100
AcDbLine
 10
-18.62397277620481
 20
186.3105065296332
 30
0.0
 11
-18.64197968526151
 21
186.3510592422707
 31
0.0
  0
LINE
  5
D0
330
1F
100
AcDbEntity
  8
0
  6
CONTINUOUS
 62
     7
100
AcDbLine
 10
-18.62300525602312
 20
185.6381494715818
 30
0.0
 11
-19.16914624533767
 21
184.96372151681
 31
0.0
  0
LINE
  5
D1
330
1F
100
AcDbEntity
  8
0
  6
CONTINUOUS
 62
     7
100
AcDbLine
 10
-24.52080055103611
 20
199.554270166213
 30
0.0
 11
-24.5390416776604
 21
199.5962411368985
 31
0.0
  0
LINE
  5
D2
330
1F
100
AcDbEntity
  8
0
  6
CONTINUOUS
 62
     7
100
AcDbLine
 10
-24.53904167766041
 20
199.5962411368983
 30
0.0
 11
-24.55828914194228
 21
199.6369815715125
 31
0.0
  0
LINE
  5
D3
330
1F
100
AcDbEntity
  8
0
  6
CONTINUOUS
 62
     7
100
AcDbLine
 10
-10.58725728053522
 20
225.390886644188
 30
0.0
 11
-10.54489154698302
 21
225.4154665826213
 31
0.0
  0
LINE
  5
D4
330
1F
100
AcDbEntity
  8
0
  6
CONTINUOUS
 62
     7
100
AcDbLine
 10
-13.81084608613026
 20
223.555706890824
 30
0.0
 11
-13.7678236987397
 21
223.5725859093288
 31
0.0
  0
LINE
  5
D5
330
1F
100
AcDbEntity
  8
0
  6
CONTINUOUS
 62
     7
100
AcDbLine
 10
-18.54959276158008
 20
186.0720958107169
 30
0.0
 11
-18.55772827082109
 21
186.1105788747813
 31
0.0
  0
LINE
  5
D6
330
1F
100
AcDbEntity
  8
0
  6
CONTINUOUS
 62
     7
100
AcDbLine
 10
-10.24566572702135
 20
225.6426488180452
 30
0.0
 11
-10.21446764400489
 21
225.6740167297883
 31
0.0
  0
LINE
  5
D7
330
1F
100
AcDbEntity
  8
0
  6
CONTINUOUS
 62
     7
100
AcDbLine
 10
-18.5792649885056
 20
186.1894483063471
 30
0.0
 11
-18.59256465870459
 21
186.2295674494943
 31
0.0
  0
LINE
  5
D8
330
1F
100
AcDbEntity
  8
0
  6
CONTINUOUS
 62
     7
100
AcDbLine
 10
-14.02092974756047
 20
223.4948894666138
 30
0.0
 11
-13.97964018718912
 21
223.503922687447
 31
0.0
  0
LINE
  5
D9
330
1F
100
AcDbEntity
  8
0
  6
CONTINUOUS
 62
     7
100
AcDbLine
 10
-24.55828914194225
 20
199.6369815715126
 30
0.0
 11
-24.57848106096406
 21
199.676345929468
 31
0.0
  0
LINE
  5
DA
330
1F
100
AcDbEntity
  8
0
  6
CONTINUOUS
 62
     7
100
AcDbLine
 10
-24.42440668110935
 20
199.2343099083693
 30
0.0
 11
-24.4346918600796
 21
199.2821977340283
 31
0.0
  0
LINE
  5
DB
330
1F
100
AcDbEntity
  8
0
  6
CONTINUOUS
 62
     7
100
AcDbLine
 10
-20.79592610968373
 20
189.3657557441293
 30
0.0
 11
-20.82379220150223
 21
189.4061250849952
 31
0.0
  0
LINE
  5
DC
330
1F
100
AcDbEntity
  8
0
  6
CONTINUOUS
 62
     7
100
AcDbLine
 10
-18.60748417764502
 20
186.2699647279822
 30
0.0
 11
-18.62397277620478
 21
186.3105065296332
 31
0.0
  0
LINE
  5
DD
330
1F
100
AcDbEntity
  8
0
  6
CONTINUOUS
 62
     7
100
AcDbLine
 10
-18.64197968526155
 20
186.3510592422707
 30
0.0
 11
-18.66170897078971
 21
186.392023955606
 31
0.0
  0
LINE
  5
DE
330
1F
100
AcDbEntity
  8
0
  6
CONTINUOUS
 62
     7
100
AcDbLine
 10
-18.59256465870462
 20
186.2295674494945
 30
0.0
 11
-18.60748417764509
 21
186.2699647279823
 31
0.0
  0
LINE
  5
DF
330
1F
100
AcDbEntity
  8
0
  6
CONTINUOUS
 62
     7
100
AcDbLine
 10
-18.70574513550993
 20
186.4739908448423
 30
0.0
 11
-18.72988121010692
 21
186.5147220155756
 31
0.0
  0
LINE
  5
E0
330
1F
100
AcDbEntity
  8
0
  6
CONTINUOUS
 62
     7
100
AcDbLine
 10
-10.18498943467827
 20
225.7057538116258
 30
0.0
 11
-10.15735039349264
 21
225.7377562348908
 31
0.0
  0
LINE
  5
E1
330
1F
100
AcDbEntity
  8
0
  6
CONTINUOUS
 62
     7
100
AcDbLine
 10
-10.10794000456017
 20
225.8021448942383
 30
0.0
 11
-10.08600069780573
 21
225.8346846688902
 31
0.0
  0
LINE
  5
E2
330
1F
100
AcDbEntity
  8
0
  6
CONTINUOUS
 62
     7
100
AcDbLine
 10
-13.59640978289162
 20
223.6540844777899
 30
0.0
 11
-13.55444364864537
 21
223.6776008906259
 31
0.0
  0
LINE
  5
E3
330
1F
100
AcDbEntity
  8
0
  6
CONTINUOUS
 62
     7
100
AcDbLine
 10
-14.21616145013277
 20
223.4746295595331
 30
0.0
 11
-14.17885703839589
 21
223.4752945109704
 31
0.0
  0
LINE
  5
E4
330
1F
100
AcDbEntity
  8
0
  6
CONTINUOUS
 62
     7
100
AcDbLine
 10
-20.9130369845244
 20
189.5218639769555
 30
0.0
 11
-20.94433473687509
 21
189.5582045939978
 31
0.0
  0
LINE
  5
E5
330
1F
100
AcDbEntity
  8
0
  6
CONTINUOUS
 62
     7
100
AcDbLine
 10
-21.04199194471135
 20
189.6592164061074
 30
0.0
 11
-21.07572717480449
 21
189.6901394611209
 31
0.0
  0
LINE
  5
E6
330
1F
100
AcDbEntity
  8
0
  6
CONTINUOUS
 62
     7
100
AcDbLine
 10
-21.10988123598284
 20
189.7195290510953
 30
0.0
 11
-21.14433839869791
 21
189.7472773881384
 31
0.0
  0
LINE
  5
E7
330
1F
100
AcDbEntity
  8
0
  6
CONTINUOUS
 62
     7
100
AcDbLine
 10
-10.46282379831115
 20
225.467544526434
 30
0.0
 11
-10.42341075301453
 21
225.494872197569
 31
0.0
  0
LINE
  5
E8
330
1F
100
AcDbEntity
  8
0
  6
CONTINUOUS
 62
     7
100
AcDbLine
 10
-21.07572717480449
 20
189.6901394611209
 30
0.0
 11
-21.10988123598284
 21
189.7195290510953
 31
0.0
  0
LINE
  5
E9
330
1F
100
AcDbEntity
  8
0
  6
CONTINUOUS
 62
     7
100
AcDbLine
 10
-13.48706282683704
 20
223.7184790642885
 30
0.0
 11
-13.45397011820716
 21
223.7400137832432
 31
0.0
  0
LINE
  5
EA
330
1F
100
AcDbEntity
  8
0
  6
CONTINUOUS
 62
     7
100
AcDbLine
 10
-10.34838627369661
 20
225.5517983900539
 30
0.0
 11
-10.31274433631848
 21
225.5814358195109
 31
0.0
  0
LINE
  5
EB
330
1F
100
AcDbEntity
  8
0
  6
CONTINUOUS
 62
     7
100
AcDbLine
 10
-18.80973657527474
 20
186.6342804012295
 30
0.0
 11
-18.83322470885672
 21
186.6658632035762
 31
0.0
  0
LINE
  5
EC
330
1F
100
AcDbEntity
  8
0
  6
CONTINUOUS
 62
     7
100
AcDbLine
 10
-24.87521283517946
 20
200.0082055435077
 30
0.0
 11
-24.90287804402868
 21
200.0224542104627
 31
0.0
  0
LINE
  5
ED
330
1F
100
AcDbEntity
  8
0
  6
CONTINUOUS
 62
     7
100
AcDbLine
 10
-14.5646364066791
 20
223.5960165403684
 30
0.0
 11
-15.17828249620757
 21
224.2096626298969
 31
0.0
  0
LINE
  5
EE
330
1F
100
AcDbEntity
  8
0
  6
CONTINUOUS
 62
     7
100
AcDbLine
 10
-23.70289398793168
 20
195.2635223633261
 30
0.0
 11
-23.69467367315158
 21
195.3019874014167
 31
0.0
  0
LINE
  5
EF
330
1F
100
AcDbEntity
  8
0
  6
CONTINUOUS
 62
     7
100
AcDbLine
 10
-10.15735039349264
 20
225.7377562348908
 30
0.0
 11
-10.13174822621222
 21
225.7697984653492
 31
0.0
  0
LINE
  5
F0
330
1F
100
AcDbEntity
  8
0
  6
CONTINUOUS
 62
     7
100
AcDbLine
 10
-10.31274433631846
 20
225.5814358195109
 30
0.0
 11
-10.27846438927631
 21
225.6117539050638
 31
0.0
  0
LINE
  5
F1
330
1F
100
AcDbEntity
  8
0
  6
CONTINUOUS
 62
     7
100
AcDbLine
 10
-24.40761645628497
 20
199.1377212995791
 30
0.0
 11
-24.41536942969335
 21
199.1860965197513
 31
0.0
  0
LINE
  5
F2
330
1F
100
AcDbEntity
  8
0
  6
CONTINUOUS
 62
     7
100
AcDbLine
 10
-13.72472518746304
 20
223.5909339478559
 30
0.0
 11
-13.68169423955785
 21
223.6106802358269
 31
0.0
  0
LINE
  5
F3
330
1F
100
AcDbEntity
  8
0
  6
CONTINUOUS
 62
     7
100
AcDbLine
 10
-10.54489154698302
 20
225.4154665826213
 30
0.0
 11
-10.50336555793779
 21
225.4410475990774
 31
0.0
  0
LINE
  5
F4
330
1F
100
AcDbEntity
  8
0
  6
CONTINUOUS
 62
     7
100
AcDbLine
 10
-13.6816942395579
 20
223.6106802358269
 30
0.0
 11
-13.63887454228161
 21
223.6317540026642
 31
0.0
  0
LINE
  5
F5
330
1F
100
AcDbEntity
  8
0
  6
CONTINUOUS
 62
     7
100
AcDbLine
 10
-9.98370004991933
 20
226.1780864124662
 30
0.0
 11
-9.98764612113084
 21
226.2069184019427
 31
0.0
  0
LINE
  5
F6
330
1F
100
AcDbEntity
  8
0
  6
CONTINUOUS
 62
     7
100
AcDbLine
 10
-13.76782369873975
 20
223.5725859093289
 30
0.0
 11
-13.72472518746314
 21
223.5909339478559
 31
0.0
  0
LINE
  5
F7
330
1F
100
AcDbEntity
  8
0
  6
CONTINUOUS
 62
     7
100
AcDbLine
 10
-24.79723754505969
 20
205.6250297876381
 30
0.0
 11
-24.7711371153008
 21
205.6474837440084
 31
0.0
  0
LINE
  5
F8
330
1F
100
AcDbEntity
  8
0
  6
CONTINUOUS
 62
     7
100
AcDbLine
 10
-10.0321459596176
 20
225.9323555407368
 30
0.0
 11
-10.01843200514328
 21
225.964560171755
 31
0.0
  0
LINE
  5
F9
330
1F
100
AcDbEntity
  8
0
  6
CONTINUOUS
 62
     7
100
AcDbLine
 10
-24.79422595080205
 20
199.9525697624055
 30
0.0
 11
-24.82079295258557
 21
199.9732115066776
 31
0.0
  0
LINE
  5
FA
330
1F
100
AcDbEntity
  8
0
  6
CONTINUOUS
 62
     7
100
AcDbLine
 10
-24.72040309176437
 20
205.6982777362958
 30
0.0
 11
-24.69593572333885
 21
205.7264452562039
 31
0.0
  0
LINE
  5
FB
330
1F
100
AcDbEntity
  8
0
  6
CONTINUOUS
 62
     7
100
AcDbLine
 10
-23.92225427458483
 20
194.910595029153
 30
0.0
 11
-23.89886376730686
 21
194.926417025323
 31
0.0
  0
LINE
  5
FC
330
1F
100
AcDbEntity
  8
0
  6
CONTINUOUS
 62
     7
100
AcDbLine
 10
-24.76783537160987
 20
199.9295752383563
 30
0.0
 11
-24.79422595080207
 21
199.9525697624055
 31
0.0
  0
LINE
  5
FD
330
1F
100
AcDbEntity
  8
0
  6
CONTINUOUS
 62
     7
100
AcDbLine
 10
-23.68779614079464
 20
195.3417935120027
 30
0.0
 11
-23.68226935592836
 21
195.3827979846243
 31
0.0
  0
LINE
  5
FE
330
1F
100
AcDbEntity
  8
0
  6
CONTINUOUS
 62
     7
100
AcDbLine
 10
-23.67382899271525
 20
195.5559452862725
 30
0.0
 11
-23.67519074190548
 21
195.6013930374298
 31
0.0
  0
LINE
  5
FF
330
1F
100
AcDbEntity
  8
0
  6
CONTINUOUS
 62
     7
100
AcDbLine
 10
-13.52057868168632
 20
223.6976590519592
 30
0.0
 11
-13.48706282683697
 21
223.7184790642885
 31
0.0
  0
LINE
  5
100
330
1F
100
AcDbEntity
  8
0
  6
CONTINUOUS
 62
     7
100
AcDbLine
 10
-13.63887454228163
 20
223.6317540026642
 30
0.0
 11
-13.59640978289163
 21
223.6540844777898
 31
0.0
  0
LINE
  5
101
330
1F
100
AcDbEntity
  8
0
  6
CONTINUOUS
 62
     7
100
AcDbLine
 10
-10.00701019478623
 20
225.9962055416933
 30
0.0
 11
-9.99770795193551
 21
226.0276457951381
 31
0.0
  0
LINE
  5
102
330
1F
100
AcDbEntity
  8
0
  6
CONTINUOUS
 62
     7
100
AcDbLine
 10
-24.4153694296933
 20
199.1860965197514
 30
0.0
 11
-24.42440668110936
 21
199.2343099083693
 31
0.0
  0
LINE
  5
103
330
1F
100
AcDbEntity
  8
0
  6
CONTINUOUS
 62
     7
100
AcDbLine
 10
-24.82371610324441
 20
205.6046528684562
 30
0.0
 11
-24.79723754505966
 21
205.625029787638
 31
0.0
  0
LINE
  5
104
330
1F
100
AcDbEntity
  8
0
  6
CONTINUOUS
 62
     7
100
AcDbLine
 10
-23.67519074190549
 20
195.6013930374299
 30
0.0
 11
-23.6779489936008
 21
195.6475256628705
 31
0.0
  0
LINE
  5
105
330
1F
100
AcDbEntity
  8
0
  6
CONTINUOUS
 62
     7
100
AcDbLine
 10
-24.74187716013176
 20
199.9044407962609
 30
0.0
 11
-24.76783537160985
 21
199.9295752383563
 31
0.0
  0
LINE
  5
106
330
1F
100
AcDbEntity
  8
0
  6
CONTINUOUS
 62
     7
100
AcDbLine
 10
-25.01520896355297
 20
200.05674168986
 30
0.0
 11
-25.04378645742711
 21
200.0594601671282
 31
0.0
  0
LINE
  5
107
330
1F
100
AcDbEntity
  8
0
  6
CONTINUOUS
 62
     7
100
AcDbLine
 10
-24.82079295258555
 20
199.9732115066777
 30
0.0
 11
-24.84781985937151
 21
199.991774037979
 31
0.0
  0
LINE
  5
108
330
1F
100
AcDbEntity
  8
0
  6
CONTINUOUS
 62
     7
100
AcDbLine
 10
-23.81490902628736
 20
195.0101057814129
 30
0.0
 11
-23.79668214968801
 21
195.0357804188526
 31
0.0
  0
LINE
  5
109
330
1F
100
AcDbEntity
  8
0
  6
CONTINUOUS
 62
     7
100
AcDbLine
 10
-10.13174822621221
 20
225.7697984653493
 30
0.0
 11
-10.10794000456021
 21
225.8021448942384
 31
0.0
  0
LINE
  5
10A
330
1F
100
AcDbEntity
  8
0
  6
CONTINUOUS
 62
     7
100
AcDbLine
 10
-9.987646121130844
 20
226.2069184019427
 30
0.0
 11
-9.993891626874346
 21
226.2349372693859
 31
0.0
  0
LINE
  5
10B
330
1F
100
AcDbEntity
  8
0
  6
CONTINUOUS
 62
     7
100
AcDbLine
 10
-10.0184320051433
 20
225.964560171755
 30
0.0
 11
-10.00701019478624
 21
225.9962055416934
 31
0.0
  0
LINE
  5
10C
330
1F
100
AcDbEntity
  8
0
  6
CONTINUOUS
 62
     7
100
AcDbLine
 10
-13.93790469483225
 20
223.5145378102612
 30
0.0
 11
-13.89586145754372
 21
223.5266983103281
 31
0.0
  0
LINE
  5
10D
330
1F
100
AcDbEntity
  8
0
  6
CONTINUOUS
 62
     7
100
AcDbLine
 10
-10.3852709069594
 20
225.5229454453598
 30
0.0
 11
-10.34838627369657
 21
225.5517983900539
 31
0.0
  0
LINE
  5
10E
330
1F
100
AcDbEntity
  8
0
  6
CONTINUOUS
 62
     7
100
AcDbLine
 10
-10.21891233988748
 20
227.0747260031061
 30
0.0
 11
-9.993891626874362
 21
226.2349372693859
 31
0.0
  0
LINE
  5
10F
330
1F
100
AcDbEntity
  8
0
  6
CONTINUOUS
 62
     7
100
AcDbLine
 10
-25.91200822935047
 20
200.1049617421198
 30
0.0
 11
-25.04378645742709
 21
200.0594601671281
 31
0.0
  0
LINE
  5
110
330
1F
100
AcDbEntity
  8
0
  6
CONTINUOUS
 62
     7
100
AcDbLine
 10
-10.04802870606547
 20
225.8999008448075
 30
0.0
 11
-10.03214595961762
 21
225.9323555407367
 31
0.0
  0
LINE
  5
111
330
1F
100
AcDbEntity
  8
0
  6
CONTINUOUS
 62
     7
100
AcDbLine
 10
-14.17885703839594
 20
223.4752945109705
 30
0.0
 11
-14.14074096622304
 21
223.477646463281
 31
0.0
  0
LINE
  5
112
330
1F
100
AcDbEntity
  8
0
  6
CONTINUOUS
 62
     7
100
AcDbLine
 10
-24.77113711530077
 20
205.6474837440084
 30
0.0
 11
-24.74549792664366
 21
205.6719284795624
 31
0.0
  0
LINE
  5
113
330
1F
100
AcDbEntity
  8
0
  6
CONTINUOUS
 62
     7
100
AcDbLine
 10
-10.06600527521784
 20
225.867306936636
 30
0.0
 11
-10.04802870606544
 21
225.8999008448076
 31
0.0
  0
LINE
  5
114
330
1F
100
AcDbEntity
  8
0
  6
CONTINUOUS
 62
     7
100
AcDbLine
 10
-13.55444364864533
 20
223.6776008906257
 30
0.0
 11
-13.52057868168635
 21
223.6976590519592
 31
0.0
  0
LINE
  5
115
330
1F
100
AcDbEntity
  8
0
  6
CONTINUOUS
 62
     7
100
AcDbLine
 10
-24.74549792664365
 20
205.6719284795623
 30
0.0
 11
-24.72040309176433
 21
205.6982777362957
 31
0.0
  0
LINE
  5
116
330
1F
100
AcDbEntity
  8
0
  6
CONTINUOUS
 62
     7
100
AcDbLine
 10
-24.69593572333883
 20
205.7264452562039
 30
0.0
 11
-24.67217893404305
 21
205.7563447812824
 31
0.0
  0
LINE
  5
117
330
1F
100
AcDbEntity
  8
0
  6
CONTINUOUS
 62
     7
100
AcDbLine
 10
-24.45886059886837
 20
199.3763417708506
 30
0.0
 11
-24.47267145777968
 21
199.4222705192045
 31
0.0
  0
LINE
  5
118
330
1F
100
AcDbEntity
  8
0
  6
CONTINUOUS
 62
     7
100
AcDbLine
 10
-13.97964018718911
 20
223.5039226874471
 30
0.0
 11
-13.93790469483224
 21
223.5145378102613
 31
0.0
  0
LINE
  5
119
330
1F
100
AcDbEntity
  8
0
  6
CONTINUOUS
 62
     7
100
AcDbLine
 10
-14.06163518889247
 20
223.4874746724895
 30
0.0
 11
-14.02092974756046
 21
223.4948894666138
 31
0.0
  0
LINE
  5
11A
330
1F
100
AcDbEntity
  8
0
  6
CONTINUOUS
 62
     7
100
AcDbLine
 10
-24.8504896771789
 20
205.5864392444671
 30
0.0
 11
-24.8237161032444
 21
205.6046528684562
 31
0.0
  0
LINE
  5
11B
330
1F
100
AcDbEntity
  8
0
  6
CONTINUOUS
 62
     7
100
AcDbLine
 10
-23.89886376730688
 20
194.9264170253231
 30
0.0
 11
-23.87636199151164
 21
194.9443486475211
 31
0.0
  0
LINE
  5
11C
330
1F
100
AcDbEntity
  8
0
  6
CONTINUOUS
 62
     7
100
AcDbLine
 10
-24.98656870901817
 20
200.0515850518696
 30
0.0
 11
-25.01520896355304
 21
200.0567416898601
 31
0.0
  0
LINE
  5
11D
330
1F
100
AcDbEntity
  8
0
  6
CONTINUOUS
 62
     7
100
AcDbLine
 10
-24.71643357674225
 20
199.8772719914899
 30
0.0
 11
-24.74187716013176
 21
199.904440796261
 31
0.0
  0
LINE
  5
11E
330
1F
100
AcDbEntity
  8
0
  6
CONTINUOUS
 62
     7
100
AcDbLine
 10
-23.68226935592838
 20
195.3827979846243
 30
0.0
 11
-23.67810128361998
 21
195.4248581088219
 31
0.0
  0
LINE
  5
11F
330
1F
100
AcDbEntity
  8
0
  6
CONTINUOUS
 62
     7
100
AcDbLine
 10
-9.997707951935553
 20
226.0276457951382
 30
0.0
 11
-9.990545556581003
 21
226.0587756777327
 31
0.0
  0
LINE
  5
120
330
1F
100
AcDbEntity
  8
0
  6
CONTINUOUS
 62
     7
100
AcDbLine
 10
-23.67387313694608
 20
195.5115744701058
 30
0.0
 11
-23.67382899271525
 21
195.5559452862726
 31
0.0
  0
LINE
  5
121
330
1F
100
AcDbEntity
  8
0
  6
CONTINUOUS
 62
     7
100
AcDbLine
 10
-13.85364866237737
 20
223.5403676629195
 30
0.0
 11
-13.81084608613026
 21
223.5557068908241
 31
0.0
  0
LINE
  5
122
330
1F
100
AcDbEntity
  8
0
  6
CONTINUOUS
 62
     7
100
AcDbLine
 10
-24.43469186007963
 20
199.2821977340283
 30
0.0
 11
-24.44618861615049
 21
199.3295962653237
 31
0.0
  0
LINE
  5
123
330
1F
100
AcDbEntity
  8
0
  6
CONTINUOUS
 62
     7
100
AcDbLine
 10
-24.62145073155697
 20
199.7503642530504
 30
0.0
 11
-24.6440131988486
 21
199.7846149548231
 31
0.0
  0
LINE
  5
124
330
1F
100
AcDbEntity
  8
0
  6
CONTINUOUS
 62
     7
100
AcDbLine
 10
-9.990545556580965
 20
226.0587756777328
 30
0.0
 11
-9.985543288712279
 21
226.0894899351197
 31
0.0
  0
LINE
  5
125
330
1F
100
AcDbEntity
  8
0
  6
CONTINUOUS
 62
     7
100
AcDbLine
 10
-23.83431262367541
 20
194.986262574453
 30
0.0
 11
-23.81490902628739
 21
195.0101057814129
 31
0.0
  0
LINE
  5
126
330
1F
100
AcDbEntity
  8
0
  6
CONTINUOUS
 62
     7
100
AcDbLine
 10
-10.0860006978058
 20
225.8346846688902
 30
0.0
 11
-10.06600527521789
 21
225.867306936636
 31
0.0
  0
LINE
  5
127
330
1F
100
AcDbEntity
  8
0
  6
CONTINUOUS
 62
     7
100
AcDbLine
 10
-10.67393004151485
 20
225.3450706698795
 30
0.0
 11
-10.63031827368304
 21
225.3673929509
 31
0.0
  0
LINE
  5
128
330
1F
100
AcDbEntity
  8
0
  6
CONTINUOUS
 62
     7
100
AcDbLine
 10
-24.4461886161505
 20
199.3295962653237
 30
0.0
 11
-24.45886059886838
 21
199.3763417708506
 31
0.0
  0
LINE
  5
129
330
1F
100
AcDbEntity
  8
0
  6
CONTINUOUS
 62
     7
100
AcDbLine
 10
-24.69158688181561
 20
199.8481743794129
 30
0.0
 11
-24.71643357674224
 21
199.8772719914898
 31
0.0
  0
LINE
  5
12A
330
1F
100
AcDbEntity
  8
0
  6
CONTINUOUS
 62
     7
100
AcDbLine
 10
-24.64401319884857
 20
199.7846149548231
 30
0.0
 11
-24.66741933572623
 21
199.8172535154006
 31
0.0
  0
LINE
  5
12B
330
1F
100
AcDbEntity
  8
0
  6
CONTINUOUS
 62
     7
100
AcDbLine
 10
-24.47267145777965
 20
199.4222705192045
 30
0.0
 11
-24.48758484243086
 21
199.4672187789802
 31
0.0
  0
LINE
  5
12C
330
1F
100
AcDbEntity
  8
0
  6
CONTINUOUS
 62
     7
100
AcDbLine
 10
-24.98831932936885
 20
205.5280918212101
 30
0.0
 11
-24.9604694864845
 21
205.5353208764671
 31
0.0
  0
ARC
  5
12D
330
1F
100
AcDbEntity
  8
0
  6
CONTINUOUS
 62
     7
100
AcDbCircle
 10
0.4948876794765855
 20
202.7899971433743
 30
0.0
 40
26.25000000001315
100
AcDbArc
 50
6.094718262107253
 51
17.90528173789193
  0
ARC
  5
12E
330
1F
100
AcDbEntity
  8
0
  6
CONTINUOUS
 62
     7
100
AcDbCircle
 10
99.88012707971416
 20
170.7899971433582
 30
0.0
 40
2.000000000001001
100
AcDbArc
 50
90.0
 51
180.0
  0
ARC
  5
12F
330
1F
100
AcDbEntity
  8
0
  6
CONTINUOUS
 62
     7
100
AcDbCircle
 10
77.38012707970304
 20
234.0399971433899
 30
0.0
 40
2.000000000000945
100
AcDbArc
 50
270.0
 51
0.0
  0
LINE
  5
130
330
1F
100
AcDbEntity
  8
0
  6
CONTINUOUS
 62
     7
100
AcDbLine
 10
-24.49320233479452
 20
206.0970032080451
 30
0.0
 11
-24.47799905169975
 21
206.1413088778312
 31
0.0
  0
LINE
  5
131
330
1F
100
AcDbEntity
  8
0
  6
CONTINUOUS
 62
     7
100
AcDbLine
 10
-23.68208084278633
 20
195.694184638581
 30
0.0
 11
-23.68756338444714
 21
195.7412114405474
 31
0.0
  0
LINE
  5
132
330
1F
100
AcDbEntity
  8
0
  6
CONTINUOUS
 62
     7
100
AcDbLine
 10
-23.68756338444711
 20
195.7412114405475
 30
0.0
 11
-23.69437371356825
 21
195.7884475447561
 31
0.0
  0
LINE
  5
133
330
1F
100
AcDbEntity
  8
0
  6
CONTINUOUS
 62
     7
100
AcDbLine
 10
-24.57848106096405
 20
199.676345929468
 30
0.0
 11
-24.59955555180817
 21
199.7141886701766
 31
0.0
  0
LINE
  5
134
330
1F
100
AcDbEntity
  8
0
  6
CONTINUOUS
 62
     7
100
AcDbLine
 10
-24.96046948648445
 20
205.535320876467
 30
0.0
 11
-24.93266753891186
 21
205.5448043985402
 31
0.0
  0
LINE
  5
135
330
1F
100
AcDbEntity
  8
0
  6
CONTINUOUS
 62
     7
100
AcDbLine
 10
-23.71243566242093
 20
195.2265450312767
 30
0.0
 11
-23.70289398793161
 21
195.2635223633261
 31
0.0
  0
LINE
  5
136
330
1F
100
AcDbEntity
  8
0
  6
CONTINUOUS
 62
     7
100
AcDbLine
 10
-23.67529988893674
 20
195.4678311741356
 30
0.0
 11
-23.67387313694609
 21
195.5115744701058
 31
0.0
  0
LINE
  5
137
330
1F
100
AcDbEntity
  8
0
  6
CONTINUOUS
 62
     7
100
AcDbLine
 10
-23.72049770886903
 20
195.9213193740732
 30
0.0
 11
-23.72994174853453
 21
195.9596285838597
 31
0.0
  0
LINE
  5
138
330
1F
100
AcDbEntity
  8
0
  6
CONTINUOUS
 62
     7
100
AcDbLine
 10
-24.62655062010849
 20
205.8217081859581
 30
0.0
 11
-24.60482362935331
 21
205.8569196897413
 31
0.0
  0
LINE
  5
139
330
1F
100
AcDbEntity
  8
0
  6
CONTINUOUS
 62
     7
100
AcDbLine
 10
-24.47799905169973
 20
206.1413088778312
 30
0.0
 11
-24.46388007916384
 21
206.1864999497458
 31
0.0
  0
LINE
  5
13A
330
1F
100
AcDbEntity
  8
0
  6
CONTINUOUS
 62
     7
100
AcDbLine
 10
-24.45088896993974
 20
206.2324222885874
 30
0.0
 11
-24.43906927678027
 21
206.2789217591543
 31
0.0
  0
ARC
  5
13B
330
1F
100
AcDbEntity
  8
0
  6
CONTINUOUS
 62
     7
100
AcDbCircle
 10
0.4948876794765855
 20
202.7899971433743
 30
0.0
 40
26.25000000001315
100
AcDbArc
 50
102.0947182621078
 51
113.9052817378926
  0
ARC
  5
13C
330
1F
100
AcDbEntity
  8
0
  6
CONTINUOUS
 62
     7
100
AcDbCircle
 10
0.4948876794765855
 20
202.7899971433743
 30
0.0
 40
26.25000000001315
100
AcDbArc
 50
78.09471826210756
 51
89.90528173789242
  0
LINE
  5
13D
330
1F
100
AcDbEntity
  8
0
  6
CONTINUOUS
 62
     7
100
AcDbLine
 10
-25.04378645742711
 20
205.5205341196204
 30
0.0
 11
-25.01612300665348
 21
205.5231514848883
 31
0.0
  0
ARC
  5
13E
330
1F
100
AcDbEntity
  8
0
  6
CONTINUOUS
 62
     7
100
AcDbCircle
 10
0.4948876794765855
 20
202.7899971433743
 30
0.0
 40
25.25000000001259
100
AcDbArc
 50
268.764251064422
 51
283.2370764796386
  0
LINE
  5
13F
330
1F
100
AcDbEntity
  8
0
  6
CONTINUOUS
 62
     7
100
AcDbLine
 10
-23.70248892513482
 20
195.835734427193
 30
0.0
 11
-23.71188611413202
 21
195.8829135638446
 31
0.0
  0
ARC
  5
140
330
1F
100
AcDbEntity
  8
0
  6
CONTINUOUS
 62
     7
100
AcDbCircle
 10
95.88012707971232
 20
235.2899971433904
 30
0.0
 40
2.000000000000945
100
AcDbArc
 50
0.0
 51
90.0
  0
ARC
  5
141
330
1F
100
AcDbEntity
  8
0
  6
CONTINUOUS
 62
     7
100
AcDbCircle
 10
77.38012707970304
 20
171.5399971433586
 30
0.0
 40
2.000000000000945
100
AcDbArc
 50
0.0
 51
90.0
  0
LINE
  5
142
330
1F
100
AcDbEntity
  8
0
  6
CONTINUOUS
 62
     7
100
AcDbLine
 10
-23.69437371356825
 20
195.788447544756
 30
0.0
 11
-23.70248892513488
 21
195.8357344271931
 31
0.0
  0
LINE
  5
143
330
1F
100
AcDbEntity
  8
0
  6
CONTINUOUS
 62
     7
100
AcDbLine
 10
-23.71188611413205
 20
195.8829135638447
 30
0.0
 11
-23.72049770886901
 21
195.9213193740732
 31
0.0
  0
ARC
  5
144
330
1F
100
AcDbEntity
  8
0
  6
CONTINUOUS
 62
     7
100
AcDbCircle
 10
0.4948876794765855
 20
202.7899971433743
 30
0.0
 40
25.25000000001259
100
AcDbArc
 50
244.7642510644219
 51
259.2370764796384
  0
LINE
  5
145
330
1F
100
AcDbEntity
  8
0
  6
CONTINUOUS
 62
     7
100
AcDbLine
 10
-24.50944637569524
 20
206.0537370755895
 30
0.0
 11
-24.49320233479451
 21
206.0970032080452
 31
0.0
  0
LINE
  5
146
330
1F
100
AcDbEntity
  8
0
  6
CONTINUOUS
 62
     7
100
AcDbLine
 10
-24.90500754756253
 20
205.5565081353106
 30
0.0
 11
-24.87758357334772
 21
205.5703978346591
 31
0.0
  0
LINE
  5
147
330
1F
100
AcDbEntity
  8
0
  6
CONTINUOUS
 62
     7
100
AcDbLine
 10
-24.60482362935329
 20
205.8569196897413
 30
0.0
 11
-24.58390851210536
 21
205.8936482174109
 31
0.0
  0
LINE
  5
148
330
1F
100
AcDbEntity
  8
0
  6
CONTINUOUS
 62
     7
100
AcDbLine
 10
-24.54477518622877
 20
205.9711478131806
 30
0.0
 11
-24.526687621649
 21
206.0116646156655
 31
0.0
  0
LINE
  5
149
330
1F
100
AcDbEntity
  8
0
  6
CONTINUOUS
 62
     7
100
AcDbLine
 10
-23.87636199151166
 20
194.9443486475211
 30
0.0
 11
-23.85482094452568
 21
194.9643203468601
 31
0.0
  0
ARC
  5
14A
330
1F
100
AcDbEntity
  8
0
  6
CONTINUOUS
 62
     7
100
AcDbCircle
 10
0.4948876794765855
 20
202.7899971433743
 30
0.0
 40
25.25000000001259
100
AcDbArc
 50
52.76425106442129
 51
67.23707647963901
  0
LINE
  5
14B
330
1F
100
AcDbEntity
  8
0
  6
CONTINUOUS
 62
     7
100
AcDbLine
 10
-23.69467367315153
 20
195.3019874014168
 30
0.0
 11
-23.68779614079464
 21
195.3417935120027
 31
0.0
  0
LINE
  5
14C
330
1F
100
AcDbEntity
  8
0
  6
CONTINUOUS
 62
     7
100
AcDbLine
 10
-23.73553901739839
 20
195.1565827134147
 30
0.0
 11
-23.72333095321535
 21
195.1908609461132
 31
0.0
  0
ARC
  5
14D
330
1F
100
AcDbEntity
  8
0
  6
CONTINUOUS
 62
     7
100
AcDbCircle
 10
142.6128000917566
 20
173.7899971433596
 30
0.0
 40
1.000000000000556
100
AcDbArc
 50
270.0
 51
344.999999999999
  0
LINE
  5
14E
330
1F
100
AcDbEntity
  8
0
  6
CONTINUOUS
 62
     7
100
AcDbLine
 10
-25.01612300665346
 20
205.5231514848882
 30
0.0
 11
-24.98831932936875
 21
205.52809182121
 31
0.0
  0
LINE
  5
14F
330
1F
100
AcDbEntity
  8
0
  6
CONTINUOUS
 62
     7
100
AcDbLine
 10
-23.67794899360081
 20
195.6475256628705
 30
0.0
 11
-23.6820808427863
 21
195.6941846385809
 31
0.0
  0
LINE
  5
150
330
1F
100
AcDbEntity
  8
0
  6
CONTINUOUS
 62
     7
100
AcDbLine
 10
-24.66741933572625
 20
199.8172535154006
 30
0.0
 11
-24.6915868818156
 21
199.8481743794129
 31
0.0
  0
LINE
  5
151
330
1F
100
AcDbEntity
  8
0
  6
CONTINUOUS
 62
     7
100
AcDbLine
 10
-23.72333095321538
 20
195.1908609461132
 30
0.0
 11
-23.71243566242096
 21
195.2265450312767
 31
0.0
  0
LINE
  5
152
330
1F
100
AcDbEntity
  8
0
  6
CONTINUOUS
 62
     7
100
AcDbLine
 10
-23.85482094452568
 20
194.9643203468601
 30
0.0
 11
-23.83431262367539
 21
194.986262574453
 31
0.0
  0
LINE
  5
153
330
1F
100
AcDbEntity
  8
0
  6
CONTINUOUS
 62
     7
100
AcDbLine
 10
-24.84781985937151
 20
199.9917740379788
 30
0.0
 11
-24.87521283517946
 21
200.0082055435076
 31
0.0
  0
LINE
  5
154
330
1F
100
AcDbEntity
  8
0
  6
CONTINUOUS
 62
     7
100
AcDbLine
 10
-24.56387059038906
 20
205.9317666361599
 30
0.0
 11
-24.54477518622881
 21
205.9711478131806
 31
0.0
  0
LINE
  5
155
330
1F
100
AcDbEntity
  8
0
  6
CONTINUOUS
 62
     7
100
AcDbLine
 10
-24.46388007916384
 20
206.1864999497458
 30
0.0
 11
-24.45088896993973
 21
206.2324222885873
 31
0.0
  0
LINE
  5
156
330
1F
100
AcDbEntity
  8
0
  6
CONTINUOUS
 62
     7
100
AcDbLine
 10
-23.77963142111489
 20
195.0633091859004
 30
0.0
 11
-23.76373009426459
 21
195.0926942277294
 31
0.0
  0
LINE
  5
157
330
1F
100
AcDbEntity
  8
0
  6
CONTINUOUS
 62
     7
100
AcDbLine
 10
-23.76373009426458
 20
195.0926942277293
 30
0.0
 11
-23.74901901205361
 21
195.1238229387604
 31
0.0
  0
LINE
  5
158
330
1F
100
AcDbEntity
  8
0
  6
CONTINUOUS
 62
     7
100
AcDbLine
 10
-23.67810128361997
 20
195.4248581088219
 30
0.0
 11
-23.67529988893674
 21
195.4678311741356
 31
0.0
  0
LINE
  5
159
330
1F
100
AcDbEntity
  8
0
  6
CONTINUOUS
 62
     7
100
AcDbLine
 10
-23.74901901205362
 20
195.1238229387604
 30
0.0
 11
-23.73553901739842
 21
195.1565827134147
 31
0.0
  0
LINE
  5
15A
330
1F
100
AcDbEntity
  8
0
  6
CONTINUOUS
 62
     7
100
AcDbLine
 10
-24.90287804402869
 20
200.0224542104626
 30
0.0
 11
-24.93072164993859
 21
200.0344682260422
 31
0.0
  0
LINE
  5
15B
330
1F
100
AcDbEntity
  8
0
  6
CONTINUOUS
 62
     7
100
AcDbLine
 10
-24.58390851210535
 20
205.893648217411
 30
0.0
 11
-24.56387059038906
 21
205.9317666361599
 31
0.0
  0
LINE
  5
15C
330
1F
100
AcDbEntity
  8
0
  6
CONTINUOUS
 62
     7
100
AcDbLine
 10
-24.6490241623466
 20
205.7881408388693
 30
0.0
 11
-24.62655062010852
 21
205.8217081859581
 31
0.0
  0
LINE
  5
15D
330
1F
100
AcDbEntity
  8
0
  6
CONTINUOUS
 62
     7
100
AcDbLine
 10
-23.94646151601909
 20
194.896952207898
 30
0.0
 11
-24.71970069836022
 21
194.502967165949
 31
0.0
  0
LINE
  5
15E
330
1F
100
AcDbEntity
  8
0
  6
CONTINUOUS
 62
     7
100
AcDbLine
 10
-23.796682149688
 20
195.0357804188526
 30
0.0
 11
-23.77963142111486
 21
195.0633091859004
 31
0.0
  0
LINE
  5
15F
330
1F
100
AcDbEntity
  8
0
  6
CONTINUOUS
 62
     7
100
AcDbLine
 10
-23.94646151601909
 20
194.896952207898
 30
0.0
 11
-23.92225427458487
 21
194.910595029153
 31
0.0
  0
LINE
  5
160
330
1F
100
AcDbEntity
  8
0
  6
CONTINUOUS
 62
     7
100
AcDbLine
 10
-24.87758357334768
 20
205.570397834659
 30
0.0
 11
-24.85048967717892
 21
205.586439244467
 31
0.0
  0
LINE
  5
161
330
1F
100
AcDbEntity
  8
0
  6
CONTINUOUS
 62
     7
100
AcDbLine
 10
-24.59955555180815
 20
199.7141886701765
 30
0.0
 11
-24.62145073155691
 21
199.7503642530503
 31
0.0
  0
LINE
  5
162
330
1F
100
AcDbEntity
  8
0
  6
CONTINUOUS
 62
     7
100
AcDbLine
 10
-24.95864981692863
 20
200.0441957774449
 30
0.0
 11
-24.98656870901817
 21
200.0515850518695
 31
0.0
  0
LINE
  5
163
330
1F
100
AcDbEntity
  8
0
  6
CONTINUOUS
 62
     7
100
AcDbLine
 10
-24.93266753891188
 20
205.5448043985402
 30
0.0
 11
-24.90500754756249
 21
205.5565081353105
 31
0.0
  0
LINE
  5
164
330
1F
100
AcDbEntity
  8
0
  6
CONTINUOUS
 62
     7
100
AcDbLine
 10
-24.67217893404305
 20
205.7563447812823
 30
0.0
 11
-24.64902416234656
 21
205.7881408388694
 31
0.0
  0
LINE
  5
165
330
1F
100
AcDbEntity
  8
0
  6
CONTINUOUS
 62
     7
100
AcDbLine
 10
-24.526687621649
 20
206.0116646156656
 30
0.0
 11
-24.50944637569518
 21
206.0537370755896
 31
0.0
  0
ARC
  5
166
330
1F
100
AcDbEntity
  8
0
  6
CONTINUOUS
 62
     7
100
AcDbCircle
 10
95.88012707971232
 20
170.289997143358
 30
0.0
 40
2.000000000000945
100
AcDbArc
 50
270.0
 51
0.0
  0
ARC
  5
167
330
1F
100
AcDbEntity
  8
0
  6
CONTINUOUS
 62
     7
100
AcDbCircle
 10
0.4948876794765855
 20
202.7899971433743
 30
0.0
 40
25.25000000001259
100
AcDbArc
 50
340.7642510644221
 51
355.2370764796383
  0
LINE
  5
168
330
1F
100
AcDbEntity
  8
0
  6
CONTINUOUS
 62
     7
100
AcDbLine
 10
-24.93072164993859
 20
200.0344682260422
 30
0.0
 11
-24.95864981692859
 21
200.044195777445
 31
0.0
  0
ARC
  5
169
330
1F
100
AcDbEntity
  8
0
  6
CONTINUOUS
 62
     7
100
AcDbCircle
 10
99.88012707971416
 20
234.7899971433902
 30
0.0
 40
2.000000000001001
100
AcDbArc
 50
180.0
 51
270.0
  0
LINE
  5
16A
330
1F
100
AcDbEntity
  8
0
  6
CONTINUOUS
 62
     7
100
AcDbLine
 10
-23.72994174853454
 20
195.9596285838597
 30
0.0
 11
-23.74019627396645
 21
195.9977562141701
 31
0.0
  0
LINE
  5
16B
330
1F
100
AcDbEntity
  8
0
  6
CONTINUOUS
 62
     7
100
AcDbLine
 10
10.57805433181214
 20
226.0800043901725
 30
0.0
 11
10.61430499862918
 21
226.0884547773655
 31
0.0
  0
LINE
  5
16C
330
1F
100
AcDbEntity
  8
0
  6
CONTINUOUS
 62
     7
100
AcDbLine
 10
6.616564730345941
 20
227.2072199820675
 30
0.0
 11
6.654130935025259
 21
227.1954749367626
 31
0.0
  0
ARC
  5
16D
330
1F
100
AcDbEntity
  8
0
  6
CONTINUOUS
 62
     7
100
AcDbCircle
 10
165.1474540677257
 20
234.2899971433901
 30
0.0
 40
1.000000000000556
100
AcDbArc
 50
90.0
 51
164.9999999999991
  0
LINE
  5
16E
330
1F
100
AcDbEntity
  8
0
  6
CONTINUOUS
 62
     7
100
AcDbLine
 10
5.958136700774663
 20
227.6472278539532
 30
0.0
 11
5.97773941420919
 21
227.6189233275258
 31
0.0
  0
LINE
  5
16F
330
1F
100
AcDbEntity
  8
0
  6
CONTINUOUS
 62
     7
100
AcDbLine
 10
10.33507099992992
 20
226.0609970380034
 30
0.0
 11
10.37838102015438
 21
226.0603267120921
 31
0.0
  0
LINE
  5
170
330
1F
100
AcDbEntity
  8
0
  6
CONTINUOUS
 62
     7
100
AcDbLine
 10
10.42065758379418
 20
226.061200702538
 30
0.0
 11
10.46160079527257
 21
226.0636150214982
 31
0.0
  0
ARC
  5
171
330
1F
100
AcDbEntity
  8
0
  6
CONTINUOUS
 62
     7
100
AcDbCircle
 10
0.4948876794765855
 20
202.7899971433743
 30
0.0
 40
26.25000000001315
100
AcDbArc
 50
150.0947182621079
 51
161.9052817378925
  0
LINE
  5
172
330
1F
100
AcDbEntity
  8
0
  6
CONTINUOUS
 62
     7
100
AcDbLine
 10
5.879984849889941
 20
227.903348917178
 30
0.0
 11
5.925403386021551
 21
228.7699862132615
 31
0.0
  0
ARC
  5
173
330
1F
100
AcDbEntity
  8
0
  6
CONTINUOUS
 62
     7
100
AcDbCircle
 10
162.1390795333952
 20
230.7899971433882
 30
0.0
 40
1.000000000000556
100
AcDbArc
 50
270.0
 51
345.0000000000014
  0
ARC
  5
174
330
1F
100
AcDbEntity
  8
0
  6
CONTINUOUS
 62
     7
100
AcDbCircle
 10
81.88012707970526
 20
170.7899971433582
 30
0.0
 40
2.500000000001334
100
AcDbArc
 50
180.0
 51
270.0
  0
LINE
  5
175
330
1F
100
AcDbEntity
  8
0
  6
CONTINUOUS
 62
     7
100
AcDbLine
 10
10.64905116973275
 20
226.0983680268947
 30
0.0
 11
10.68216030130339
 21
226.1097256768711
 31
0.0
  0
LINE
  5
176
330
1F
100
AcDbEntity
  8
0
  6
CONTINUOUS
 62
     7
100
AcDbLine
 10
10.71332007711323
 20
226.1224125031821
 30
0.0
 11
10.74290915417165
 21
226.1365372253937
 31
0.0
  0
LINE
  5
177
330
1F
100
AcDbEntity
  8
0
  6
CONTINUOUS
 62
     7
100
AcDbLine
 10
9.96863075962029
 20
226.1198032521383
 30
0.0
 11
10.01544954627832
 21
226.1074047583249
 31
0.0
  0
LINE
  5
178
330
1F
100
AcDbEntity
  8
0
  6
CONTINUOUS
 62
     7
100
AcDbLine
 10
6.354413116670621
 20
227.3162011207255
 30
0.0
 11
6.395744268093181
 21
227.2955235240433
 31
0.0
  0
LINE
  5
179
330
1F
100
AcDbEntity
  8
0
  6
CONTINUOUS
 62
     7
100
AcDbLine
 10
9.87521938634317
 20
226.1485827215265
 30
0.0
 11
9.92183404938101
 21
226.1335460349676
 31
0.0
  0
LINE
  5
17A
330
1F
100
AcDbEntity
  8
0
  6
CONTINUOUS
 62
     7
100
AcDbLine
 10
10.61430499862925
 20
226.0884547773655
 30
0.0
 11
10.64905116973275
 21
226.0983680268947
 31
0.0
  0
LINE
  5
17B
330
1F
100
AcDbEntity
  8
0
  6
CONTINUOUS
 62
     7
100
AcDbLine
 10
10.74290915417164
 20
226.1365372253937
 30
0.0
 11
10.77083574328598
 21
226.1520444855643
 31
0.0
  0
ARC
  5
17C
330
1F
100
AcDbEntity
  8
0
  6
CONTINUOUS
 62
     7
100
AcDbCircle
 10
162.1390795333952
 20
174.7899971433602
 30
0.0
 40
1.000000000000556
100
AcDbArc
 50
14.99999999999864
 51
90.00000000000001
  0
LINE
  5
17D
330
1F
100
AcDbEntity
  8
0
  6
CONTINUOUS
 62
     7
100
AcDbLine
 10
10.0621304385724
 20
226.0964009388133
 30
0.0
 11
10.10851346571984
 21
226.0868421788898
 31
0.0
  0
ARC
  5
17E
330
1F
100
AcDbEntity
  8
0
  6
CONTINUOUS
 62
     7
100
AcDbCircle
 10
81.88012707970526
 20
234.7899971433902
 30
0.0
 40
2.500000000001334
100
AcDbArc
 50
90.0
 51
180.0
  0
ARC
  5
17F
330
1F
100
AcDbEntity
  8
0
  6
CONTINUOUS
 62
     7
100
AcDbCircle
 10
0.4948876794765855
 20
202.7899971433743
 30
0.0
 40
26.25000000001315
100
AcDbArc
 50
54.09471826210734
 51
65.9052817378923
  0
ARC
  5
180
330
1F
100
AcDbEntity
  8
0
  6
CONTINUOUS
 62
     7
100
AcDbCircle
 10
0.4948876794765855
 20
202.7899971433743
 30
0.0
 40
25.25000000001259
100
AcDbArc
 50
220.7642510644218
 51
235.2370764796388
  0
ARC
  5
181
330
1F
100
AcDbEntity
  8
0
  6
CONTINUOUS
 62
     7
100
AcDbCircle
 10
144.9513016450091
 20
174.7899971433602
 30
0.0
 40
1.0000000000005
100
AcDbArc
 50
90.0
 51
164.9999999999991
  0
LINE
  5
182
330
1F
100
AcDbEntity
  8
0
  6
CONTINUOUS
 62
     7
100
AcDbLine
 10
10.50156968631455
 20
226.0675660503501
 30
0.0
 11
10.54043171310084
 21
226.0730353272043
 31
0.0
  0
LINE
  5
183
330
1F
100
AcDbEntity
  8
0
  6
CONTINUOUS
 62
     7
100
AcDbLine
 10
5.925323924172998
 20
227.7042220754952
 30
0.0
 11
5.940639171484664
 21
227.6756913278739
 31
0.0
  0
LINE
  5
184
330
1F
100
AcDbEntity
  8
0
  6
CONTINUOUS
 62
     7
100
AcDbLine
 10
9.921834049381017
 20
226.1335460349677
 30
0.0
 11
9.968630759620297
 21
226.1198032521384
 31
0.0
  0
LINE
  5
185
330
1F
100
AcDbEntity
  8
0
  6
CONTINUOUS
 62
     7
100
AcDbLine
 10
6.275969153156757
 20
227.3599693250203
 30
0.0
 11
6.314373335028524
 21
227.3377456869116
 31
0.0
  0
LINE
  5
186
330
1F
100
AcDbEntity
  8
0
  6
CONTINUOUS
 62
     7
100
AcDbLine
 10
5.881703255941728
 20
227.8473956489175
 30
0.0
 11
5.885981608398663
 21
227.8189427283497
 31
0.0
  0
LINE
  5
187
330
1F
100
AcDbEntity
  8
0
  6
CONTINUOUS
 62
     7
100
AcDbLine
 10
5.912202474216866
 20
227.7328443323817
 30
0.0
 11
5.925323924172964
 21
227.7042220754952
 31
0.0
  0
LINE
  5
188
330
1F
100
AcDbEntity
  8
0
  6
CONTINUOUS
 62
     7
100
AcDbLine
 10
5.901255449975995
 20
227.7615699441245
 30
0.0
 11
5.9122024742169
 21
227.7328443323817
 31
0.0
  0
LINE
  5
189
330
1F
100
AcDbEntity
  8
0
  6
CONTINUOUS
 62
     7
100
AcDbLine
 10
9.82894674128948
 20
226.1648629265287
 30
0.0
 11
9.875219386343199
 21
226.1485827215265
 31
0.0
  0
ARC
  5
18A
330
1F
100
AcDbEntity
  8
0
  6
CONTINUOUS
 62
     7
100
AcDbCircle
 10
165.1474540677257
 20
171.2899971433584
 30
0.0
 40
1.000000000000556
100
AcDbArc
 50
195.0000000000009
 51
270.0
  0
ARC
  5
18B
330
1F
100
AcDbEntity
  8
0
  6
CONTINUOUS
 62
     7
100
AcDbCircle
 10
0.4948876794765855
 20
202.7899971433743
 30
0.0
 40
25.25000000001259
100
AcDbArc
 50
124.7642510644218
 51
139.2370764796393
  0
ARC
  5
18C
330
1F
100
AcDbEntity
  8
0
  6
CONTINUOUS
 62
     7
100
AcDbCircle
 10
0.4948876794765855
 20
202.7899971433743
 30
0.0
 40
25.25000000001259
100
AcDbArc
 50
196.7642510644219
 51
211.2370764796389
  0
ARC
  5
18D
330
1F
100
AcDbEntity
  8
0
  6
CONTINUOUS
 62
     7
100
AcDbCircle
 10
0.4948876794765855
 20
202.7899971433743
 30
0.0
 40
25.25000000001259
100
AcDbArc
 50
316.7642510644221
 51
331.2370764796384
  0
LINE
  5
18E
330
1F
100
AcDbEntity
  8
0
  6
CONTINUOUS
 62
     7
100
AcDbLine
 10
6.048407681041645
 20
227.5358801711305
 30
0.0
 11
6.07566015271601
 21
227.5091281726033
 31
0.0
  0
ARC
  5
18F
330
1F
100
AcDbEntity
  8
0
  6
CONTINUOUS
 62
     7
100
AcDbCircle
 10
0.4948876794765855
 20
202.7899971433743
 30
0.0
 40
25.25000000001259
100
AcDbArc
 50
292.764251064422
 51
307.2370764796385
  0
LINE
  5
190
330
1F
100
AcDbEntity
  8
0
  6
CONTINUOUS
 62
     7
100
AcDbLine
 10
6.075660152715989
 20
227.5091281726031
 30
0.0
 11
6.104861695469928
 21
227.4827766521312
 31
0.0
  0
LINE
  5
191
330
1F
100
AcDbEntity
  8
0
  6
CONTINUOUS
 62
     7
100
AcDbLine
 10
5.892507083889997
 20
227.7903017847663
 30
0.0
 11
5.901255449975988
 21
227.7615699441246
 31
0.0
  0
LINE
  5
192
330
1F
100
AcDbEntity
  8
0
  6
CONTINUOUS
 62
     7
100
AcDbLine
 10
6.481685726957786
 20
227.2570069419195
 30
0.0
 11
6.525998557738846
 21
227.2392868078423
 31
0.0
  0
LINE
  5
193
330
1F
100
AcDbEntity
  8
0
  6
CONTINUOUS
 62
     7
100
AcDbLine
 10
10.68216030130342
 20
226.1097256768711
 30
0.0
 11
10.7133200771133
 21
226.122412503182
 31
0.0
  0
ARC
  5
194
330
1F
100
AcDbEntity
  8
0
  6
CONTINUOUS
 62
     7
100
AcDbCircle
 10
0.4948876794765855
 20
202.7899971433743
 30
0.0
 40
26.25000000001315
100
AcDbArc
 50
30.09471826210744
 51
41.90528173789232
  0
ARC
  5
195
330
1F
100
AcDbEntity
  8
0
  6
CONTINUOUS
 62
     7
100
AcDbCircle
 10
0.4948876794765855
 20
202.7899971433743
 30
0.0
 40
25.25000000001259
100
AcDbArc
 50
148.7642510644219
 51
163.2370764796392
  0
ARC
  5
196
330
1F
100
AcDbEntity
  8
0
  6
CONTINUOUS
 62
     7
100
AcDbCircle
 10
0.4948876794765855
 20
202.7899971433743
 30
0.0
 40
25.25000000001259
100
AcDbArc
 50
100.7642510644218
 51
115.2370764796392
  0
LINE
  5
197
330
1F
100
AcDbEntity
  8
0
  6
CONTINUOUS
 62
     7
100
AcDbLine
 10
6.314373335028489
 20
227.3377456869117
 30
0.0
 11
6.354413116670565
 21
227.3162011207254
 31
0.0
  0
LINE
  5
198
330
1F
100
AcDbEntity
  8
0
  6
CONTINUOUS
 62
     7
100
AcDbLine
 10
11.37302676634333
 20
227.0015575361371
 30
0.0
 11
10.89951036052662
 21
226.2724062130286
 31
0.0
  0
LINE
  5
199
330
1F
100
AcDbEntity
  8
0
  6
CONTINUOUS
 62
     7
100
AcDbLine
 10
10.24597852294784
 20
226.0668939264378
 30
0.0
 11
10.29088450642601
 21
226.0631925021571
 31
0.0
  0
ARC
  5
19A
330
1F
100
AcDbEntity
  8
0
  6
CONTINUOUS
 62
     7
100
AcDbCircle
 10
144.9513016450091
 20
230.7899971433882
 30
0.0
 40
1.000000000000556
100
AcDbArc
 50
195.0000000000003
 51
270.0
  0
ARC
  5
19B
330
1F
100
AcDbEntity
  8
0
  6
CONTINUOUS
 62
     7
100
AcDbCircle
 10
0.4948876794765855
 20
202.7899971433743
 30
0.0
 40
25.25000000001259
100
AcDbArc
 50
76.76425106442152
 51
91.23707647963896
  0
ARC
  5
19C
330
1F
100
AcDbEntity
  8
0
  6
CONTINUOUS
 62
     7
100
AcDbCircle
 10
0.4948876794765855
 20
202.7899971433743
 30
0.0
 40
25.25000000001259
100
AcDbArc
 50
28.76425106442126
 51
43.23707647963899
  0
LINE
  5
19D
330
1F
100
AcDbEntity
  8
0
  6
CONTINUOUS
 62
     7
100
AcDbLine
 10
6.238799723596644
 20
227.3830765764742
 30
0.0
 11
6.275969153156743
 21
227.3599693250203
 31
0.0
  0
LINE
  5
19E
330
1F
100
AcDbEntity
  8
0
  6
CONTINUOUS
 62
     7
100
AcDbLine
 10
10.37838102015442
 20
226.0603267120922
 30
0.0
 11
10.42065758379421
 21
226.0612007025381
 31
0.0
  0
LINE
  5
19F
330
1F
100
AcDbEntity
  8
0
  6
CONTINUOUS
 62
     7
100
AcDbLine
 10
10.01544954627837
 20
226.1074047583249
 30
0.0
 11
10.06213043857243
 21
226.0964009388133
 31
0.0
  0
LINE
  5
1A0
330
1F
100
AcDbEntity
  8
0
  6
CONTINUOUS
 62
     7
100
AcDbLine
 10
10.10851346571984
 20
226.0868421788898
 30
0.0
 11
10.15463601928954
 21
226.0787379429192
 31
0.0
  0
LINE
  5
1A1
330
1F
100
AcDbEntity
  8
0
  6
CONTINUOUS
 62
     7
100
AcDbLine
 10
6.104861695469976
 20
227.4827766521312
 30
0.0
 11
6.135896032284871
 21
227.4569174791018
 31
0.0
  0
LINE
  5
1A2
330
1F
100
AcDbEntity
  8
0
  6
CONTINUOUS
 62
     7
100
AcDbLine
 10
6.022952002176507
 20
227.5631578123216
 30
0.0
 11
6.048407681041666
 21
227.5358801711304
 31
0.0
  0
ARC
  5
1A3
330
1F
100
AcDbEntity
  8
0
  6
CONTINUOUS
 62
     7
100
AcDbCircle
 10
0.4948876794765855
 20
202.7899971433743
 30
0.0
 40
26.25000000001315
100
AcDbArc
 50
126.0947182621078
 51
137.9052817378928
  0
ARC
  5
1A4
330
1F
100
AcDbEntity
  8
0
  6
CONTINUOUS
 62
     7
100
AcDbCircle
 10
0.4948876794765855
 20
202.7899971433743
 30
0.0
 40
25.25000000001259
100
AcDbArc
 50
4.764251064420942
 51
19.23707647963892
  0
LINE
  5
1A5
330
1F
100
AcDbEntity
  8
0
  6
CONTINUOUS
 62
     7
100
AcDbLine
 10
6.654130935025259
 20
227.1954749367625
 30
0.0
 11
6.692029703731936
 21
227.1844991101339
 31
0.0
  0
ARC
  5
1A6
330
1F
100
AcDbEntity
  8
0
  6
CONTINUOUS
 62
     7
100
AcDbCircle
 10
142.6128000917566
 20
231.7899971433888
 30
0.0
 40
1.000000000000556
100
AcDbArc
 50
15.00000000000093
 51
89.99999999999996
  0
LINE
  5
1A7
330
1F
100
AcDbEntity
  8
0
  6
CONTINUOUS
 62
     7
100
AcDbLine
 10
6.135896032284871
 20
227.4569174791018
 30
0.0
 11
6.168643554810851
 21
227.4316289066954
 31
0.0
  0
ARC
  5
1A8
330
1F
100
AcDbEntity
  8
0
  6
CONTINUOUS
 62
     7
100
AcDbCircle
 10
0.4948876794765855
 20
202.7899971433743
 30
0.0
 40
25.25000000001259
100
AcDbArc
 50
172.7642510644219
 51
187.2370764796388
  0
LINE
  5
1A9
330
1F
100
AcDbEntity
  8
0
  6
CONTINUOUS
 62
     7
100
AcDbLine
 10
5.977739414209204
 20
227.6189233275257
 30
0.0
 11
5.999370213954455
 21
227.5908694223844
 31
0.0
  0
LINE
  5
1AA
330
1F
100
AcDbEntity
  8
0
  6
CONTINUOUS
 62
     7
100
AcDbLine
 10
6.202984654698041
 20
227.4069891880929
 30
0.0
 11
6.238799723596623
 21
227.3830765764743
 31
0.0
  0
LINE
  5
1AB
330
1F
100
AcDbEntity
  8
0
  6
CONTINUOUS
 62
     7
100
AcDbLine
 10
18.72852583025025
 20
185.4000344689946
 30
0.0
 11
18.69054069591897
 21
185.3717730476557
 31
0.0
  0
LINE
  5
1AC
330
1F
100
AcDbEntity
  8
0
  6
CONTINUOUS
 62
     7
100
AcDbLine
 10
18.95977966735157
 20
185.538144133208
 30
0.0
 11
18.92116320376978
 21
185.5190836795128
 31
0.0
  0
LINE
  5
1AD
330
1F
100
AcDbEntity
  8
0
  6
CONTINUOUS
 62
     7
100
AcDbLine
 10
15.61700465876709
 20
182.0642331242717
 30
0.0
 11
15.6289391353303
 21
182.0381250499661
 31
0.0
  0
LINE
  5
1AE
330
1F
100
AcDbEntity
  8
0
  6
CONTINUOUS
 62
     7
100
AcDbLine
 10
15.83365466412723
 20
182.7800392871592
 30
0.0
 11
15.8049535566652
 21
182.7436391311796
 31
0.0
  0
LINE
  5
1AF
330
1F
100
AcDbEntity
  8
0
  6
CONTINUOUS
 62
     7
100
AcDbLine
 10
15.99752084912831
 20
182.9542476611268
 30
0.0
 11
15.96222089495989
 21
182.9205919126606
 31
0.0
  0
LINE
  5
1B0
330
1F
100
AcDbEntity
  8
0
  6
CONTINUOUS
 62
     7
100
AcDbLine
 10
15.92807409101976
 20
182.8862449009472
 30
0.0
 11
15.89520405763701
 21
182.8513199721049
 31
0.0
  0
LINE
  5
1B1
330
1F
100
AcDbEntity
  8
0
  6
CONTINUOUS
 62
     7
100
AcDbLine
 10
15.80495355666522
 20
182.7436391311795
 30
0.0
 11
15.77772619314229
 21
182.7068563667864
 31
0.0
  0
LINE
  5
1B2
330
1F
100
AcDbEntity
  8
0
  6
CONTINUOUS
 62
     7
100
AcDbLine
 10
19.55113970455885
 20
185.5696903050467
 30
0.0
 11
20.27896035076845
 21
185.0970380509123
 31
0.0
  0
LINE
  5
1B3
330
1F
100
AcDbEntity
  8
0
  6
CONTINUOUS
 62
     7
100
AcDbLine
 10
19.44697689906538
 20
185.6153692984964
 30
0.0
 11
19.41772021212914
 21
185.6221589115451
 31
0.0
  0
LINE
  5
1B4
330
1F
100
AcDbEntity
  8
0
  6
CONTINUOUS
 62
     7
100
AcDbLine
 10
6.395744268093084
 20
227.2955235240433
 30
0.0
 11
6.438218050965665
 21
227.2757723225473
 31
0.0
  0
LINE
  5
1B5
330
1F
100
AcDbEntity
  8
0
  6
CONTINUOUS
 62
     7
100
AcDbLine
 10
5.8796962589589
 20
227.8755634205127
 30
0.0
 11
5.881703255941735
 21
227.8473956489175
 31
0.0
  0
LINE
  5
1B6
330
1F
100
AcDbEntity
  8
0
  6
CONTINUOUS
 62
     7
100
AcDbLine
 10
6.438218050965727
 20
227.2757723225471
 30
0.0
 11
6.4816857269578
 21
227.2570069419195
 31
0.0
  0
LINE
  5
1B7
330
1F
100
AcDbEntity
  8
0
  6
CONTINUOUS
 62
     7
100
AcDbLine
 10
18.55102981227341
 20
185.2531971192869
 30
0.0
 11
18.52257508323222
 21
185.225863736129
 31
0.0
  0
LINE
  5
1B8
330
1F
100
AcDbEntity
  8
0
  6
CONTINUOUS
 62
     7
100
AcDbLine
 10
18.9211632037698
 20
185.5190836795128
 30
0.0
 11
18.88256702221902
 21
185.4984476349966
 31
0.0
  0
LINE
  5
1B9
330
1F
100
AcDbEntity
  8
0
  6
CONTINUOUS
 62
     7
100
AcDbLine
 10
19.3560212639447
 20
185.6299889357749
 30
0.0
 11
19.32365528805988
 21
185.6309909163483
 31
0.0
  0
LINE
  5
1BA
330
1F
100
AcDbEntity
  8
0
  6
CONTINUOUS
 62
     7
100
AcDbLine
 10
15.77772619314227
 20
182.7068563667865
 30
0.0
 11
15.75206767394598
 21
182.6698173564528
 31
0.0
  0
LINE
  5
1BB
330
1F
100
AcDbEntity
  8
0
  6
CONTINUOUS
 62
     7
100
AcDbLine
 10
15.62304228335976
 20
182.4127150484603
 30
0.0
 11
15.61223519993225
 21
182.377095856496
 31
0.0
  0
LINE
  5
1BC
330
1F
100
AcDbEntity
  8
0
  6
CONTINUOUS
 62
     7
100
AcDbLine
 10
15.72807309946389
 20
182.632648462651
 30
0.0
 11
15.70583757008356
 21
182.595476047854
 31
0.0
  0
LINE
  5
1BD
330
1F
100
AcDbEntity
  8
0
  6
CONTINUOUS
 62
     7
100
AcDbLine
 10
9.783176085002564
 20
226.1823362646883
 30
0.0
 11
9.828946741289458
 21
226.1648629265287
 31
0.0
  0
LINE
  5
1BE
330
1F
100
AcDbEntity
  8
0
  6
CONTINUOUS
 62
     7
100
AcDbLine
 10
6.168643554810838
 20
227.4316289066956
 30
0.0
 11
6.202984654698033
 21
227.4069891880929
 31
0.0
  0
LINE
  5
1BF
330
1F
100
AcDbEntity
  8
0
  6
CONTINUOUS
 62
     7
100
AcDbLine
 10
16.10910340971206
 20
183.0499338658552
 30
0.0
 11
16.07108572683352
 21
183.0190319838427
 31
0.0
  0
LINE
  5
1C0
330
1F
100
AcDbEntity
  8
0
  6
CONTINUOUS
 62
     7
100
AcDbLine
 10
19.50182354979479
 20
185.596178755882
 30
0.0
 11
19.47504342154264
 21
185.6067000542519
 31
0.0
  0
LINE
  5
1C1
330
1F
100
AcDbEntity
  8
0
  6
CONTINUOUS
 62
     7
100
AcDbLine
 10
15.895204057637
 20
182.8513199721049
 30
0.0
 11
15.86373441514077
 21
182.8159304722527
 31
0.0
  0
LINE
  5
1C2
330
1F
100
AcDbEntity
  8
0
  6
CONTINUOUS
 62
     7
100
AcDbLine
 10
16.03385033319593
 20
182.9870988002269
 30
0.0
 11
15.99752084912834
 21
182.9542476611268
 31
0.0
  0
LINE
  5
1C3
330
1F
100
AcDbEntity
  8
0
  6
CONTINUOUS
 62
     7
100
AcDbLine
 10
16.07108572683352
 20
183.0190319838427
 30
0.0
 11
16.03385033319589
 21
182.9870988002269
 31
0.0
  0
LINE
  5
1C4
330
1F
100
AcDbEntity
  8
0
  6
CONTINUOUS
 62
     7
100
AcDbLine
 10
10.20051003280059
 20
226.0720821327302
 30
0.0
 11
10.24597852294783
 21
226.0668939264377
 31
0.0
  0
LINE
  5
1C5
330
1F
100
AcDbEntity
  8
0
  6
CONTINUOUS
 62
     7
100
AcDbLine
 10
10.46160079527258
 20
226.0636150214983
 30
0.0
 11
10.50156968631458
 21
226.0675660503501
 31
0.0
  0
LINE
  5
1C6
330
1F
100
AcDbEntity
  8
0
  6
CONTINUOUS
 62
     7
100
AcDbLine
 10
18.80544066366463
 20
185.4523972719675
 30
0.0
 11
18.76686776393736
 21
185.4269422432089
 31
0.0
  0
LINE
  5
1C7
330
1F
100
AcDbEntity
  8
0
  6
CONTINUOUS
 62
     7
100
AcDbLine
 10
10.15463601928956
 20
226.0787379429192
 30
0.0
 11
10.20051003280061
 21
226.0720821327303
 31
0.0
  0
LINE
  5
1C8
330
1F
100
AcDbEntity
  8
0
  6
CONTINUOUS
 62
     7
100
AcDbLine
 10
19.3236552880599
 20
185.6309909163483
 30
0.0
 11
19.29025643191963
 21
185.63006934844
 31
0.0
  0
LINE
  5
1C9
330
1F
100
AcDbEntity
  8
0
  6
CONTINUOUS
 62
     7
100
AcDbLine
 10
19.47504342154266
 20
185.6067000542518
 30
0.0
 11
19.44697689906536
 21
185.6153692984964
 31
0.0
  0
LINE
  5
1CA
330
1F
100
AcDbEntity
  8
0
  6
CONTINUOUS
 62
     7
100
AcDbLine
 10
10.82133430091203
 20
226.1869851880124
 30
0.0
 11
10.84372269103846
 21
226.2063079144055
 31
0.0
  0
LINE
  5
1CB
330
1F
100
AcDbEntity
  8
0
  6
CONTINUOUS
 62
     7
100
AcDbLine
 10
5.940639171484629
 20
227.6756913278739
 30
0.0
 11
5.958136700774628
 21
227.6472278539532
 31
0.0
  0
LINE
  5
1CC
330
1F
100
AcDbEntity
  8
0
  6
CONTINUOUS
 62
     7
100
AcDbLine
 10
10.84372269103845
 20
226.2063079144054
 30
0.0
 11
10.86408143645037
 21
226.2267917469881
 31
0.0
  0
LINE
  5
1CD
330
1F
100
AcDbEntity
  8
0
  6
CONTINUOUS
 62
     7
100
AcDbLine
 10
10.86408143645034
 20
226.2267917469882
 30
0.0
 11
10.88286734321565
 21
226.2490166159912
 31
0.0
  0
LINE
  5
1CE
330
1F
100
AcDbEntity
  8
0
  6
CONTINUOUS
 62
     7
100
AcDbLine
 10
18.76686776393738
 20
185.4269422432089
 30
0.0
 11
18.72852583025028
 21
185.4000344689945
 31
0.0
  0
LINE
  5
1CF
330
1F
100
AcDbEntity
  8
0
  6
CONTINUOUS
 62
     7
100
AcDbLine
 10
19.18504198946858
 20
185.6159726716879
 30
0.0
 11
19.14869101980902
 21
185.6075662277157
 31
0.0
  0
LINE
  5
1D0
330
1F
100
AcDbEntity
  8
0
  6
CONTINUOUS
 62
     7
100
AcDbLine
 10
10.54043171310087
 20
226.0730353272043
 30
0.0
 11
10.5780543318122
 21
226.0800043901725
 31
0.0
  0
LINE
  5
1D1
330
1F
100
AcDbEntity
  8
0
  6
CONTINUOUS
 62
     7
100
AcDbLine
 10
10.77083574328602
 20
226.1520444855643
 30
0.0
 11
10.79700805526368
 21
226.1688789257513
 31
0.0
  0
LINE
  5
1D2
330
1F
100
AcDbEntity
  8
0
  6
CONTINUOUS
 62
     7
100
AcDbLine
 10
10.79700805526368
 20
226.1688789257512
 30
0.0
 11
10.82133430091203
 21
226.1869851880123
 31
0.0
  0
LINE
  5
1D3
330
1F
100
AcDbEntity
  8
0
  6
CONTINUOUS
 62
     7
100
AcDbLine
 10
5.879984849889941
 20
227.903348917178
 30
0.0
 11
5.879696258958955
 21
227.8755634205129
 31
0.0
  0
LINE
  5
1D4
330
1F
100
AcDbEntity
  8
0
  6
CONTINUOUS
 62
     7
100
AcDbLine
 10
6.571007804978435
 20
227.2226713459975
 30
0.0
 11
6.61656473034599
 21
227.2072199820675
 31
0.0
  0
LINE
  5
1D5
330
1F
100
AcDbEntity
  8
0
  6
CONTINUOUS
 62
     7
100
AcDbLine
 10
15.96222089495991
 20
182.9205919126606
 30
0.0
 11
15.92807409101975
 21
182.8862449009471
 31
0.0
  0
LINE
  5
1D6
330
1F
100
AcDbEntity
  8
0
  6
CONTINUOUS
 62
     7
100
AcDbLine
 10
19.22083184187368
 20
185.6225392943235
 30
0.0
 11
19.18504198946855
 21
185.6159726716879
 31
0.0
  0
LINE
  5
1D7
330
1F
100
AcDbEntity
  8
0
  6
CONTINUOUS
 62
     7
100
AcDbLine
 10
19.25594263627417
 20
185.6272451638363
 30
0.0
 11
19.22083184187372
 21
185.6225392943234
 31
0.0
  0
LINE
  5
1D8
330
1F
100
AcDbEntity
  8
0
  6
CONTINUOUS
 62
     7
100
AcDbLine
 10
19.29025643191962
 20
185.6300693484401
 30
0.0
 11
19.25594263627412
 21
185.6272451638364
 31
0.0
  0
LINE
  5
1D9
330
1F
100
AcDbEntity
  8
0
  6
CONTINUOUS
 62
     7
100
AcDbLine
 10
15.68545618619255
 20
182.5584264745341
 30
0.0
 11
15.66707544200577
 21
182.5217614538012
 31
0.0
  0
LINE
  5
1DA
330
1F
100
AcDbEntity
  8
0
  6
CONTINUOUS
 62
     7
100
AcDbLine
 10
5.999370213954413
 20
227.5908694223845
 30
0.0
 11
6.0229520021765
 21
227.5631578123217
 31
0.0
  0
LINE
  5
1DB
330
1F
100
AcDbEntity
  8
0
  6
CONTINUOUS
 62
     7
100
AcDbLine
 10
10.29088450642601
 20
226.0631925021571
 30
0.0
 11
10.33507099992993
 21
226.0609970380035
 31
0.0
  0
LINE
  5
1DC
330
1F
100
AcDbEntity
  8
0
  6
CONTINUOUS
 62
     7
100
AcDbLine
 10
15.86373441514077
 20
182.8159304722527
 30
0.0
 11
15.83365466412724
 21
182.7800392871592
 31
0.0
  0
LINE
  5
1DD
330
1F
100
AcDbEntity
  8
0
  6
CONTINUOUS
 62
     7
100
AcDbLine
 10
15.60715031099746
 20
182.0916146312649
 30
0.0
 11
15.61700465876709
 21
182.0642331242717
 31
0.0
  0
LINE
  5
1DE
330
1F
100
AcDbEntity
  8
0
  6
CONTINUOUS
 62
     7
100
AcDbLine
 10
18.84411869611646
 20
185.4763004569383
 30
0.0
 11
18.80544066366463
 21
185.4523972719675
 31
0.0
  0
LINE
  5
1DF
330
1F
100
AcDbEntity
  8
0
  6
CONTINUOUS
 62
     7
100
AcDbLine
 10
18.65303819425906
 20
185.3422570775244
 30
0.0
 11
18.61614415858614
 21
185.311585656932
 31
0.0
  0
LINE
  5
1E0
330
1F
100
AcDbEntity
  8
0
  6
CONTINUOUS
 62
     7
100
AcDbLine
 10
18.61614415858615
 20
185.311585656932
 30
0.0
 11
18.57998442221579
 21
185.2798578842104
 31
0.0
  0
LINE
  5
1E1
330
1F
100
AcDbEntity
  8
0
  6
CONTINUOUS
 62
     7
100
AcDbLine
 10
6.69202970373195
 20
227.1844991101339
 30
0.0
 11
6.73017646288291
 21
227.1743159745066
 31
0.0
  0
LINE
  5
1E2
330
1F
100
AcDbEntity
  8
0
  6
CONTINUOUS
 62
     7
100
AcDbLine
 10
18.69054069591897
 20
185.3717730476557
 30
0.0
 11
18.65303819425905
 21
185.3422570775244
 31
0.0
  0
LINE
  5
1E3
330
1F
100
AcDbEntity
  8
0
  6
CONTINUOUS
 62
     7
100
AcDbLine
 10
16.023644501437
 20
181.2634721518658
 30
0.0
 11
15.62893913533028
 21
182.0381250499661
 31
0.0
  0
LINE
  5
1E4
330
1F
100
AcDbEntity
  8
0
  6
CONTINUOUS
 62
     7
100
AcDbLine
 10
15.59959016431989
 20
182.1194877382721
 30
0.0
 11
15.60715031099747
 21
182.0916146312648
 31
0.0
  0
LINE
  5
1E5
330
1F
100
AcDbEntity
  8
0
  6
CONTINUOUS
 62
     7
100
AcDbLine
 10
5.885981608398705
 20
227.8189427283498
 30
0.0
 11
5.892507083890018
 21
227.7903017847663
 31
0.0
  0
LINE
  5
1E6
330
1F
100
AcDbEntity
  8
0
  6
CONTINUOUS
 62
     7
100
AcDbLine
 10
6.525998557738832
 20
227.2392868078423
 30
0.0
 11
6.571007804978393
 21
227.2226713459975
 31
0.0
  0
LINE
  5
1E7
330
1F
100
AcDbEntity
  8
0
  6
CONTINUOUS
 62
     7
100
AcDbLine
 10
25.80027477462382
 20
200.3354965026418
 30
0.0
 11
25.82130782596805
 21
200.3075175541715
 31
0.0
  0
LINE
  5
1E8
330
1F
100
AcDbEntity
  8
0
  6
CONTINUOUS
 62
     7
100
AcDbLine
 10
25.78010955670101
 20
200.3654787125122
 30
0.0
 11
25.80027477462382
 21
200.3354965026419
 31
0.0
  0
LINE
  5
1E9
330
1F
100
AcDbEntity
  8
0
  6
CONTINUOUS
 62
     7
100
AcDbLine
 10
25.61125968999933
 20
204.6093158488207
 30
0.0
 11
25.60936606904169
 21
204.5613750508605
 31
0.0
  0
LINE
  5
1EA
330
1F
100
AcDbEntity
  8
0
  6
CONTINUOUS
 62
     7
100
AcDbLine
 10
25.62882277158007
 20
200.7996472236764
 30
0.0
 11
25.63666856970365
 21
200.7539616857384
 31
0.0
  0
LINE
  5
1EB
330
1F
100
AcDbEntity
  8
0
  6
CONTINUOUS
 62
     7
100
AcDbLine
 10
25.96476911637291
 20
205.3971316693568
 30
0.0
 11
25.9395464431682
 21
205.3820750350666
 31
0.0
  0
LINE
  5
1EC
330
1F
100
AcDbEntity
  8
0
  6
CONTINUOUS
 62
     7
100
AcDbLine
 10
25.98886099718628
 20
200.1706756782691
 30
0.0
 11
26.01580326812047
 21
200.1596770814452
 31
0.0
  0
LINE
  5
1ED
330
1F
100
AcDbEntity
  8
0
  6
CONTINUOUS
 62
     7
100
AcDbLine
 10
19.55113970455885
 20
185.5696903050467
 30
0.0
 11
19.52722105405563
 21
185.5838329804567
 31
0.0
  0
LINE
  5
1EE
330
1F
100
AcDbEntity
  8
0
  6
CONTINUOUS
 62
     7
100
AcDbLine
 10
25.63950385826952
 20
204.8410088627713
 30
0.0
 11
25.63138673118581
 21
204.7962711304416
 31
0.0
  0
LINE
  5
1EF
330
1F
100
AcDbEntity
  8
0
  6
CONTINUOUS
 62
     7
100
AcDbLine
 10
19.38736959050019
 20
185.627041316328
 30
0.0
 11
19.35602126394474
 21
185.6299889357749
 31
0.0
  0
LINE
  5
1F0
330
1F
100
AcDbEntity
  8
0
  6
CONTINUOUS
 62
     7
100
AcDbLine
 10
15.59672868792839
 20
182.3076959908461
 30
0.0
 11
15.59213591390202
 21
182.274367420263
 31
0.0
  0
LINE
  5
1F1
330
1F
100
AcDbEntity
  8
0
  6
CONTINUOUS
 62
     7
100
AcDbLine
 10
25.61307554762548
 20
200.9408799589488
 30
0.0
 11
25.61703548240628
 21
200.8930834249141
 31
0.0
  0
LINE
  5
1F2
330
1F
100
AcDbEntity
  8
0
  6
CONTINUOUS
 62
     7
100
AcDbLine
 10
25.84541905434662
 20
205.3008821206041
 30
0.0
 11
25.82375571590813
 21
205.2754452841934
 31
0.0
  0
LINE
  5
1F3
330
1F
100
AcDbEntity
  8
0
  6
CONTINUOUS
 62
     7
100
AcDbLine
 10
25.7608706887919
 20
200.3973438321569
 30
0.0
 11
25.78010955670097
 21
200.3654787125121
 31
0.0
  0
LINE
  5
1F4
330
1F
100
AcDbEntity
  8
0
  6
CONTINUOUS
 62
     7
100
AcDbLine
 10
25.64578482846547
 20
200.7091153379831
 30
0.0
 11
25.65614127682769
 21
200.6652634067694
 31
0.0
  0
LINE
  5
1F5
330
1F
100
AcDbEntity
  8
0
  6
CONTINUOUS
 62
     7
100
AcDbLine
 10
15.70583757008354
 20
182.595476047854
 30
0.0
 11
15.6854561861925
 21
182.5584264745342
 31
0.0
  0
LINE
  5
1F6
330
1F
100
AcDbEntity
  8
0
  6
CONTINUOUS
 62
     7
100
AcDbLine
 10
25.69434904913986
 20
200.5412263759672
 30
0.0
 11
25.70929735107055
 21
200.503033133481
 31
0.0
  0
LINE
  5
1F7
330
1F
100
AcDbEntity
  8
0
  6
CONTINUOUS
 62
     7
100
AcDbLine
 10
25.64877224925521
 20
204.8844008920458
 30
0.0
 11
25.63950385826954
 21
204.8410088627712
 31
0.0
  0
LINE
  5
1F8
330
1F
100
AcDbEntity
  8
0
  6
CONTINUOUS
 62
     7
100
AcDbLine
 10
25.61256319815164
 20
201.1849402567381
 30
0.0
 11
25.61008897666992
 21
201.1360102173815
 31
0.0
  0
LINE
  5
1F9
330
1F
100
AcDbEntity
  8
0
  6
CONTINUOUS
 62
     7
100
AcDbLine
 10
25.63138673118581
 20
204.7962711304416
 30
0.0
 11
25.62449319630655
 21
204.7505731407776
 31
0.0
  0
LINE
  5
1FA
330
1F
100
AcDbEntity
  8
0
  6
CONTINUOUS
 62
     7
100
AcDbLine
 10
25.68045365820259
 20
200.5811636994026
 30
0.0
 11
25.69434904913987
 21
200.5412263759672
 31
0.0
  0
LINE
  5
1FB
330
1F
100
AcDbEntity
  8
0
  6
CONTINUOUS
 62
     7
100
AcDbLine
 10
25.60874881284036
 20
204.5132731060867
 30
0.0
 11
25.60918720662897
 21
204.473916103735
 31
0.0
  0
LINE
  5
1FC
330
1F
100
AcDbEntity
  8
0
  6
CONTINUOUS
 62
     7
100
AcDbLine
 10
25.65614127682769
 20
200.6652634067694
 30
0.0
 11
25.66770764375265
 21
200.6225611184562
 31
0.0
  0
LINE
  5
1FD
330
1F
100
AcDbEntity
  8
0
  6
CONTINUOUS
 62
     7
100
AcDbLine
 10
25.82375571590817
 20
205.2754452841934
 30
0.0
 11
25.80289408319586
 21
205.2480554161605
 31
0.0
  0
LINE
  5
1FE
330
1F
100
AcDbEntity
  8
0
  6
CONTINUOUS
 62
     7
100
AcDbLine
 10
25.80289408319586
 20
205.2480554161605
 30
0.0
 11
25.78289751862679
 21
205.218814169663
 31
0.0
  0
LINE
  5
1FF
330
1F
100
AcDbEntity
  8
0
  6
CONTINUOUS
 62
     7
100
AcDbLine
 10
19.11189687364529
 20
185.5973408941933
 30
0.0
 11
19.07447501611124
 21
185.5852273765747
 31
0.0
  0
LINE
  5
200
330
1F
100
AcDbEntity
  8
0
  6
CONTINUOUS
 62
     7
100
AcDbLine
 10
19.03656314693947
 20
185.5712804390183
 30
0.0
 11
18.99828883954718
 21
185.5555645388028
 31
0.0
  0
LINE
  5
201
330
1F
100
AcDbEntity
  8
0
  6
CONTINUOUS
 62
     7
100
AcDbLine
 10
10.8828673432157
 20
226.2490166159912
 30
0.0
 11
10.89951036052658
 21
226.2724062130286
 31
0.0
  0
LINE
  5
202
330
1F
100
AcDbEntity
  8
0
  6
CONTINUOUS
 62
     7
100
AcDbLine
 10
15.58904013032314
 20
182.2097414010507
 30
0.0
 11
15.5905330271947
 21
182.1786582939089
 31
0.0
  0
LINE
  5
203
330
1F
100
AcDbEntity
  8
0
  6
CONTINUOUS
 62
     7
100
AcDbLine
 10
19.52722105405563
 20
185.5838329804568
 30
0.0
 11
19.50182354979481
 21
185.596178755882
 31
0.0
  0
LINE
  5
204
330
1F
100
AcDbEntity
  8
0
  6
CONTINUOUS
 62
     7
100
AcDbLine
 10
18.88256702221902
 20
185.4984476349966
 30
0.0
 11
18.84411869611646
 21
185.4763004569382
 31
0.0
  0
LINE
  5
205
330
1F
100
AcDbEntity
  8
0
  6
CONTINUOUS
 62
     7
100
AcDbLine
 10
26.04319107198316
 20
205.4289178723916
 30
0.0
 11
26.01667631481924
 21
205.4206061480105
 31
0.0
  0
LINE
  5
206
330
1F
100
AcDbEntity
  8
0
  6
CONTINUOUS
 62
     7
100
AcDbLine
 10
19.14869101980898
 20
185.6075662277157
 30
0.0
 11
19.11189687364526
 21
185.5973408941934
 31
0.0
  0
LINE
  5
207
330
1F
100
AcDbEntity
  8
0
  6
CONTINUOUS
 62
     7
100
AcDbLine
 10
25.60918720662897
 20
204.473916103735
 30
0.0
 11
25.6104599387884
 21
204.4344805158413
 31
0.0
  0
LINE
  5
208
330
1F
100
AcDbEntity
  8
0
  6
CONTINUOUS
 62
     7
100
AcDbLine
 10
25.65926256591877
 20
204.9268916536285
 30
0.0
 11
25.64877224925516
 21
204.8844008920459
 31
0.0
  0
LINE
  5
209
330
1F
100
AcDbEntity
  8
0
  6
CONTINUOUS
 62
     7
100
AcDbLine
 10
18.57998442221576
 20
185.2798578842105
 30
0.0
 11
18.55102981227341
 21
185.2531971192869
 31
0.0
  0
LINE
  5
20A
330
1F
100
AcDbEntity
  8
0
  6
CONTINUOUS
 62
     7
100
AcDbLine
 10
15.75206767394599
 20
182.6698173564528
 30
0.0
 11
15.7280730994639
 21
182.632648462651
 31
0.0
  0
LINE
  5
20B
330
1F
100
AcDbEntity
  8
0
  6
CONTINUOUS
 62
     7
100
AcDbLine
 10
15.61223519993227
 20
182.3770958564961
 30
0.0
 11
15.60344724030683
 21
182.3420481648717
 31
0.0
  0
LINE
  5
20C
330
1F
100
AcDbEntity
  8
0
  6
CONTINUOUS
 62
     7
100
AcDbLine
 10
25.72873185794944
 20
205.120998690952
 30
0.0
 11
25.71269384566324
 21
205.0850833057765
 31
0.0
  0
LINE
  5
20D
330
1F
100
AcDbEntity
  8
0
  6
CONTINUOUS
 62
     7
100
AcDbLine
 10
15.59405038745632
 20
182.148538016068
 30
0.0
 11
15.59959016431989
 21
182.1194877382721
 31
0.0
  0
LINE
  5
20E
330
1F
100
AcDbEntity
  8
0
  6
CONTINUOUS
 62
     7
100
AcDbLine
 10
25.88895762329374
 20
200.2362594283065
 30
0.0
 11
25.9130558165149
 21
200.2165702085622
 31
0.0
  0
LINE
  5
20F
330
1F
100
AcDbEntity
  8
0
  6
CONTINUOUS
 62
     7
100
AcDbLine
 10
25.61441912120299
 20
204.6569356778629
 30
0.0
 11
25.61125968999938
 21
204.6093158488206
 31
0.0
  0
LINE
  5
210
330
1F
100
AcDbEntity
  8
0
  6
CONTINUOUS
 62
     7
100
AcDbLine
 10
25.76382938461791
 20
205.1878231978575
 30
0.0
 11
25.74575304358644
 21
205.1551841539015
 31
0.0
  0
LINE
  5
211
330
1F
100
AcDbEntity
  8
0
  6
CONTINUOUS
 62
     7
100
AcDbLine
 10
19.41772021212912
 20
185.6221589115451
 30
0.0
 11
19.38736959050017
 21
185.627041316328
 31
0.0
  0
LINE
  5
212
330
1F
100
AcDbEntity
  8
0
  6
CONTINUOUS
 62
     7
100
AcDbLine
 10
15.63581820714444
 20
182.4487817235052
 30
0.0
 11
15.62304228335976
 21
182.4127150484603
 31
0.0
  0
LINE
  5
213
330
1F
100
AcDbEntity
  8
0
  6
CONTINUOUS
 62
     7
100
AcDbLine
 10
15.59053302719476
 20
182.1786582939089
 30
0.0
 11
15.59405038745634
 21
182.148538016068
 31
0.0
  0
LINE
  5
214
330
1F
100
AcDbEntity
  8
0
  6
CONTINUOUS
 62
     7
100
AcDbLine
 10
25.96308851641327
 20
200.1837081433786
 30
0.0
 11
25.98886099718626
 21
200.170675678269
 31
0.0
  0
LINE
  5
215
330
1F
100
AcDbEntity
  8
0
  6
CONTINUOUS
 62
     7
100
AcDbLine
 10
15.58957374362963
 20
182.24168016675
 30
0.0
 11
15.58904013032319
 21
182.2097414010507
 31
0.0
  0
LINE
  5
216
330
1F
100
AcDbEntity
  8
0
  6
CONTINUOUS
 62
     7
100
AcDbLine
 10
25.61039941522575
 20
200.9892386163779
 30
0.0
 11
25.61307554762553
 21
200.9408799589487
 31
0.0
  0
LINE
  5
217
330
1F
100
AcDbEntity
  8
0
  6
CONTINUOUS
 62
     7
100
AcDbLine
 10
25.9395464431682
 20
205.3820750350667
 30
0.0
 11
25.91492423269429
 21
205.3648762174557
 31
0.0
  0
LINE
  5
218
330
1F
100
AcDbEntity
  8
0
  6
CONTINUOUS
 62
     7
100
AcDbLine
 10
25.70929735107052
 20
200.503033133481
 30
0.0
 11
25.7254060693843
 21
200.4662413942669
 31
0.0
  0
LINE
  5
219
330
1F
100
AcDbEntity
  8
0
  6
CONTINUOUS
 62
     7
100
AcDbLine
 10
26.88297980570353
 20
199.9260557013436
 30
0.0
 11
26.04319107198314
 21
200.1510764143568
 31
0.0
  0
LINE
  5
21A
330
1F
100
AcDbEntity
  8
0
  6
CONTINUOUS
 62
     7
100
AcDbLine
 10
15.6505126878414
 20
182.4851718643718
 30
0.0
 11
15.63581820714443
 21
182.4487817235052
 31
0.0
  0
LINE
  5
21B
330
1F
100
AcDbEntity
  8
0
  6
CONTINUOUS
 62
     7
100
AcDbLine
 10
19.07447501611126
 20
185.5852273765748
 30
0.0
 11
19.03656314693951
 21
185.5712804390183
 31
0.0
  0
LINE
  5
21C
330
1F
100
AcDbEntity
  8
0
  6
CONTINUOUS
 62
     7
100
AcDbLine
 10
18.52257508323229
 20
185.2258637361288
 30
0.0
 11
18.4946828495133
 21
185.1979192414458
 31
0.0
  0
LINE
  5
21D
330
1F
100
AcDbEntity
  8
0
  6
CONTINUOUS
 62
     7
100
AcDbLine
 10
25.60936606904174
 20
204.5613750508606
 30
0.0
 11
25.60874881284044
 21
204.5132731060868
 31
0.0
  0
LINE
  5
21E
330
1F
100
AcDbEntity
  8
0
  6
CONTINUOUS
 62
     7
100
AcDbLine
 10
18.99828883954718
 20
185.5555645388027
 30
0.0
 11
18.95977966735157
 21
185.5381441332079
 31
0.0
  0
LINE
  5
21F
330
1F
100
AcDbEntity
  8
0
  6
CONTINUOUS
 62
     7
100
AcDbLine
 10
15.59213591390202
 20
182.2743674202629
 30
0.0
 11
15.58957374362961
 21
182.2416801667499
 31
0.0
  0
LINE
  5
220
330
1F
100
AcDbEntity
  8
0
  6
CONTINUOUS
 62
     7
100
AcDbLine
 10
25.89098736898998
 20
205.3455882765149
 30
0.0
 11
25.86782073609422
 21
205.3242642722356
 31
0.0
  0
LINE
  5
221
330
1F
100
AcDbEntity
  8
0
  6
CONTINUOUS
 62
     7
100
AcDbLine
 10
15.60344724030682
 20
182.3420481648716
 30
0.0
 11
15.59672868792839
 21
182.307695990846
 31
0.0
  0
LINE
  5
222
330
1F
100
AcDbEntity
  8
0
  6
CONTINUOUS
 62
     7
100
AcDbLine
 10
25.99050736826958
 20
205.4099930603352
 30
0.0
 11
25.96476911637292
 21
205.3971316693569
 31
0.0
  0
LINE
  5
223
330
1F
100
AcDbEntity
  8
0
  6
CONTINUOUS
 62
     7
100
AcDbLine
 10
25.61883380814217
 20
204.7040747158833
 30
0.0
 11
25.61441912120299
 21
204.6569356778629
 31
0.0
  0
LINE
  5
224
330
1F
100
AcDbEntity
  8
0
  6
CONTINUOUS
 62
     7
100
AcDbLine
 10
25.60890461531223
 20
201.0869714567594
 30
0.0
 11
25.60900859964275
 21
201.0379916860365
 31
0.0
  0
LINE
  5
225
330
1F
100
AcDbEntity
  8
0
  6
CONTINUOUS
 62
     7
100
AcDbLine
 10
25.62449319630655
 20
204.7505731407776
 30
0.0
 11
25.61883380814216
 21
204.7040747158834
 31
0.0
  0
LINE
  5
226
330
1F
100
AcDbEntity
  8
0
  6
CONTINUOUS
 62
     7
100
AcDbLine
 10
15.66707544200574
 20
182.5217614538013
 30
0.0
 11
15.65051268784142
 21
182.4851718643719
 31
0.0
  0
LINE
  5
227
330
1F
100
AcDbEntity
  8
0
  6
CONTINUOUS
 62
     7
100
AcDbLine
 10
22.63248153902742
 20
215.3947947405881
 30
0.0
 11
22.62303718805173
 21
215.3627457606739
 31
0.0
  0
LINE
  5
228
330
1F
100
AcDbEntity
  8
0
  6
CONTINUOUS
 62
     7
100
AcDbLine
 10
24.6717172862746
 20
210.808655220105
 30
0.0
 11
24.70201295757126
 21
210.7961175345365
 31
0.0
  0
LINE
  5
229
330
1F
100
AcDbEntity
  8
0
  6
CONTINUOUS
 62
     7
100
AcDbLine
 10
22.65592663410226
 20
215.4541701495778
 30
0.0
 11
22.64343611576899
 21
215.4252669838343
 31
0.0
  0
LINE
  5
22A
330
1F
100
AcDbEntity
  8
0
  6
CONTINUOUS
 62
     7
100
AcDbLine
 10
25.7457530435865
 20
205.1551841539014
 30
0.0
 11
25.72873185794942
 21
205.1209986909521
 31
0.0
  0
LINE
  5
22B
330
1F
100
AcDbEntity
  8
0
  6
CONTINUOUS
 62
     7
100
AcDbLine
 10
22.59904766311538
 20
215.1830020919716
 30
0.0
 11
22.59900431304274
 21
215.1436685077062
 31
0.0
  0
LINE
  5
22C
330
1F
100
AcDbEntity
  8
0
  6
CONTINUOUS
 62
     7
100
AcDbLine
 10
25.72540606938434
 20
200.4662413942668
 30
0.0
 11
25.7426166874889
 21
200.4309715099502
 31
0.0
  0
LINE
  5
22D
330
1F
100
AcDbEntity
  8
0
  6
CONTINUOUS
 62
     7
100
AcDbLine
 10
22.7530303892336
 20
214.5432395435243
 30
0.0
 11
22.77023298655421
 21
214.5077310081407
 31
0.0
  0
LINE
  5
22E
330
1F
100
AcDbEntity
  8
0
  6
CONTINUOUS
 62
     7
100
AcDbLine
 10
24.19359782688446
 20
211.3172319525316
 30
0.0
 11
24.21665600912002
 21
211.2751782965526
 31
0.0
  0
LINE
  5
22F
330
1F
100
AcDbEntity
  8
0
  6
CONTINUOUS
 62
     7
100
AcDbLine
 10
22.77023298655423
 20
214.5077310081407
 30
0.0
 11
22.78819060608686
 21
214.4725685937519
 31
0.0
  0
LINE
  5
230
330
1F
100
AcDbEntity
  8
0
  6
CONTINUOUS
 62
     7
100
AcDbLine
 10
22.63141595212281
 20
214.8909263591929
 30
0.0
 11
22.64219706261298
 21
214.8467548740163
 31
0.0
  0
LINE
  5
231
330
1F
100
AcDbEntity
  8
0
  6
CONTINUOUS
 62
     7
100
AcDbLine
 10
24.15038358714938
 20
211.4042937529263
 30
0.0
 11
24.1714838203002
 21
211.360321303255
 31
0.0
  0
LINE
  5
232
330
1F
100
AcDbEntity
  8
0
  6
CONTINUOUS
 62
     7
100
AcDbLine
 10
24.48926976126497
 20
210.9293169870796
 30
0.0
 11
24.51933799760623
 21
210.9040965335036
 31
0.0
  0
LINE
  5
233
330
1F
100
AcDbEntity
  8
0
  6
CONTINUOUS
 62
     7
100
AcDbLine
 10
25.86557955182744
 20
200.2580271859327
 30
0.0
 11
25.88895762329373
 21
200.2362594283064
 31
0.0
  0
LINE
  5
234
330
1F
100
AcDbEntity
  8
0
  6
CONTINUOUS
 62
     7
100
AcDbLine
 10
24.40146057761439
 20
211.0160199440959
 30
0.0
 11
24.43039862175488
 21
210.9851871483451
 31
0.0
  0
LINE
  5
235
330
1F
100
AcDbEntity
  8
0
  6
CONTINUOUS
 62
     7
100
AcDbLine
 10
22.64343611576897
 20
215.4252669838343
 30
0.0
 11
22.6324815390274
 21
215.3947947405881
 31
0.0
  0
LINE
  5
236
330
1F
100
AcDbEntity
  8
0
  6
CONTINUOUS
 62
     7
100
AcDbLine
 10
24.29117763601124
 20
211.1560697596902
 30
0.0
 11
24.31774640573395
 21
211.1188084988925
 31
0.0
  0
LINE
  5
237
330
1F
100
AcDbEntity
  8
0
  6
CONTINUOUS
 62
     7
100
AcDbLine
 10
24.85016522098526
 20
210.766461042731
 30
0.0
 11
24.87925174256651
 21
210.7673717333985
 31
0.0
  0
LINE
  5
238
330
1F
100
AcDbEntity
  8
0
  6
CONTINUOUS
 62
     7
100
AcDbLine
 10
22.69985165921312
 20
214.667776320542
 30
0.0
 11
22.71762102961745
 21
214.6232100172982
 31
0.0
  0
LINE
  5
239
330
1F
100
AcDbEntity
  8
0
  6
CONTINUOUS
 62
     7
100
AcDbLine
 10
22.60367252490281
 20
215.0620448270606
 30
0.0
 11
22.60834032651256
 21
215.0200372265291
 31
0.0
  0
LINE
  5
23A
330
1F
100
AcDbEntity
  8
0
  6
CONTINUOUS
 62
     7
100
AcDbLine
 10
22.76107843551239
 20
215.5922023465972
 30
0.0
 11
23.43550639028424
 21
216.1383433359117
 31
0.0
  0
LINE
  5
23B
330
1F
100
AcDbEntity
  8
0
  6
CONTINUOUS
 62
     7
100
AcDbLine
 10
25.68375912754189
 20
205.0086176302655
 30
0.0
 11
25.67093734607582
 21
204.9683432116561
 31
0.0
  0
LINE
  5
23C
330
1F
100
AcDbEntity
  8
0
  6
CONTINUOUS
 62
     7
100
AcDbLine
 10
22.64219706261294
 20
214.8467548740164
 30
0.0
 11
22.65448655204817
 21
214.8022038298997
 31
0.0
  0
LINE
  5
23D
330
1F
100
AcDbEntity
  8
0
  6
CONTINUOUS
 62
     7
100
AcDbLine
 10
25.67093734607584
 20
204.9683432116562
 30
0.0
 11
25.65926256591876
 21
204.9268916536286
 31
0.0
  0
LINE
  5
23E
330
1F
100
AcDbEntity
  8
0
  6
CONTINUOUS
 62
     7
100
AcDbLine
 10
25.61008897666989
 20
201.1360102173815
 30
0.0
 11
25.60890461531215
 21
201.0869714567594
 31
0.0
  0
LINE
  5
23F
330
1F
100
AcDbEntity
  8
0
  6
CONTINUOUS
 62
     7
100
AcDbLine
 10
22.73662196156123
 20
214.5790156434311
 30
0.0
 11
22.75303038923355
 21
214.5432395435243
 31
0.0
  0
LINE
  5
240
330
1F
100
AcDbEntity
  8
0
  6
CONTINUOUS
 62
     7
100
AcDbLine
 10
22.61511960122631
 20
215.3292386806885
 30
0.0
 11
22.60874531693558
 21
215.294392137229
 31
0.0
  0
LINE
  5
241
330
1F
100
AcDbEntity
  8
0
  6
CONTINUOUS
 62
     7
100
AcDbLine
 10
22.60055322702564
 20
215.103302336761
 30
0.0
 11
22.60367252490274
 21
215.0620448270605
 31
0.0
  0
LINE
  5
242
330
1F
100
AcDbEntity
  8
0
  6
CONTINUOUS
 62
     7
100
AcDbLine
 10
22.70236502770362
 20
215.5312671222307
 30
0.0
 11
22.68544705405508
 21
215.5072532169388
 31
0.0
  0
LINE
  5
243
330
1F
100
AcDbEntity
  8
0
  6
CONTINUOUS
 62
     7
100
AcDbLine
 10
25.60900859964271
 20
201.0379916860365
 30
0.0
 11
25.61039941522573
 21
200.989238616378
 31
0.0
  0
LINE
  5
244
330
1F
100
AcDbEntity
  8
0
  6
CONTINUOUS
 62
     7
100
AcDbLine
 10
25.62227770513242
 20
200.8460167254384
 30
0.0
 11
25.62882277158014
 21
200.7996472236764
 31
0.0
  0
LINE
  5
245
330
1F
100
AcDbEntity
  8
0
  6
CONTINUOUS
 62
     7
100
AcDbLine
 10
25.61703548240635
 20
200.8930834249141
 30
0.0
 11
25.62227770513242
 21
200.8460167254385
 31
0.0
  0
LINE
  5
246
330
1F
100
AcDbEntity
  8
0
  6
CONTINUOUS
 62
     7
100
AcDbLine
 10
22.60069280949573
 20
215.2211552062737
 30
0.0
 11
22.59904766311533
 21
215.1830020919717
 31
0.0
  0
LINE
  5
247
330
1F
100
AcDbEntity
  8
0
  6
CONTINUOUS
 62
     7
100
AcDbLine
 10
25.76647930534282
 20
210.9066604566494
 30
0.0
 11
24.90776995283966
 21
210.7706542564516
 31
0.0
  0
LINE
  5
248
330
1F
100
AcDbEntity
  8
0
  6
CONTINUOUS
 62
     7
100
AcDbLine
 10
22.66822905694737
 20
214.7574235245061
 30
0.0
 11
22.68336921382939
 21
214.7125642554991
 31
0.0
  0
LINE
  5
249
330
1F
100
AcDbEntity
  8
0
  6
CONTINUOUS
 62
     7
100
AcDbLine
 10
24.45958916632007
 20
210.9563759073063
 30
0.0
 11
24.48926976126495
 21
210.9293169870797
 31
0.0
  0
LINE
  5
24A
330
1F
100
AcDbEntity
  8
0
  6
CONTINUOUS
 62
     7
100
AcDbLine
 10
22.7402366824177
 20
215.5738246852228
 30
0.0
 11
22.72064689181962
 21
215.553485277713
 31
0.0
  0
LINE
  5
24B
330
1F
100
AcDbEntity
  8
0
  6
CONTINUOUS
 62
     7
100
AcDbLine
 10
22.60393087356394
 20
215.2583247668918
 30
0.0
 11
22.6006928094957
 21
215.2211552062737
 31
0.0
  0
LINE
  5
24C
330
1F
100
AcDbEntity
  8
0
  6
CONTINUOUS
 62
     7
100
AcDbLine
 10
25.61045993878841
 20
204.4344805158413
 30
0.0
 11
25.61256319815162
 21
204.3950540300104
 31
0.0
  0
LINE
  5
24D
330
1F
100
AcDbEntity
  8
0
  6
CONTINUOUS
 62
     7
100
AcDbLine
 10
24.09386150611908
 20
211.5399837376628
 30
0.0
 11
24.11150283227668
 21
211.4942775659267
 31
0.0
  0
LINE
  5
24E
330
1F
100
AcDbEntity
  8
0
  6
CONTINUOUS
 62
     7
100
AcDbLine
 10
24.79197976593933
 20
210.7715925683656
 30
0.0
 11
24.82132010713316
 21
210.7678841797203
 31
0.0
  0
LINE
  5
24F
330
1F
100
AcDbEntity
  8
0
  6
CONTINUOUS
 62
     7
100
AcDbLine
 10
25.66770764375259
 20
200.6225611184562
 30
0.0
 11
25.68045365820257
 21
200.5811636994026
 31
0.0
  0
LINE
  5
250
330
1F
100
AcDbEntity
  8
0
  6
CONTINUOUS
 62
     7
100
AcDbLine
 10
24.54969146636044
 20
210.8808006924172
 30
0.0
 11
24.58022775854444
 21
210.8595156096584
 31
0.0
  0
LINE
  5
251
330
1F
100
AcDbEntity
  8
0
  6
CONTINUOUS
 62
     7
100
AcDbLine
 10
24.58022775854446
 20
210.8595156096583
 30
0.0
 11
24.61084446517488
 21
210.8403274310662
 31
0.0
  0
LINE
  5
252
330
1F
100
AcDbEntity
  8
0
  6
CONTINUOUS
 62
     7
100
AcDbLine
 10
25.6366685697037
 20
200.7539616857383
 30
0.0
 11
25.64578482846545
 21
200.709115337983
 31
0.0
  0
LINE
  5
253
330
1F
100
AcDbEntity
  8
0
  6
CONTINUOUS
 62
     7
100
AcDbLine
 10
25.78289751862672
 20
205.2188141696629
 30
0.0
 11
25.76382938461792
 21
205.1878231978575
 31
0.0
  0
LINE
  5
254
330
1F
100
AcDbEntity
  8
0
  6
CONTINUOUS
 62
     7
100
AcDbLine
 10
22.6230371880517
 20
215.3627457606738
 30
0.0
 11
22.61511960122632
 21
215.3292386806886
 31
0.0
  0
LINE
  5
255
330
1F
100
AcDbEntity
  8
0
  6
CONTINUOUS
 62
     7
100
AcDbLine
 10
26.01580326812053
 20
200.1596770814451
 30
0.0
 11
26.04319107198322
 21
200.1510764143569
 31
0.0
  0
LINE
  5
256
330
1F
100
AcDbEntity
  8
0
  6
CONTINUOUS
 62
     7
100
AcDbLine
 10
25.71269384566321
 20
205.0850833057766
 30
0.0
 11
25.69769044813257
 21
205.0475769735933
 31
0.0
  0
LINE
  5
257
330
1F
100
AcDbEntity
  8
0
  6
CONTINUOUS
 62
     7
100
AcDbLine
 10
26.0166763148193
 20
205.4206061480104
 30
0.0
 11
25.99050736826958
 21
205.4099930603351
 31
0.0
  0
LINE
  5
258
330
1F
100
AcDbEntity
  8
0
  6
CONTINUOUS
 62
     7
100
AcDbLine
 10
25.91492423269426
 20
205.3648762174558
 30
0.0
 11
25.89098736899001
 21
205.3455882765151
 31
0.0
  0
LINE
  5
259
330
1F
100
AcDbEntity
  8
0
  6
CONTINUOUS
 62
     7
100
AcDbLine
 10
25.69769044813253
 20
205.0475769735933
 30
0.0
 11
25.68375912754192
 21
205.0086176302655
 31
0.0
  0
LINE
  5
25A
330
1F
100
AcDbEntity
  8
0
  6
CONTINUOUS
 62
     7
100
AcDbLine
 10
24.87925174256644
 20
210.7673717333984
 30
0.0
 11
24.90776995283968
 21
210.7706542564516
 31
0.0
  0
LINE
  5
25B
330
1F
100
AcDbEntity
  8
0
  6
CONTINUOUS
 62
     7
100
AcDbLine
 10
25.84300261506822
 20
200.281803291276
 30
0.0
 11
25.8655795518275
 21
200.2580271859327
 31
0.0
  0
LINE
  5
25C
330
1F
100
AcDbEntity
  8
0
  6
CONTINUOUS
 62
     7
100
AcDbLine
 10
25.91305581651493
 20
200.2165702085622
 30
0.0
 11
25.93779311853882
 21
200.1990297168647
 31
0.0
  0
LINE
  5
25D
330
1F
100
AcDbEntity
  8
0
  6
CONTINUOUS
 62
     7
100
AcDbLine
 10
22.65448655204816
 20
214.8022038298997
 30
0.0
 11
22.66822905694733
 21
214.7574235245062
 31
0.0
  0
LINE
  5
25E
330
1F
100
AcDbEntity
  8
0
  6
CONTINUOUS
 62
     7
100
AcDbLine
 10
25.74261668748889
 20
200.4309715099503
 30
0.0
 11
25.7608706887919
 21
200.3973438321568
 31
0.0
  0
LINE
  5
25F
330
1F
100
AcDbEntity
  8
0
  6
CONTINUOUS
 62
     7
100
AcDbLine
 10
22.68336921382941
 20
214.7125642554992
 30
0.0
 11
22.69985165921314
 21
214.6677763205422
 31
0.0
  0
LINE
  5
260
330
1F
100
AcDbEntity
  8
0
  6
CONTINUOUS
 62
     7
100
AcDbLine
 10
26.04319107198316
 20
205.4289178723916
 30
0.0
 11
26.88144721921209
 21
205.653527930092
 31
0.0
  0
LINE
  5
261
330
1F
100
AcDbEntity
  8
0
  6
CONTINUOUS
 62
     7
100
AcDbLine
 10
25.86782073609423
 20
205.3242642722357
 30
0.0
 11
25.8454190543466
 21
205.3008821206041
 31
0.0
  0
LINE
  5
262
330
1F
100
AcDbEntity
  8
0
  6
CONTINUOUS
 62
     7
100
AcDbLine
 10
25.93779311853877
 20
200.1990297168645
 30
0.0
 11
25.96308851641327
 21
200.1837081433785
 31
0.0
  0
LINE
  5
263
330
1F
100
AcDbEntity
  8
0
  6
CONTINUOUS
 62
     7
100
AcDbLine
 10
22.68544705405506
 20
215.5072532169389
 30
0.0
 11
22.66994893485945
 21
215.4815265600002
 31
0.0
  0
LINE
  5
264
330
1F
100
AcDbEntity
  8
0
  6
CONTINUOUS
 62
     7
100
AcDbLine
 10
22.60874531693558
 20
215.294392137229
 30
0.0
 11
22.60393087356392
 21
215.2583247668917
 31
0.0
  0
LINE
  5
265
330
1F
100
AcDbEntity
  8
0
  6
CONTINUOUS
 62
     7
100
AcDbLine
 10
22.7176210296175
 20
214.6232100172982
 30
0.0
 11
22.7366219615613
 21
214.579015643431
 31
0.0
  0
LINE
  5
266
330
1F
100
AcDbEntity
  8
0
  6
CONTINUOUS
 62
     7
100
AcDbLine
 10
25.82130782596803
 20
200.3075175541715
 30
0.0
 11
25.84300261506822
 21
200.281803291276
 31
0.0
  0
LINE
  5
267
330
1F
100
AcDbEntity
  8
0
  6
CONTINUOUS
 62
     7
100
AcDbLine
 10
-0.4365455835909637
 20
227.9444515246397
 30
0.0
 11
-0.3878449984992989
 21
227.9496747194979
 31
0.0
  0
LINE
  5
268
330
1F
100
AcDbEntity
  8
0
  6
CONTINUOUS
 62
     7
100
AcDbLine
 10
-4.677690169889559
 20
227.7590315694045
 30
0.0
 11
-4.65209449476342
 21
227.7391967067913
 31
0.0
  0
LINE
  5
269
330
1F
100
AcDbEntity
  8
0
  6
CONTINUOUS
 62
     7
100
AcDbLine
 10
24.64143917726835
 20
210.8233223024789
 30
0.0
 11
24.67171728627465
 21
210.8086552201049
 31
0.0
  0
LINE
  5
26A
330
1F
100
AcDbEntity
  8
0
  6
CONTINUOUS
 62
     7
100
AcDbLine
 10
24.43039862175489
 20
210.9851871483451
 30
0.0
 11
24.45958916632009
 21
210.9563759073063
 31
0.0
  0
LINE
  5
26B
330
1F
100
AcDbEntity
  8
0
  6
CONTINUOUS
 62
     7
100
AcDbLine
 10
-4.789063919681313
 20
227.8970012334709
 30
0.0
 11
-4.775773571842577
 21
227.8720850128937
 31
0.0
  0
LINE
  5
26C
330
1F
100
AcDbEntity
  8
0
  6
CONTINUOUS
 62
     7
100
AcDbLine
 10
24.24058876922475
 20
211.2343129311144
 30
0.0
 11
24.26542816043575
 21
211.1946144017622
 31
0.0
  0
LINE
  5
26D
330
1F
100
AcDbEntity
  8
0
  6
CONTINUOUS
 62
     7
100
AcDbLine
 10
24.61084446517492
 20
210.8403274310663
 30
0.0
 11
24.64143917726837
 21
210.8233223024789
 31
0.0
  0
LINE
  5
26E
330
1F
100
AcDbEntity
  8
0
  6
CONTINUOUS
 62
     7
100
AcDbLine
 10
24.21665600912004
 20
211.2751782965525
 30
0.0
 11
24.24058876922477
 21
211.2343129311143
 31
0.0
  0
LINE
  5
26F
330
1F
100
AcDbEntity
  8
0
  6
CONTINUOUS
 62
     7
100
AcDbLine
 10
-0.1082621984258569
 20
228.0068723848019
 30
0.0
 11
-0.0646144321750364
 21
228.0206264235582
 31
0.0
  0
LINE
  5
270
330
1F
100
AcDbEntity
  8
0
  6
CONTINUOUS
 62
     7
100
AcDbLine
 10
24.37297866675264
 20
211.0486540971006
 30
0.0
 11
24.40146057761438
 21
211.0160199440959
 31
0.0
  0
LINE
  5
271
330
1F
100
AcDbEntity
  8
0
  6
CONTINUOUS
 62
     7
100
AcDbLine
 10
24.31774640573386
 20
211.1188084988924
 30
0.0
 11
24.34504367938671
 21
211.0829601133644
 31
0.0
  0
LINE
  5
272
330
1F
100
AcDbEntity
  8
0
  6
CONTINUOUS
 62
     7
100
AcDbLine
 10
24.17148382030021
 20
211.360321303255
 30
0.0
 11
24.19359782688448
 21
211.3172319525316
 31
0.0
  0
LINE
  5
273
330
1F
100
AcDbEntity
  8
0
  6
CONTINUOUS
 62
     7
100
AcDbLine
 10
24.76224675533012
 20
210.7775550376969
 30
0.0
 11
24.79197976593937
 21
210.7715925683657
 31
0.0
  0
LINE
  5
274
330
1F
100
AcDbEntity
  8
0
  6
CONTINUOUS
 62
     7
100
AcDbLine
 10
24.73222363323196
 20
210.7857404167438
 30
0.0
 11
24.76224675533012
 21
210.7775550376968
 31
0.0
  0
LINE
  5
275
330
1F
100
AcDbEntity
  8
0
  6
CONTINUOUS
 62
     7
100
AcDbLine
 10
24.11150283227664
 20
211.4942775659266
 30
0.0
 11
24.13036672521412
 21
211.448996705749
 31
0.0
  0
LINE
  5
276
330
1F
100
AcDbEntity
  8
0
  6
CONTINUOUS
 62
     7
100
AcDbLine
 10
22.72064689181968
 20
215.5534852777129
 30
0.0
 11
22.70236502770362
 21
215.5312671222307
 31
0.0
  0
LINE
  5
277
330
1F
100
AcDbEntity
  8
0
  6
CONTINUOUS
 62
     7
100
AcDbLine
 10
24.34504367938672
 20
211.0829601133644
 30
0.0
 11
24.37297866675259
 21
211.0486540971006
 31
0.0
  0
LINE
  5
278
330
1F
100
AcDbEntity
  8
0
  6
CONTINUOUS
 62
     7
100
AcDbLine
 10
22.59900431304274
 20
215.1436685077062
 30
0.0
 11
22.60055322702571
 21
215.103302336761
 31
0.0
  0
LINE
  5
279
330
1F
100
AcDbEntity
  8
0
  6
CONTINUOUS
 62
     7
100
AcDbLine
 10
-4.742681617250111
 20
227.8243214853511
 30
0.0
 11
-4.723003294738459
 21
227.8016319238972
 31
0.0
  0
LINE
  5
27A
330
1F
100
AcDbEntity
  8
0
  6
CONTINUOUS
 62
     7
100
AcDbLine
 10
-4.563940840594416
 20
227.6855961073811
 30
0.0
 11
-4.531126477829883
 21
227.6698718692636
 31
0.0
  0
LINE
  5
27B
330
1F
100
AcDbEntity
  8
0
  6
CONTINUOUS
 62
     7
100
AcDbLine
 10
15.60775073287207
 20
223.4900544440141
 30
0.0
 11
15.60008635692781
 21
223.4623212449565
 31
0.0
  0
LINE
  5
27C
330
1F
100
AcDbEntity
  8
0
  6
CONTINUOUS
 62
     7
100
AcDbLine
 10
0.4350143740450285
 20
228.4181054553225
 30
0.0
 11
0.4431364852271364
 21
228.4460498001016
 31
0.0
  0
LINE
  5
27D
330
1F
100
AcDbEntity
  8
0
  6
CONTINUOUS
 62
     7
100
AcDbLine
 10
-4.531126477829883
 20
227.6698718692637
 30
0.0
 11
-4.496776741822243
 21
227.6553062614269
 31
0.0
  0
LINE
  5
27E
330
1F
100
AcDbEntity
  8
0
  6
CONTINUOUS
 62
     7
100
AcDbLine
 10
-4.723003294738515
 20
227.8016319238972
 30
0.0
 11
-4.701318931577988
 21
227.7798423276631
 31
0.0
  0
LINE
  5
27F
330
1F
100
AcDbEntity
  8
0
  6
CONTINUOUS
 62
     7
100
AcDbLine
 10
-3.844061308190594
 20
227.5861505295744
 30
0.0
 11
-3.804965732244835
 21
227.5907004487706
 31
0.0
  0
LINE
  5
280
330
1F
100
AcDbEntity
  8
0
  6
CONTINUOUS
 62
     7
100
AcDbLine
 10
-4.21733960560966
 20
227.5871612962744
 30
0.0
 11
-4.173216471744952
 21
227.5824793806426
 31
0.0
  0
LINE
  5
281
330
1F
100
AcDbEntity
  8
0
  6
CONTINUOUS
 62
     7
100
AcDbLine
 10
22.66994893485946
 20
215.4815265600002
 30
0.0
 11
22.65592663410228
 21
215.4541701495777
 31
0.0
  0
LINE
  5
282
330
1F
100
AcDbEntity
  8
0
  6
CONTINUOUS
 62
     7
100
AcDbLine
 10
-0.1983086960277713
 20
227.9829379830566
 30
0.0
 11
-0.1528773569859816
 21
227.9942941277071
 31
0.0
  0
LINE
  5
283
330
1F
100
AcDbEntity
  8
0
  6
CONTINUOUS
 62
     7
100
AcDbLine
 10
-3.987529589986383
 20
227.5767729475375
 30
0.0
 11
-3.939840376861632
 21
227.5786084515795
 31
0.0
  0
LINE
  5
284
330
1F
100
AcDbEntity
  8
0
  6
CONTINUOUS
 62
     7
100
AcDbLine
 10
-4.460999352038086
 20
227.6419516735337
 30
0.0
 11
-4.423604286322373
 21
227.6297556991769
 31
0.0
  0
LINE
  5
285
330
1F
100
AcDbEntity
  8
0
  6
CONTINUOUS
 62
     7
100
AcDbLine
 10
-4.260694135034548
 20
227.5931526518745
 30
0.0
 11
-4.217339605609684
 21
227.5871612962745
 31
0.0
  0
LINE
  5
286
330
1F
100
AcDbEntity
  8
0
  6
CONTINUOUS
 62
     7
100
AcDbLine
 10
-0.2445695977133511
 20
227.9728046680079
 30
0.0
 11
-0.1983086960277852
 21
227.9829379830565
 31
0.0
  0
LINE
  5
287
330
1F
100
AcDbEntity
  8
0
  6
CONTINUOUS
 62
     7
100
AcDbLine
 10
-4.624532568527795
 20
227.7203109158078
 30
0.0
 11
-4.595112110649266
 21
227.7024265861168
 31
0.0
  0
LINE
  5
288
330
1F
100
AcDbEntity
  8
0
  6
CONTINUOUS
 62
     7
100
AcDbLine
 10
-4.701318931577935
 20
227.7798423276631
 30
0.0
 11
-4.677690169889535
 21
227.7590315694044
 31
0.0
  0
LINE
  5
289
330
1F
100
AcDbEntity
  8
0
  6
CONTINUOUS
 62
     7
100
AcDbLine
 10
-0.3878449984993093
 20
227.9496747194978
 30
0.0
 11
-0.3395043830731158
 21
227.9561539994986
 31
0.0
  0
LINE
  5
28A
330
1F
100
AcDbEntity
  8
0
  6
CONTINUOUS
 62
     7
100
AcDbLine
 10
24.82132010713323
 20
210.7678841797203
 30
0.0
 11
24.85016522098525
 21
210.7664610427309
 31
0.0
  0
LINE
  5
28B
330
1F
100
AcDbEntity
  8
0
  6
CONTINUOUS
 62
     7
100
AcDbLine
 10
22.62223392028401
 20
214.9343367446708
 30
0.0
 11
22.63141595212279
 21
214.890926359193
 31
0.0
  0
LINE
  5
28C
330
1F
100
AcDbEntity
  8
0
  6
CONTINUOUS
 62
     7
100
AcDbLine
 10
-4.127875346573773
 20
227.5790830864408
 30
0.0
 11
-4.081707124671159
 21
227.5770040557009
 31
0.0
  0
LINE
  5
28D
330
1F
100
AcDbEntity
  8
0
  6
CONTINUOUS
 62
     7
100
AcDbLine
 10
-4.800101658386901
 20
227.9225019282443
 30
0.0
 11
-5.111102905584419
 21
228.7326878764245
 31
0.0
  0
LINE
  5
28E
330
1F
100
AcDbEntity
  8
0
  6
CONTINUOUS
 62
     7
100
AcDbLine
 10
0.4247472599526736
 20
228.3911118953454
 30
0.0
 11
0.4350143740450008
 21
228.4181054553226
 31
0.0
  0
LINE
  5
28F
330
1F
100
AcDbEntity
  8
0
  6
CONTINUOUS
 62
     7
100
AcDbLine
 10
24.51933799760614
 20
210.9040965335036
 30
0.0
 11
24.54969146636044
 21
210.8808006924171
 31
0.0
  0
LINE
  5
290
330
1F
100
AcDbEntity
  8
0
  6
CONTINUOUS
 62
     7
100
AcDbLine
 10
22.60834032651254
 20
215.0200372265291
 30
0.0
 11
22.61453475169346
 21
214.9774207830909
 31
0.0
  0
LINE
  5
291
330
1F
100
AcDbEntity
  8
0
  6
CONTINUOUS
 62
     7
100
AcDbLine
 10
15.61737411475644
 20
223.5166033030222
 30
0.0
 11
15.60775073287209
 21
223.4900544440141
 31
0.0
  0
LINE
  5
292
330
1F
100
AcDbEntity
  8
0
  6
CONTINUOUS
 62
     7
100
AcDbLine
 10
0.3397418822670972
 20
228.2614301020689
 30
0.0
 11
0.3610278071128348
 21
228.2863686397604
 31
0.0
  0
LINE
  5
293
330
1F
100
AcDbEntity
  8
0
  6
CONTINUOUS
 62
     7
100
AcDbLine
 10
-4.800101658386901
 20
227.9225019282443
 30
0.0
 11
-4.789063919681327
 21
227.897001233471
 31
0.0
  0
LINE
  5
294
330
1F
100
AcDbEntity
  8
0
  6
CONTINUOUS
 62
     7
100
AcDbLine
 10
22.76107843551239
 20
215.5922023465972
 30
0.0
 11
22.74023668241777
 21
215.5738246852227
 31
0.0
  0
LINE
  5
295
330
1F
100
AcDbEntity
  8
0
  6
CONTINUOUS
 62
     7
100
AcDbLine
 10
24.13036672521418
 20
211.448996705749
 30
0.0
 11
24.15038358714941
 21
211.4042937529263
 31
0.0
  0
LINE
  5
296
330
1F
100
AcDbEntity
  8
0
  6
CONTINUOUS
 62
     7
100
AcDbLine
 10
-0.2916903714364483
 20
227.9638703279119
 30
0.0
 11
-0.2445695977133511
 21
227.9728046680078
 31
0.0
  0
LINE
  5
297
330
1F
100
AcDbEntity
  8
0
  6
CONTINUOUS
 62
     7
100
AcDbLine
 10
-3.939840376861625
 20
227.5786084515794
 30
0.0
 11
-3.891964266320134
 21
227.5817363820142
 31
0.0
  0
LINE
  5
298
330
1F
100
AcDbEntity
  8
0
  6
CONTINUOUS
 62
     7
100
AcDbLine
 10
-4.081707124671152
 20
227.5770040557009
 30
0.0
 11
-4.034871855865825
 21
227.5762360791557
 31
0.0
  0
LINE
  5
299
330
1F
100
AcDbEntity
  8
0
  6
CONTINUOUS
 62
     7
100
AcDbLine
 10
-0.0220852700610896
 20
228.0355099131939
 30
0.0
 11
0.0191740760884414
 21
228.0514765229259
 31
0.0
  0
LINE
  5
29A
330
1F
100
AcDbEntity
  8
0
  6
CONTINUOUS
 62
     7
100
AcDbLine
 10
24.26542816043581
 20
211.1946144017622
 30
0.0
 11
24.29117763601124
 21
211.1560697596901
 31
0.0
  0
LINE
  5
29B
330
1F
100
AcDbEntity
  8
0
  6
CONTINUOUS
 62
     7
100
AcDbLine
 10
22.61453475169339
 20
214.9774207830909
 30
0.0
 11
22.62223392028398
 21
214.9343367446707
 31
0.0
  0
LINE
  5
29C
330
1F
100
AcDbEntity
  8
0
  6
CONTINUOUS
 62
     7
100
AcDbLine
 10
-0.5343601262746689
 20
227.9378495372696
 30
0.0
 11
-0.4854395042241111
 21
227.9405034516536
 31
0.0
  0
LINE
  5
29D
330
1F
100
AcDbEntity
  8
0
  6
CONTINUOUS
 62
     7
100
AcDbLine
 10
-4.49677674182225
 20
227.6553062614269
 30
0.0
 11
-4.46099935203809
 21
227.6419516735338
 31
0.0
  0
LINE
  5
29E
330
1F
100
AcDbEntity
  8
0
  6
CONTINUOUS
 62
     7
100
AcDbLine
 10
0.3802326448006932
 20
228.3118939939586
 30
0.0
 11
0.3972950578341565
 21
228.3379182586386
 31
0.0
  0
LINE
  5
29F
330
1F
100
AcDbEntity
  8
0
  6
CONTINUOUS
 62
     7
100
AcDbLine
 10
-0.0646144321750919
 20
228.0206264235582
 30
0.0
 11
-0.0220852700611313
 21
228.0355099131939
 31
0.0
  0
LINE
  5
2A0
330
1F
100
AcDbEntity
  8
0
  6
CONTINUOUS
 62
     7
100
AcDbLine
 10
24.70201295757135
 20
210.7961175345365
 30
0.0
 11
24.73222363323201
 21
210.7857404167439
 31
0.0
  0
LINE
  5
2A1
330
1F
100
AcDbEntity
  8
0
  6
CONTINUOUS
 62
     7
100
AcDbLine
 10
-4.595112110649279
 20
227.7024265861167
 30
0.0
 11
-4.56394084059442
 21
227.6855961073811
 31
0.0
  0
LINE
  5
2A2
330
1F
100
AcDbEntity
  8
0
  6
CONTINUOUS
 62
     7
100
AcDbLine
 10
-3.804965732244814
 20
227.5907004487706
 30
0.0
 11
-3.765879213364704
 21
227.5960883501708
 31
0.0
  0
LINE
  5
2A3
330
1F
100
AcDbEntity
  8
0
  6
CONTINUOUS
 62
     7
100
AcDbLine
 10
15.59175293166537
 20
223.3092233450224
 30
0.0
 11
15.59616058223544
 21
223.2761037813879
 31
0.0
  0
LINE
  5
2A4
330
1F
100
AcDbEntity
  8
0
  6
CONTINUOUS
 62
     7
100
AcDbLine
 10
0.2630989584849752
 20
228.1901351152609
 30
0.0
 11
0.2908090834315771
 21
228.213323860333
 31
0.0
  0
LINE
  5
2A5
330
1F
100
AcDbEntity
  8
0
  6
CONTINUOUS
 62
     7
100
AcDbLine
 10
18.79189115155278
 20
220.136346902322
 30
0.0
 11
18.8310919863264
 21
220.111607874897
 31
0.0
  0
LINE
  5
2A6
330
1F
100
AcDbEntity
  8
0
  6
CONTINUOUS
 62
     7
100
AcDbLine
 10
15.62117793990036
 20
223.1729392186193
 30
0.0
 11
15.63333804348966
 21
223.137666096045
 31
0.0
  0
LINE
  5
2A7
330
1F
100
AcDbEntity
  8
0
  6
CONTINUOUS
 62
     7
100
AcDbLine
 10
0.4121537087169447
 20
228.3643535277757
 30
0.0
 11
0.4247472599526597
 21
228.3911118953453
 31
0.0
  0
LINE
  5
2A8
330
1F
100
AcDbEntity
  8
0
  6
CONTINUOUS
 62
     7
100
AcDbLine
 10
15.60255606398808
 20
223.2422731679818
 30
0.0
 11
15.61090623163814
 21
223.2078466114952
 31
0.0
  0
LINE
  5
2A9
330
1F
100
AcDbEntity
  8
0
  6
CONTINUOUS
 62
     7
100
AcDbLine
 10
18.67639782563385
 20
220.219147580115
 30
0.0
 11
18.71456728613865
 21
220.190108261356
 31
0.0
  0
LINE
  5
2AA
330
1F
100
AcDbEntity
  8
0
  6
CONTINUOUS
 62
     7
100
AcDbLine
 10
15.76967640564747
 20
222.8844059523698
 30
0.0
 11
15.79572120358961
 21
222.8484832607087
 31
0.0
  0
LINE
  5
2AB
330
1F
100
AcDbEntity
  8
0
  6
CONTINUOUS
 62
     7
100
AcDbLine
 10
0.2018840094459851
 20
228.1460017744381
 30
0.0
 11
0.2334194085973143
 21
228.1676708278951
 31
0.0
  0
LINE
  5
2AC
330
1F
100
AcDbEntity
  8
0
  6
CONTINUOUS
 62
     7
100
AcDbLine
 10
19.44497845943843
 20
219.9640650603676
 30
0.0
 11
19.47329053241058
 21
219.9726110706493
 31
0.0
  0
LINE
  5
2AD
330
1F
100
AcDbEntity
  8
0
  6
CONTINUOUS
 62
     7
100
AcDbLine
 10
-3.765879213364742
 20
227.5960883501706
 30
0.0
 11
-3.726888560417543
 21
227.6023012776349
 31
0.0
  0
LINE
  5
2AE
330
1F
100
AcDbEntity
  8
0
  6
CONTINUOUS
 62
     7
100
AcDbLine
 10
15.60008635692783
 20
223.4623212449563
 30
0.0
 11
15.59439835417422
 21
223.4335022910472
 31
0.0
  0
LINE
  5
2AF
330
1F
100
AcDbEntity
  8
0
  6
CONTINUOUS
 62
     7
100
AcDbLine
 10
0.168606336708399
 20
228.1251987310929
 30
0.0
 11
0.2018840094459746
 21
228.146001774438
 31
0.0
  0
LINE
  5
2B0
330
1F
100
AcDbEntity
  8
0
  6
CONTINUOUS
 62
     7
100
AcDbLine
 10
-0.152877356985992
 20
227.9942941277071
 30
0.0
 11
-0.1082621984258812
 21
228.0068723848018
 31
0.0
  0
LINE
  5
2B1
330
1F
100
AcDbEntity
  8
0
  6
CONTINUOUS
 62
     7
100
AcDbLine
 10
15.59616058223545
 20
223.2761037813879
 30
0.0
 11
15.60255606398812
 21
223.2422731679819
 31
0.0
  0
LINE
  5
2B2
330
1F
100
AcDbEntity
  8
0
  6
CONTINUOUS
 62
     7
100
AcDbLine
 10
18.75305239197755
 20
220.1625102228895
 30
0.0
 11
18.7918911515527
 21
220.1363469023219
 31
0.0
  0
LINE
  5
2B3
330
1F
100
AcDbEntity
  8
0
  6
CONTINUOUS
 62
     7
100
AcDbLine
 10
18.98880385854151
 20
220.0285221154735
 30
0.0
 11
19.02778090515944
 21
220.0121251178997
 31
0.0
  0
LINE
  5
2B4
330
1F
100
AcDbEntity
  8
0
  6
CONTINUOUS
 62
     7
100
AcDbLine
 10
19.17921813814488
 20
219.9652841164053
 30
0.0
 11
19.21577185227172
 21
219.9582594547104
 31
0.0
  0
LINE
  5
2B5
330
1F
100
AcDbEntity
  8
0
  6
CONTINUOUS
 62
     7
100
AcDbLine
 10
0.1336999660618288
 20
228.1053324740625
 30
0.0
 11
0.1686063367084337
 21
228.1251987310929
 31
0.0
  0
LINE
  5
2B6
330
1F
100
AcDbEntity
  8
0
  6
CONTINUOUS
 62
     7
100
AcDbLine
 10
-0.3395043830731193
 20
227.9561539994988
 30
0.0
 11
-0.2916903714364483
 21
227.963870327912
 31
0.0
  0
LINE
  5
2B7
330
1F
100
AcDbEntity
  8
0
  6
CONTINUOUS
 62
     7
100
AcDbLine
 10
0.2334194085973351
 20
228.167670827895
 30
0.0
 11
0.2630989584849717
 21
228.1901351152609
 31
0.0
  0
LINE
  5
2B8
330
1F
100
AcDbEntity
  8
0
  6
CONTINUOUS
 62
     7
100
AcDbLine
 10
-4.384735135663453
 20
227.6187549710939
 30
0.0
 11
-4.344532996162095
 21
227.6089723280231
 31
0.0
  0
LINE
  5
2B9
330
1F
100
AcDbEntity
  8
0
  6
CONTINUOUS
 62
     7
100
AcDbLine
 10
15.74511900799674
 20
222.9206336459784
 30
0.0
 11
15.76967640564747
 21
222.8844059523697
 31
0.0
  0
LINE
  5
2BA
330
1F
100
AcDbEntity
  8
0
  6
CONTINUOUS
 62
     7
100
AcDbLine
 10
15.59070409186181
 20
223.403696167485
 30
0.0
 11
15.58902093724123
 21
223.373001459468
 31
0.0
  0
LINE
  5
2BB
330
1F
100
AcDbEntity
  8
0
  6
CONTINUOUS
 62
     7
100
AcDbLine
 10
15.63333804348971
 20
223.137666096045
 30
0.0
 11
15.64735339712085
 21
223.1021423504633
 31
0.0
  0
LINE
  5
2BC
330
1F
100
AcDbEntity
  8
0
  6
CONTINUOUS
 62
     7
100
AcDbLine
 10
0.0590123944458343
 20
228.0684799219721
 30
0.0
 11
0.0972784731836721
 21
228.0864737795496
 31
0.0
  0
LINE
  5
2BD
330
1F
100
AcDbEntity
  8
0
  6
CONTINUOUS
 62
     7
100
AcDbLine
 10
19.10428680908633
 20
219.9850302355164
 30
0.0
 11
19.1420135924395
 21
219.9742200582251
 31
0.0
  0
LINE
  5
2BE
330
1F
100
AcDbEntity
  8
0
  6
CONTINUOUS
 62
     7
100
AcDbLine
 10
18.9100374376962
 20
220.0667281832447
 30
0.0
 11
18.94951083240601
 21
220.0467502609026
 31
0.0
  0
LINE
  5
2BF
330
1F
100
AcDbEntity
  8
0
  6
CONTINUOUS
 62
     7
100
AcDbLine
 10
15.58902093724124
 20
223.3730014594679
 30
0.0
 11
15.58936625756303
 21
223.3415167521942
 31
0.0
  0
LINE
  5
2C0
330
1F
100
AcDbEntity
  8
0
  6
CONTINUOUS
 62
     7
100
AcDbLine
 10
-4.344532996162109
 20
227.608972328023
 30
0.0
 11
-4.303138963918915
 21
227.6004306087037
 31
0.0
  0
LINE
  5
2C1
330
1F
100
AcDbEntity
  8
0
  6
CONTINUOUS
 62
     7
100
AcDbLine
 10
18.83109198632637
 20
220.111607874897
 30
0.0
 11
18.87051928535528
 21
220.0883745115569
 31
0.0
  0
LINE
  5
2C2
330
1F
100
AcDbEntity
  8
0
  6
CONTINUOUS
 62
     7
100
AcDbLine
 10
0.0972784731836929
 20
228.0864737795496
 30
0.0
 11
0.1336999660618288
 21
228.1053324740625
 31
0.0
  0
LINE
  5
2C3
330
1F
100
AcDbEntity
  8
0
  6
CONTINUOUS
 62
     7
100
AcDbLine
 10
-4.034871855865818
 20
227.5762360791556
 30
0.0
 11
-3.987529589986407
 21
227.5767729475374
 31
0.0
  0
LINE
  5
2C4
330
1F
100
AcDbEntity
  8
0
  6
CONTINUOUS
 62
     7
100
AcDbLine
 10
0.3610278071128348
 20
228.2863686397604
 30
0.0
 11
0.3802326448006585
 21
228.3118939939586
 31
0.0
  0
LINE
  5
2C5
330
1F
100
AcDbEntity
  8
0
  6
CONTINUOUS
 62
     7
100
AcDbLine
 10
-4.760292256991871
 20
227.8478321392685
 30
0.0
 11
-4.74268161725016
 21
227.8243214853512
 31
0.0
  0
LINE
  5
2C6
330
1F
100
AcDbEntity
  8
0
  6
CONTINUOUS
 62
     7
100
AcDbLine
 10
15.62893913533031
 20
223.5418692367824
 30
0.0
 11
15.6173741147564
 21
223.5166033030222
 31
0.0
  0
LINE
  5
2C7
330
1F
100
AcDbEntity
  8
0
  6
CONTINUOUS
 62
     7
100
AcDbLine
 10
19.28641241006679
 20
219.9500921503091
 30
0.0
 11
19.32003847886402
 21
219.9490083202453
 31
0.0
  0
LINE
  5
2C8
330
1F
100
AcDbEntity
  8
0
  6
CONTINUOUS
 62
     7
100
AcDbLine
 10
20.28029102766748
 20
220.4838203875184
 30
0.0
 11
19.5511397045589
 21
220.0103039817018
 31
0.0
  0
LINE
  5
2C9
330
1F
100
AcDbEntity
  8
0
  6
CONTINUOUS
 62
     7
100
AcDbLine
 10
15.98336350675933
 20
222.6389749764703
 30
0.0
 11
16.01869719309716
 21
222.6063297822448
 31
0.0
  0
LINE
  5
2CA
330
1F
100
AcDbEntity
  8
0
  6
CONTINUOUS
 62
     7
100
AcDbLine
 10
0.3972950578341461
 20
228.3379182586387
 30
0.0
 11
0.4121537087169689
 21
228.3643535277758
 31
0.0
  0
LINE
  5
2CB
330
1F
100
AcDbEntity
  8
0
  6
CONTINUOUS
 62
     7
100
AcDbLine
 10
-4.303138963918928
 20
227.6004306087038
 30
0.0
 11
-4.260694135034576
 21
227.5931526518745
 31
0.0
  0
LINE
  5
2CC
330
1F
100
AcDbEntity
  8
0
  6
CONTINUOUS
 62
     7
100
AcDbLine
 10
15.88365214310539
 20
222.7414955911756
 30
0.0
 11
15.91572927313968
 21
222.706672666327
 31
0.0
  0
LINE
  5
2CD
330
1F
100
AcDbEntity
  8
0
  6
CONTINUOUS
 62
     7
100
AcDbLine
 10
-4.173216471745011
 20
227.5824793806426
 30
0.0
 11
-4.127875346573773
 21
227.5790830864408
 31
0.0
  0
LINE
  5
2CE
330
1F
100
AcDbEntity
  8
0
  6
CONTINUOUS
 62
     7
100
AcDbLine
 10
15.7007761704846
 20
222.993523491293
 30
0.0
 11
15.72212644986622
 21
222.9570462045982
 31
0.0
  0
LINE
  5
2CF
330
1F
100
AcDbEntity
  8
0
  6
CONTINUOUS
 62
     7
100
AcDbLine
 10
-4.42360428632238
 20
227.6297556991771
 30
0.0
 11
-4.384735135663474
 21
227.6187549710939
 31
0.0
  0
LINE
  5
2D0
330
1F
100
AcDbEntity
  8
0
  6
CONTINUOUS
 62
     7
100
AcDbLine
 10
-4.775773571842612
 20
227.8720850128938
 30
0.0
 11
-4.760292256991871
 21
227.8478321392685
 31
0.0
  0
LINE
  5
2D1
330
1F
100
AcDbEntity
  8
0
  6
CONTINUOUS
 62
     7
100
AcDbLine
 10
-4.652094494763448
 20
227.7391967067912
 30
0.0
 11
-4.624532568527837
 21
227.7203109158077
 31
0.0
  0
LINE
  5
2D2
330
1F
100
AcDbEntity
  8
0
  6
CONTINUOUS
 62
     7
100
AcDbLine
 10
18.94951083240603
 20
220.0467502609026
 30
0.0
 11
18.98880385854153
 21
220.0285221154735
 31
0.0
  0
LINE
  5
2D3
330
1F
100
AcDbEntity
  8
0
  6
CONTINUOUS
 62
     7
100
AcDbLine
 10
19.02778090515944
 20
220.0121251178997
 30
0.0
 11
19.06616638201605
 21
219.9976776036258
 31
0.0
  0
LINE
  5
2D4
330
1F
100
AcDbEntity
  8
0
  6
CONTINUOUS
 62
     7
100
AcDbLine
 10
19.25154614088925
 20
219.9531831177939
 30
0.0
 11
19.28641241006675
 21
219.9500921503092
 31
0.0
  0
LINE
  5
2D5
330
1F
100
AcDbEntity
  8
0
  6
CONTINUOUS
 62
     7
100
AcDbLine
 10
18.52938937775112
 20
220.3474957535074
 30
0.0
 11
18.56503978652185
 21
220.3138022658627
 31
0.0
  0
LINE
  5
2D6
330
1F
100
AcDbEntity
  8
0
  6
CONTINUOUS
 62
     7
100
AcDbLine
 10
-0.4854395042241388
 20
227.9405034516535
 30
0.0
 11
-0.4365455835909915
 21
227.9444515246396
 31
0.0
  0
LINE
  5
2D7
330
1F
100
AcDbEntity
  8
0
  6
CONTINUOUS
 62
     7
100
AcDbLine
 10
15.62893913533031
 20
223.5418692367824
 30
0.0
 11
16.0229241772794
 21
224.3151084191235
 31
0.0
  0
LINE
  5
2D8
330
1F
100
AcDbEntity
  8
0
  6
CONTINUOUS
 62
     7
100
AcDbLine
 10
0.2908090834315424
 20
228.213323860333
 30
0.0
 11
0.3164362077597571
 21
228.2371662869087
 31
0.0
  0
LINE
  5
2D9
330
1F
100
AcDbEntity
  8
0
  6
CONTINUOUS
 62
     7
100
AcDbLine
 10
18.49468284951328
 20
220.3820750453025
 30
0.0
 11
18.52938937775114
 21
220.3474957535074
 31
0.0
  0
LINE
  5
2DA
330
1F
100
AcDbEntity
  8
0
  6
CONTINUOUS
 62
     7
100
AcDbLine
 10
15.58936625756302
 20
223.3415167521944
 30
0.0
 11
15.59175293166533
 21
223.3092233450225
 31
0.0
  0
LINE
  5
2DB
330
1F
100
AcDbEntity
  8
0
  6
CONTINUOUS
 62
     7
100
AcDbLine
 10
0.3164362077597849
 20
228.2371662869087
 30
0.0
 11
0.339741882267125
 21
228.2614301020688
 31
0.0
  0
LINE
  5
2DC
330
1F
100
AcDbEntity
  8
0
  6
CONTINUOUS
 62
     7
100
AcDbLine
 10
18.87051928535527
 20
220.0883745115569
 30
0.0
 11
18.91003743769624
 21
220.0667281832447
 31
0.0
  0
LINE
  5
2DD
330
1F
100
AcDbEntity
  8
0
  6
CONTINUOUS
 62
     7
100
AcDbLine
 10
-3.891964266320158
 20
227.5817363820143
 30
0.0
 11
-3.844061308190597
 21
227.5861505295744
 31
0.0
  0
LINE
  5
2DE
330
1F
100
AcDbEntity
  8
0
  6
CONTINUOUS
 62
     7
100
AcDbLine
 10
0.584833432108689
 20
229.3328959377261
 30
0.0
 11
0.4488272319110379
 21
228.4741865852229
 31
0.0
  0
LINE
  5
2DF
330
1F
100
AcDbEntity
  8
0
  6
CONTINUOUS
 62
     7
100
AcDbLine
 10
0.019174076088424
 20
228.051476522926
 30
0.0
 11
0.0590123944458308
 21
228.0684799219721
 31
0.0
  0
LINE
  5
2E0
330
1F
100
AcDbEntity
  8
0
  6
CONTINUOUS
 62
     7
100
AcDbLine
 10
0.4431364852270914
 20
228.4460498001016
 30
0.0
 11
0.4488272319110482
 21
228.4741865852229
 31
0.0
  0
LINE
  5
2E1
330
1F
100
AcDbEntity
  8
0
  6
CONTINUOUS
 62
     7
100
AcDbLine
 10
18.71456728613863
 20
220.190108261356
 30
0.0
 11
18.75305239197757
 21
220.1625102228895
 31
0.0
  0
LINE
  5
2E2
330
1F
100
AcDbEntity
  8
0
  6
CONTINUOUS
 62
     7
100
AcDbLine
 10
15.82353639970663
 20
222.8125156737578
 30
0.0
 11
15.85288394908648
 21
222.7768148554497
 31
0.0
  0
LINE
  5
2E3
330
1F
100
AcDbEntity
  8
0
  6
CONTINUOUS
 62
     7
100
AcDbLine
 10
10.58388819029371
 20
179.4987744752075
 30
0.0
 11
10.54726071827889
 21
179.5058800778738
 31
0.0
  0
LINE
  5
2E4
330
1F
100
AcDbEntity
  8
0
  6
CONTINUOUS
 62
     7
100
AcDbLine
 10
10.21562945648918
 20
179.5098435537485
 30
0.0
 11
10.17057301441837
 21
179.5037386807755
 31
0.0
  0
LINE
  5
2E5
330
1F
100
AcDbEntity
  8
0
  6
CONTINUOUS
 62
     7
100
AcDbLine
 10
5.925486424881554
 20
176.8084235976472
 30
0.0
 11
5.879984849889843
 21
177.6766453695705
 31
0.0
  0
LINE
  5
2E6
330
1F
100
AcDbEntity
  8
0
  6
CONTINUOUS
 62
     7
100
AcDbLine
 10
10.8995103605265
 20
179.3075880737199
 30
0.0
 11
10.88341193032675
 21
179.3302366422123
 31
0.0
  0
LINE
  5
2E7
330
1F
100
AcDbEntity
  8
0
  6
CONTINUOUS
 62
     7
100
AcDbLine
 10
10.25976181901106
 20
179.5144376645723
 30
0.0
 11
10.21562945648915
 21
179.5098435537487
 31
0.0
  0
LINE
  5
2E8
330
1F
100
AcDbEntity
  8
0
  6
CONTINUOUS
 62
     7
100
AcDbLine
 10
10.84504616798643
 20
179.3723493086993
 30
0.0
 11
10.82293222316746
 21
179.3916847405353
 31
0.0
  0
LINE
  5
2E9
330
1F
100
AcDbEntity
  8
0
  6
CONTINUOUS
 62
     7
100
AcDbLine
 10
15.85288394908646
 20
222.7768148554496
 30
0.0
 11
15.88365214310541
 21
222.7414955911756
 31
0.0
  0
LINE
  5
2EA
330
1F
100
AcDbEntity
  8
0
  6
CONTINUOUS
 62
     7
100
AcDbLine
 10
10.03281384445387
 20
179.4768188140499
 30
0.0
 11
9.986548377803855
 21
179.4651082752405
 31
0.0
  0
LINE
  5
2EB
330
1F
100
AcDbEntity
  8
0
  6
CONTINUOUS
 62
     7
100
AcDbLine
 10
19.47329053241054
 20
219.9726110706495
 30
0.0
 11
19.50022069710694
 21
219.9830433350945
 31
0.0
  0
LINE
  5
2EC
330
1F
100
AcDbEntity
  8
0
  6
CONTINUOUS
 62
     7
100
AcDbLine
 10
15.68114560908063
 20
223.0299453691262
 30
0.0
 11
15.70077617048456
 21
222.9935234912929
 31
0.0
  0
LINE
  5
2ED
330
1F
100
AcDbEntity
  8
0
  6
CONTINUOUS
 62
     7
100
AcDbLine
 10
15.94900363056562
 20
222.6724608662949
 30
0.0
 11
15.98336350675934
 21
222.6389749764703
 31
0.0
  0
LINE
  5
2EE
330
1F
100
AcDbEntity
  8
0
  6
CONTINUOUS
 62
     7
100
AcDbLine
 10
6.63587203299687
 20
178.3788838071798
 30
0.0
 11
6.589321635809587
 21
178.3636493306708
 31
0.0
  0
LINE
  5
2EF
330
1F
100
AcDbEntity
  8
0
  6
CONTINUOUS
 62
     7
100
AcDbLine
 10
19.41539084789412
 20
219.9574185422176
 30
0.0
 11
19.44497845943841
 21
219.9640650603676
 31
0.0
  0
LINE
  5
2F0
330
1F
100
AcDbEntity
  8
0
  6
CONTINUOUS
 62
     7
100
AcDbLine
 10
19.06616638201608
 20
219.9976776036258
 30
0.0
 11
19.10428680908636
 21
219.9850302355163
 31
0.0
  0
LINE
  5
2F1
330
1F
100
AcDbEntity
  8
0
  6
CONTINUOUS
 62
     7
100
AcDbLine
 10
10.07900994702404
 20
179.4871869611156
 30
0.0
 11
10.03281384445386
 21
179.4768188140498
 31
0.0
  0
LINE
  5
2F2
330
1F
100
AcDbEntity
  8
0
  6
CONTINUOUS
 62
     7
100
AcDbLine
 10
10.17057301441837
 20
179.5037386807755
 30
0.0
 11
10.12498142413777
 21
179.4961733666278
 31
0.0
  0
LINE
  5
2F3
330
1F
100
AcDbEntity
  8
0
  6
CONTINUOUS
 62
     7
100
AcDbLine
 10
16.04823848844272
 20
222.5803205974723
 30
0.0
 11
16.07839646556709
 21
222.5548788629514
 31
0.0
  0
LINE
  5
2F4
330
1F
100
AcDbEntity
  8
0
  6
CONTINUOUS
 62
     7
100
AcDbLine
 10
6.212362689627715
 20
178.1794481169047
 30
0.0
 11
6.176930139554434
 21
178.1545334307944
 31
0.0
  0
LINE
  5
2F5
330
1F
100
AcDbEntity
  8
0
  6
CONTINUOUS
 62
     7
100
AcDbLine
 10
10.88341193032682
 20
179.3302366422122
 30
0.0
 11
10.86523163492649
 21
179.3518451648986
 31
0.0
  0
LINE
  5
2F6
330
1F
100
AcDbEntity
  8
0
  6
CONTINUOUS
 62
     7
100
AcDbLine
 10
19.21577185227175
 20
219.9582594547105
 30
0.0
 11
19.25154614088928
 21
219.9531831177939
 31
0.0
  0
LINE
  5
2F7
330
1F
100
AcDbEntity
  8
0
  6
CONTINUOUS
 62
     7
100
AcDbLine
 10
19.52642214551114
 20
219.9957058465638
 30
0.0
 11
19.55113970455887
 21
220.0103039817018
 31
0.0
  0
LINE
  5
2F8
330
1F
100
AcDbEntity
  8
0
  6
CONTINUOUS
 62
     7
100
AcDbLine
 10
15.64735339712081
 20
223.1021423504633
 30
0.0
 11
15.66331220488314
 21
223.0661917011619
 31
0.0
  0
LINE
  5
2F9
330
1F
100
AcDbEntity
  8
0
  6
CONTINUOUS
 62
     7
100
AcDbLine
 10
16.01869719309718
 20
222.6063297822448
 30
0.0
 11
16.04823848844272
 21
222.5803205974723
 31
0.0
  0
LINE
  5
2FA
330
1F
100
AcDbEntity
  8
0
  6
CONTINUOUS
 62
     7
100
AcDbLine
 10
15.91572927313972
 20
222.7066726663271
 30
0.0
 11
15.94900363056562
 21
222.672460866295
 31
0.0
  0
LINE
  5
2FB
330
1F
100
AcDbEntity
  8
0
  6
CONTINUOUS
 62
     7
100
AcDbLine
 10
18.60150842878572
 20
220.2811056775968
 30
0.0
 11
18.63866965750296
 21
220.2495170839382
 31
0.0
  0
LINE
  5
2FC
330
1F
100
AcDbEntity
  8
0
  6
CONTINUOUS
 62
     7
100
AcDbLine
 10
24.82319931799404
 20
194.812198971867
 30
0.0
 11
24.79403317457109
 21
194.8087030374325
 31
0.0
  0
LINE
  5
2FD
330
1F
100
AcDbEntity
  8
0
  6
CONTINUOUS
 62
     7
100
AcDbLine
 10
6.498219650996062
 20
178.3297722592671
 30
0.0
 11
6.453986132989746
 21
178.3112361962008
 31
0.0
  0
LINE
  5
2FE
330
1F
100
AcDbEntity
  8
0
  6
CONTINUOUS
 62
     7
100
AcDbLine
 10
10.61925473343528
 20
179.490216339065
 30
0.0
 11
10.58388819029369
 21
179.4987744752075
 31
0.0
  0
LINE
  5
2FF
330
1F
100
AcDbEntity
  8
0
  6
CONTINUOUS
 62
     7
100
AcDbLine
 10
10.54726071827888
 20
179.5058800778737
 30
0.0
 11
10.50948857535196
 21
179.5115042983769
 31
0.0
  0
LINE
  5
300
330
1F
100
AcDbEntity
  8
0
  6
CONTINUOUS
 62
     7
100
AcDbLine
 10
6.287906121633213
 20
178.2270446780078
 30
0.0
 11
6.249400775245619
 21
178.2036441183259
 31
0.0
  0
LINE
  5
301
330
1F
100
AcDbEntity
  8
0
  6
CONTINUOUS
 62
     7
100
AcDbLine
 10
10.86523163492648
 20
179.3518451648985
 30
0.0
 11
10.84504616798641
 21
179.3723493086991
 31
0.0
  0
LINE
  5
302
330
1F
100
AcDbEntity
  8
0
  6
CONTINUOUS
 62
     7
100
AcDbLine
 10
10.74578645804564
 20
179.4420354334613
 30
0.0
 11
10.71662621000878
 21
179.4561152166441
 31
0.0
  0
LINE
  5
303
330
1F
100
AcDbEntity
  8
0
  6
CONTINUOUS
 62
     7
100
AcDbLine
 10
15.5943983541742
 20
223.4335022910472
 30
0.0
 11
15.59070409186183
 21
223.403696167485
 31
0.0
  0
LINE
  5
304
330
1F
100
AcDbEntity
  8
0
  6
CONTINUOUS
 62
     7
100
AcDbLine
 10
16.07839646556708
 20
222.5548788629514
 30
0.0
 11
16.10910340971211
 21
222.5300604208932
 31
0.0
  0
LINE
  5
305
330
1F
100
AcDbEntity
  8
0
  6
CONTINUOUS
 62
     7
100
AcDbLine
 10
18.63866965750294
 20
220.2495170839381
 30
0.0
 11
18.67639782563382
 21
220.219147580115
 31
0.0
  0
LINE
  5
306
330
1F
100
AcDbEntity
  8
0
  6
CONTINUOUS
 62
     7
100
AcDbLine
 10
10.50948857535194
 20
179.511504298377
 30
0.0
 11
10.47037499589315
 21
179.5156588900915
 31
0.0
  0
LINE
  5
307
330
1F
100
AcDbEntity
  8
0
  6
CONTINUOUS
 62
     7
100
AcDbLine
 10
19.500220697107
 20
219.9830433350944
 30
0.0
 11
19.52642214551115
 21
219.9957058465638
 31
0.0
  0
LINE
  5
308
330
1F
100
AcDbEntity
  8
0
  6
CONTINUOUS
 62
     7
100
AcDbLine
 10
19.35281448790332
 20
219.9498769341879
 30
0.0
 11
19.38463406748124
 21
219.9526847541682
 31
0.0
  0
LINE
  5
309
330
1F
100
AcDbEntity
  8
0
  6
CONTINUOUS
 62
     7
100
AcDbLine
 10
10.7732256745362
 20
179.4265921359957
 30
0.0
 11
10.74578645804564
 21
179.4420354334614
 31
0.0
  0
LINE
  5
30A
330
1F
100
AcDbEntity
  8
0
  6
CONTINUOUS
 62
     7
100
AcDbLine
 10
19.32003847886399
 20
219.9490083202453
 30
0.0
 11
19.35281448790332
 21
219.9498769341879
 31
0.0
  0
LINE
  5
30B
330
1F
100
AcDbEntity
  8
0
  6
CONTINUOUS
 62
     7
100
AcDbLine
 10
9.940368808450616
 20
179.4520946944982
 30
0.0
 11
9.894430397770888
 21
179.4378174216331
 31
0.0
  0
LINE
  5
30C
330
1F
100
AcDbEntity
  8
0
  6
CONTINUOUS
 62
     7
100
AcDbLine
 10
15.7221264498662
 20
222.9570462045982
 30
0.0
 11
15.74511900799676
 21
222.9206336459784
 31
0.0
  0
LINE
  5
30D
330
1F
100
AcDbEntity
  8
0
  6
CONTINUOUS
 62
     7
100
AcDbLine
 10
15.61090623163813
 20
223.2078466114953
 30
0.0
 11
15.62117793990038
 21
223.1729392186194
 31
0.0
  0
LINE
  5
30E
330
1F
100
AcDbEntity
  8
0
  6
CONTINUOUS
 62
     7
100
AcDbLine
 10
9.894430397770936
 20
179.437817421633
 30
0.0
 11
9.857135135353454
 21
179.4252385017892
 31
0.0
  0
LINE
  5
30F
330
1F
100
AcDbEntity
  8
0
  6
CONTINUOUS
 62
     7
100
AcDbLine
 10
5.980313512494395
 20
177.9646614384728
 30
0.0
 11
5.960203521541605
 21
177.9360118473722
 31
0.0
  0
LINE
  5
310
330
1F
100
AcDbEntity
  8
0
  6
CONTINUOUS
 62
     7
100
AcDbLine
 10
5.902059144138772
 20
177.8206500477189
 30
0.0
 11
5.893021391931152
 21
177.7917031654093
 31
0.0
  0
LINE
  5
311
330
1F
100
AcDbEntity
  8
0
  6
CONTINUOUS
 62
     7
100
AcDbLine
 10
15.66331220488315
 20
223.0661917011618
 30
0.0
 11
15.68114560908064
 21
223.0299453691263
 31
0.0
  0
LINE
  5
312
330
1F
100
AcDbEntity
  8
0
  6
CONTINUOUS
 62
     7
100
AcDbLine
 10
19.1420135924395
 20
219.9742200582251
 30
0.0
 11
19.17921813814488
 21
219.9652841164053
 31
0.0
  0
LINE
  5
313
330
1F
100
AcDbEntity
  8
0
  6
CONTINUOUS
 62
     7
100
AcDbLine
 10
19.38463406748125
 20
219.9526847541682
 30
0.0
 11
19.41539084789414
 21
219.9574185422176
 31
0.0
  0
LINE
  5
314
330
1F
100
AcDbEntity
  8
0
  6
CONTINUOUS
 62
     7
100
AcDbLine
 10
15.79572120358963
 20
222.8484832607086
 30
0.0
 11
15.82353639970662
 21
222.8125156737577
 31
0.0
  0
LINE
  5
315
330
1F
100
AcDbEntity
  8
0
  6
CONTINUOUS
 62
     7
100
AcDbLine
 10
24.79403317457107
 20
194.8087030374326
 30
0.0
 11
24.76454427669554
 21
194.8030058909604
 31
0.0
  0
LINE
  5
316
330
1F
100
AcDbEntity
  8
0
  6
CONTINUOUS
 62
     7
100
AcDbLine
 10
5.942451862774367
 20
177.9074327325961
 30
0.0
 11
5.926816099995076
 21
177.8786135691621
 31
0.0
  0
LINE
  5
317
330
1F
100
AcDbEntity
  8
0
  6
CONTINUOUS
 62
     7
100
AcDbLine
 10
6.081523591380866
 20
178.0762682018971
 30
0.0
 11
6.053298311550597
 21
178.0490009377559
 31
0.0
  0
LINE
  5
318
330
1F
100
AcDbEntity
  8
0
  6
CONTINUOUS
 62
     7
100
AcDbLine
 10
18.56503978652185
 20
220.3138022658627
 30
0.0
 11
18.6015084287857
 21
220.2811056775968
 31
0.0
  0
LINE
  5
319
330
1F
100
AcDbEntity
  8
0
  6
CONTINUOUS
 62
     7
100
AcDbLine
 10
6.249400775245717
 20
178.2036441183259
 30
0.0
 11
6.212362689627778
 21
178.1794481169046
 31
0.0
  0
LINE
  5
31A
330
1F
100
AcDbEntity
  8
0
  6
CONTINUOUS
 62
     7
100
AcDbLine
 10
10.30341462082207
 20
179.5175911479845
 30
0.0
 11
10.25976181901109
 21
179.5144376645723
 31
0.0
  0
LINE
  5
31B
330
1F
100
AcDbEntity
  8
0
  6
CONTINUOUS
 62
     7
100
AcDbLine
 10
24.49525515204787
 20
194.6559439458721
 30
0.0
 11
24.46599559557314
 21
194.6296568561643
 31
0.0
  0
LINE
  5
31C
330
1F
100
AcDbEntity
  8
0
  6
CONTINUOUS
 62
     7
100
AcDbLine
 10
22.76602865233751
 20
191.0637322343398
 30
0.0
 11
22.74500082352288
 21
191.0194148204878
 31
0.0
  0
LINE
  5
31D
330
1F
100
AcDbEntity
  8
0
  6
CONTINUOUS
 62
     7
100
AcDbLine
 10
9.986548377803883
 20
179.4651082752405
 30
0.0
 11
9.940368808450685
 21
179.4520946944982
 31
0.0
  0
LINE
  5
31E
330
1F
100
AcDbEntity
  8
0
  6
CONTINUOUS
 62
     7
100
AcDbLine
 10
10.65324408974244
 20
179.4802345181326
 30
0.0
 11
10.6192547334353
 21
179.490216339065
 31
0.0
  0
LINE
  5
31F
330
1F
100
AcDbEntity
  8
0
  6
CONTINUOUS
 62
     7
100
AcDbLine
 10
9.820022958379914
 20
179.4118417947332
 30
0.0
 11
9.783176085002578
 21
179.3976580220601
 31
0.0
  0
LINE
  5
320
330
1F
100
AcDbEntity
  8
0
  6
CONTINUOUS
 62
     7
100
AcDbLine
 10
10.47037499589321
 20
179.5156588900915
 30
0.0
 11
10.43006804945765
 21
179.5183378750382
 31
0.0
  0
LINE
  5
321
330
1F
100
AcDbEntity
  8
0
  6
CONTINUOUS
 62
     7
100
AcDbLine
 10
5.881835941130342
 20
177.734372846863
 30
0.0
 11
5.879701273536465
 21
177.7053504711943
 31
0.0
  0
LINE
  5
322
330
1F
100
AcDbEntity
  8
0
  6
CONTINUOUS
 62
     7
100
AcDbLine
 10
24.24936275140588
 20
194.3599410504306
 30
0.0
 11
24.22528002980545
 21
194.3197645061249
 31
0.0
  0
LINE
  5
323
330
1F
100
AcDbEntity
  8
0
  6
CONTINUOUS
 62
     7
100
AcDbLine
 10
24.29985919543626
 20
194.4364528072095
 30
0.0
 11
24.27424735579319
 21
194.398884388076
 31
0.0
  0
LINE
  5
324
330
1F
100
AcDbEntity
  8
0
  6
CONTINUOUS
 62
     7
100
AcDbLine
 10
9.857135135353467
 20
179.4252385017892
 30
0.0
 11
9.820022958379914
 21
179.4118417947332
 31
0.0
  0
LINE
  5
325
330
1F
100
AcDbEntity
  8
0
  6
CONTINUOUS
 62
     7
100
AcDbLine
 10
24.22528002980545
 20
194.3197645061248
 30
0.0
 11
24.20207383852304
 21
194.2784964670094
 31
0.0
  0
LINE
  5
326
330
1F
100
AcDbEntity
  8
0
  6
CONTINUOUS
 62
     7
100
AcDbLine
 10
24.70499472506993
 20
194.7850637509629
 30
0.0
 11
24.67501939260331
 21
194.7728146773833
 31
0.0
  0
LINE
  5
327
330
1F
100
AcDbEntity
  8
0
  6
CONTINUOUS
 62
     7
100
AcDbLine
 10
10.43006804945762
 20
179.5183378750382
 30
0.0
 11
10.38871049729848
 21
179.5195482490886
 31
0.0
  0
LINE
  5
328
330
1F
100
AcDbEntity
  8
0
  6
CONTINUOUS
 62
     7
100
AcDbLine
 10
10.8995103605265
 20
179.3075880737199
 30
0.0
 11
11.37216261466094
 21
178.5797674275103
 31
0.0
  0
LINE
  5
329
330
1F
100
AcDbEntity
  8
0
  6
CONTINUOUS
 62
     7
100
AcDbLine
 10
5.879701273536431
 20
177.7053504711943
 30
0.0
 11
5.879984849889872
 21
177.6766453695705
 31
0.0
  0
LINE
  5
32A
330
1F
100
AcDbEntity
  8
0
  6
CONTINUOUS
 62
     7
100
AcDbLine
 10
0.3985439394607604
 20
177.2400660574236
 30
0.0
 11
0.3818637434571046
 21
177.2658879313101
 31
0.0
  0
LINE
  5
32B
330
1F
100
AcDbEntity
  8
0
  6
CONTINUOUS
 62
     7
100
AcDbLine
 10
22.62500464540928
 20
190.6592255454437
 30
0.0
 11
22.61662954447367
 21
190.6149524658335
 31
0.0
  0
LINE
  5
32C
330
1F
100
AcDbEntity
  8
0
  6
CONTINUOUS
 62
     7
100
AcDbLine
 10
6.589321635809609
 20
178.3636493306707
 30
0.0
 11
6.543384496872716
 21
178.3472610593952
 31
0.0
  0
LINE
  5
32D
330
1F
100
AcDbEntity
  8
0
  6
CONTINUOUS
 62
     7
100
AcDbLine
 10
24.61468434194197
 20
194.7418515455094
 30
0.0
 11
24.58452308477164
 21
194.7232716731415
 31
0.0
  0
LINE
  5
32E
330
1F
100
AcDbEntity
  8
0
  6
CONTINUOUS
 62
     7
100
AcDbLine
 10
24.15858963703665
 20
194.1932527517554
 30
0.0
 11
24.138460921895
 21
194.1495604993187
 31
0.0
  0
LINE
  5
32F
330
1F
100
AcDbEntity
  8
0
  6
CONTINUOUS
 62
     7
100
AcDbLine
 10
22.70661486377912
 20
190.9295234381962
 30
0.0
 11
22.6893903943906
 21
190.8842571252554
 31
0.0
  0
LINE
  5
330
330
1F
100
AcDbEntity
  8
0
  6
CONTINUOUS
 62
     7
100
AcDbLine
 10
22.64633167066765
 20
190.7488296284678
 30
0.0
 11
22.63491718156701
 21
190.7039026392136
 31
0.0
  0
LINE
  5
331
330
1F
100
AcDbEntity
  8
0
  6
CONTINUOUS
 62
     7
100
AcDbLine
 10
6.053298311550548
 20
178.0490009377559
 30
0.0
 11
6.026957286075156
 21
178.0212488269485
 31
0.0
  0
LINE
  5
332
330
1F
100
AcDbEntity
  8
0
  6
CONTINUOUS
 62
     7
100
AcDbLine
 10
22.78819060608683
 20
191.1074256929965
 30
0.0
 11
22.76602865233757
 21
191.0637322343398
 31
0.0
  0
LINE
  5
333
330
1F
100
AcDbEntity
  8
0
  6
CONTINUOUS
 62
     7
100
AcDbLine
 10
24.12285347953125
 20
194.113427777776
 30
0.0
 11
24.10797627957674
 21
194.0768839087804
 31
0.0
  0
LINE
  5
334
330
1F
100
AcDbEntity
  8
0
  6
CONTINUOUS
 62
     7
100
AcDbLine
 10
24.40846102309741
 20
194.5715707957526
 30
0.0
 11
24.38036666105321
 21
194.5399933719246
 31
0.0
  0
LINE
  5
335
330
1F
100
AcDbEntity
  8
0
  6
CONTINUOUS
 62
     7
100
AcDbLine
 10
24.27424735579314
 20
194.3988843880759
 30
0.0
 11
24.24936275140584
 21
194.3599410504306
 31
0.0
  0
LINE
  5
336
330
1F
100
AcDbEntity
  8
0
  6
CONTINUOUS
 62
     7
100
AcDbLine
 10
24.10797627957678
 20
194.0768839087803
 30
0.0
 11
24.09386150611913
 21
194.0400105490857
 31
0.0
  0
LINE
  5
337
330
1F
100
AcDbEntity
  8
0
  6
CONTINUOUS
 62
     7
100
AcDbLine
 10
6.73017646288293
 20
178.4056783122419
 30
0.0
 11
6.682876653624603
 21
178.3929112230082
 31
0.0
  0
LINE
  5
338
330
1F
100
AcDbEntity
  8
0
  6
CONTINUOUS
 62
     7
100
AcDbLine
 10
24.20207383852302
 20
194.2784964670095
 30
0.0
 11
24.17981882508974
 21
194.236278644936
 31
0.0
  0
LINE
  5
339
330
1F
100
AcDbEntity
  8
0
  6
CONTINUOUS
 62
     7
100
AcDbLine
 10
22.65921263043213
 20
190.7938523945312
 30
0.0
 11
22.64633167066765
 21
190.7488296284678
 31
0.0
  0
LINE
  5
33A
330
1F
100
AcDbEntity
  8
0
  6
CONTINUOUS
 62
     7
100
AcDbLine
 10
24.90776995283966
 20
194.8093400302968
 30
0.0
 11
25.76491218935178
 21
194.6735820368881
 31
0.0
  0
LINE
  5
33B
330
1F
100
AcDbEntity
  8
0
  6
CONTINUOUS
 62
     7
100
AcDbLine
 10
10.38871049729845
 20
179.5195482490886
 30
0.0
 11
10.34644510066888
 21
179.5192970081135
 31
0.0
  0
LINE
  5
33C
330
1F
100
AcDbEntity
  8
0
  6
CONTINUOUS
 62
     7
100
AcDbLine
 10
24.38036666105326
 20
194.5399933719245
 30
0.0
 11
24.35284135110937
 21
194.5068740502659
 31
0.0
  0
LINE
  5
33D
330
1F
100
AcDbEntity
  8
0
  6
CONTINUOUS
 62
     7
100
AcDbLine
 10
24.43703411026354
 20
194.6014955483117
 30
0.0
 11
24.40846102309743
 21
194.5715707957525
 31
0.0
  0
LINE
  5
33E
330
1F
100
AcDbEntity
  8
0
  6
CONTINUOUS
 62
     7
100
AcDbLine
 10
24.64488285472321
 20
194.7583882445776
 30
0.0
 11
24.61468434194193
 21
194.7418515455093
 31
0.0
  0
LINE
  5
33F
330
1F
100
AcDbEntity
  8
0
  6
CONTINUOUS
 62
     7
100
AcDbLine
 10
6.143241399800825
 20
178.1289768170455
 30
0.0
 11
6.111536746989679
 21
178.1029577760883
 31
0.0
  0
LINE
  5
340
330
1F
100
AcDbEntity
  8
0
  6
CONTINUOUS
 62
     7
100
AcDbLine
 10
10.3464451006689
 20
179.5192970081134
 30
0.0
 11
10.30341462082205
 21
179.5175911479844
 31
0.0
  0
LINE
  5
341
330
1F
100
AcDbEntity
  8
0
  6
CONTINUOUS
 62
     7
100
AcDbLine
 10
6.176930139554448
 20
178.1545334307943
 30
0.0
 11
6.143241399800874
 21
178.1289768170455
 31
0.0
  0
LINE
  5
342
330
1F
100
AcDbEntity
  8
0
  6
CONTINUOUS
 62
     7
100
AcDbLine
 10
6.682876653624603
 20
178.3929112230083
 30
0.0
 11
6.635872032996856
 21
178.3788838071798
 31
0.0
  0
LINE
  5
343
330
1F
100
AcDbEntity
  8
0
  6
CONTINUOUS
 62
     7
100
AcDbLine
 10
5.893021391931152
 20
177.7917031654094
 30
0.0
 11
5.88626641745011
 21
177.7629111858408
 31
0.0
  0
LINE
  5
344
330
1F
100
AcDbEntity
  8
0
  6
CONTINUOUS
 62
     7
100
AcDbLine
 10
6.368765497617335
 20
178.2711524439502
 30
0.0
 11
6.327740454015531
 21
178.2495730388991
 31
0.0
  0
LINE
  5
345
330
1F
100
AcDbEntity
  8
0
  6
CONTINUOUS
 62
     7
100
AcDbLine
 10
10.71662621000879
 20
179.4561152166441
 30
0.0
 11
10.68574000125401
 21
179.4688578610966
 31
0.0
  0
LINE
  5
346
330
1F
100
AcDbEntity
  8
0
  6
CONTINUOUS
 62
     7
100
AcDbLine
 10
6.026957286075163
 20
178.0212488269486
 30
0.0
 11
6.002596893530998
 21
177.9931047127597
 31
0.0
  0
LINE
  5
347
330
1F
100
AcDbEntity
  8
0
  6
CONTINUOUS
 62
     7
100
AcDbLine
 10
6.54338449687264
 20
178.3472610593952
 30
0.0
 11
6.498219650996083
 21
178.3297722592671
 31
0.0
  0
LINE
  5
348
330
1F
100
AcDbEntity
  8
0
  6
CONTINUOUS
 62
     7
100
AcDbLine
 10
6.111536746989721
 20
178.1029577760883
 30
0.0
 11
6.081523591380838
 21
178.0762682018971
 31
0.0
  0
LINE
  5
349
330
1F
100
AcDbEntity
  8
0
  6
CONTINUOUS
 62
     7
100
AcDbLine
 10
10.12498142413776
 20
179.4961733666277
 30
0.0
 11
10.07900994702406
 21
179.4871869611157
 31
0.0
  0
LINE
  5
34A
330
1F
100
AcDbEntity
  8
0
  6
CONTINUOUS
 62
     7
100
AcDbLine
 10
6.327740454015462
 20
178.2495730388992
 30
0.0
 11
6.287906121633241
 21
178.2270446780078
 31
0.0
  0
LINE
  5
34B
330
1F
100
AcDbEntity
  8
0
  6
CONTINUOUS
 62
     7
100
AcDbLine
 10
10.685740001254
 20
179.4688578610967
 30
0.0
 11
10.65324408974243
 21
179.4802345181325
 31
0.0
  0
LINE
  5
34C
330
1F
100
AcDbEntity
  8
0
  6
CONTINUOUS
 62
     7
100
AcDbLine
 10
10.82293222316744
 20
179.3916847405352
 30
0.0
 11
10.79896649413042
 21
179.409787127327
 31
0.0
  0
LINE
  5
34D
330
1F
100
AcDbEntity
  8
0
  6
CONTINUOUS
 62
     7
100
AcDbLine
 10
5.960203521541585
 20
177.9360118473722
 30
0.0
 11
5.942451862774374
 21
177.9074327325962
 31
0.0
  0
LINE
  5
34E
330
1F
100
AcDbEntity
  8
0
  6
CONTINUOUS
 62
     7
100
AcDbLine
 10
5.926816099995125
 20
177.8786135691621
 30
0.0
 11
5.913337953638361
 21
177.8496530949198
 31
0.0
  0
LINE
  5
34F
330
1F
100
AcDbEntity
  8
0
  6
CONTINUOUS
 62
     7
100
AcDbLine
 10
24.88016683399907
 20
194.812531415564
 30
0.0
 11
24.85194358009356
 21
194.8134797469991
 31
0.0
  0
LINE
  5
350
330
1F
100
AcDbEntity
  8
0
  6
CONTINUOUS
 62
     7
100
AcDbLine
 10
6.002596893530998
 20
177.9931047127596
 30
0.0
 11
5.980313512494346
 21
177.9646614384728
 31
0.0
  0
LINE
  5
351
330
1F
100
AcDbEntity
  8
0
  6
CONTINUOUS
 62
     7
100
AcDbLine
 10
6.453986132989808
 20
178.3112361962007
 30
0.0
 11
6.4108429776637
 21
178.2917061361101
 31
0.0
  0
LINE
  5
352
330
1F
100
AcDbEntity
  8
0
  6
CONTINUOUS
 62
     7
100
AcDbLine
 10
6.4108429776637
 20
178.2917061361101
 30
0.0
 11
6.3687654976173
 21
178.2711524439503
 31
0.0
  0
LINE
  5
353
330
1F
100
AcDbEntity
  8
0
  6
CONTINUOUS
 62
     7
100
AcDbLine
 10
24.85194358009357
 20
194.8134797469991
 30
0.0
 11
24.82319931799395
 21
194.812198971867
 31
0.0
  0
LINE
  5
354
330
1F
100
AcDbEntity
  8
0
  6
CONTINUOUS
 62
     7
100
AcDbLine
 10
5.886266417450103
 20
177.7629111858407
 30
0.0
 11
5.881835941130308
 21
177.734372846863
 31
0.0
  0
LINE
  5
355
330
1F
100
AcDbEntity
  8
0
  6
CONTINUOUS
 62
     7
100
AcDbLine
 10
10.79896649413042
 20
179.4097871273271
 30
0.0
 11
10.77322567453619
 21
179.4265921359956
 31
0.0
  0
LINE
  5
356
330
1F
100
AcDbEntity
  8
0
  6
CONTINUOUS
 62
     7
100
AcDbLine
 10
0.4130748183262534
 20
177.2137809640199
 30
0.0
 11
0.3985439394607812
 21
177.2400660574236
 31
0.0
  0
LINE
  5
357
330
1F
100
AcDbEntity
  8
0
  6
CONTINUOUS
 62
     7
100
AcDbLine
 10
24.90776995283966
 20
194.8093400302968
 30
0.0
 11
24.88016683399908
 21
194.8125314155639
 31
0.0
  0
LINE
  5
358
330
1F
100
AcDbEntity
  8
0
  6
CONTINUOUS
 62
     7
100
AcDbLine
 10
22.72517395041335
 20
190.9746272791902
 30
0.0
 11
22.70661486377911
 21
190.9295234381962
 31
0.0
  0
LINE
  5
359
330
1F
100
AcDbEntity
  8
0
  6
CONTINUOUS
 62
     7
100
AcDbLine
 10
22.67356737301818
 20
190.8389821681171
 30
0.0
 11
22.65921263043216
 21
190.7938523945311
 31
0.0
  0
LINE
  5
35A
330
1F
100
AcDbEntity
  8
0
  6
CONTINUOUS
 62
     7
100
AcDbLine
 10
5.913337953638298
 20
177.8496530949198
 30
0.0
 11
5.902059144138772
 21
177.8206500477189
 31
0.0
  0
LINE
  5
35B
330
1F
100
AcDbEntity
  8
0
  6
CONTINUOUS
 62
     7
100
AcDbLine
 10
24.46599559557317
 20
194.6296568561643
 30
0.0
 11
24.43703411026352
 21
194.6014955483117
 31
0.0
  0
LINE
  5
35C
330
1F
100
AcDbEntity
  8
0
  6
CONTINUOUS
 62
     7
100
AcDbLine
 10
24.35284135110932
 20
194.506874050266
 30
0.0
 11
24.32597542024419
 21
194.4723236042149
 31
0.0
  0
LINE
  5
35D
330
1F
100
AcDbEntity
  8
0
  6
CONTINUOUS
 62
     7
100
AcDbLine
 10
23.43673944914859
 20
189.4406524394563
 30
0.0
 11
22.76107843551238
 21
189.9877919401513
 31
0.0
  0
LINE
  5
35E
330
1F
100
AcDbEntity
  8
0
  6
CONTINUOUS
 62
     7
100
AcDbLine
 10
22.63491718156696
 20
190.7039026392134
 30
0.0
 11
22.62500464540925
 21
190.6592255454436
 31
0.0
  0
LINE
  5
35F
330
1F
100
AcDbEntity
  8
0
  6
CONTINUOUS
 62
     7
100
AcDbLine
 10
22.68939039439055
 20
190.8842571252553
 30
0.0
 11
22.67356737301811
 21
190.8389821681172
 31
0.0
  0
LINE
  5
360
330
1F
100
AcDbEntity
  8
0
  6
CONTINUOUS
 62
     7
100
AcDbLine
 10
22.59920503788182
 20
190.445127213382
 30
0.0
 11
22.59895653582495
 21
190.404964281133
 31
0.0
  0
LINE
  5
361
330
1F
100
AcDbEntity
  8
0
  6
CONTINUOUS
 62
     7
100
AcDbLine
 10
0.4433325868459792
 20
177.1330460198521
 30
0.0
 11
0.4355130385436216
 21
177.1601809799197
 31
0.0
  0
LINE
  5
362
330
1F
100
AcDbEntity
  8
0
  6
CONTINUOUS
 62
     7
100
AcDbLine
 10
-0.1373085300810928
 20
177.5814857267836
 30
0.0
 11
-0.1820356107689047
 21
177.5931182387915
 31
0.0
  0
LINE
  5
363
330
1F
100
AcDbEntity
  8
0
  6
CONTINUOUS
 62
     7
100
AcDbLine
 10
24.17981882508974
 20
194.2362786449361
 30
0.0
 11
24.1585896370367
 21
194.1932527517553
 31
0.0
  0
LINE
  5
364
330
1F
100
AcDbEntity
  8
0
  6
CONTINUOUS
 62
     7
100
AcDbLine
 10
24.32597542024417
 20
194.4723236042149
 30
0.0
 11
24.29985919543617
 21
194.4364528072095
 31
0.0
  0
LINE
  5
365
330
1F
100
AcDbEntity
  8
0
  6
CONTINUOUS
 62
     7
100
AcDbLine
 10
22.74500082352293
 20
191.0194148204879
 30
0.0
 11
22.72517395041333
 21
190.9746272791902
 31
0.0
  0
LINE
  5
366
330
1F
100
AcDbEntity
  8
0
  6
CONTINUOUS
 62
     7
100
AcDbLine
 10
22.59895653582489
 20
190.4049642811329
 30
0.0
 11
22.60033366346893
 21
190.3657434494908
 31
0.0
  0
LINE
  5
367
330
1F
100
AcDbEntity
  8
0
  6
CONTINUOUS
 62
     7
100
AcDbLine
 10
22.64232303585423
 20
190.1577374451956
 30
0.0
 11
22.65482622218655
 21
190.1283428907832
 31
0.0
  0
LINE
  5
368
330
1F
100
AcDbEntity
  8
0
  6
CONTINUOUS
 62
     7
100
AcDbLine
 10
22.65482622218662
 20
190.1283428907832
 30
0.0
 11
22.66883268999761
 21
190.1005542753063
 31
0.0
  0
LINE
  5
369
330
1F
100
AcDbEntity
  8
0
  6
CONTINUOUS
 62
     7
100
AcDbLine
 10
24.58452308477166
 20
194.7232716731415
 30
0.0
 11
24.55449831372442
 21
194.7027157204373
 31
0.0
  0
LINE
  5
36A
330
1F
100
AcDbEntity
  8
0
  6
CONTINUOUS
 62
     7
100
AcDbLine
 10
24.52470925931238
 20
194.6802507803597
 30
0.0
 11
24.49525515204789
 21
194.6559439458721
 31
0.0
  0
LINE
  5
36B
330
1F
100
AcDbEntity
  8
0
  6
CONTINUOUS
 62
     7
100
AcDbLine
 10
22.66883268999759
 20
190.1005542753064
 30
0.0
 11
22.68429697918489
 21
190.0744686716073
 31
0.0
  0
LINE
  5
36C
330
1F
100
AcDbEntity
  8
0
  6
CONTINUOUS
 62
     7
100
AcDbLine
 10
0.4488272319110864
 20
177.1058077015255
 30
0.0
 11
0.4433325868460104
 21
177.1330460198521
 31
0.0
  0
LINE
  5
36D
330
1F
100
AcDbEntity
  8
0
  6
CONTINUOUS
 62
     7
100
AcDbLine
 10
22.60463357738518
 20
190.5282348237938
 30
0.0
 11
22.60108367579052
 21
190.4860984987149
 31
0.0
  0
LINE
  5
36E
330
1F
100
AcDbEntity
  8
0
  6
CONTINUOUS
 62
     7
100
AcDbLine
 10
0.1056900077258671
 20
177.4892766149408
 30
0.0
 11
0.068400307289801
 21
177.5072039785876
 31
0.0
  0
LINE
  5
36F
330
1F
100
AcDbEntity
  8
0
  6
CONTINUOUS
 62
     7
100
AcDbLine
 10
-0.0103173779540944
 20
177.5401090362299
 30
0.0
 11
-0.0514788340189101
 21
177.5549833798525
 31
0.0
  0
LINE
  5
370
330
1F
100
AcDbEntity
  8
0
  6
CONTINUOUS
 62
     7
100
AcDbLine
 10
22.60982736103923
 20
190.5712375190583
 30
0.0
 11
22.60463357738513
 21
190.5282348237938
 31
0.0
  0
LINE
  5
371
330
1F
100
AcDbEntity
  8
0
  6
CONTINUOUS
 62
     7
100
AcDbLine
 10
-4.064970875636564
 20
178.0034588751105
 30
0.0
 11
-4.111770506153894
 21
178.0017965959831
 31
0.0
  0
LINE
  5
372
330
1F
100
AcDbEntity
  8
0
  6
CONTINUOUS
 62
     7
100
AcDbLine
 10
-0.4949297723892965
 20
177.6401152969914
 30
0.0
 11
-0.5343601262746966
 21
177.6421447494789
 31
0.0
  0
LINE
  5
373
330
1F
100
AcDbEntity
  8
0
  6
CONTINUOUS
 62
     7
100
AcDbLine
 10
-4.334454052057346
 20
177.9732862958014
 30
0.0
 11
-4.375625058517511
 21
177.9636416123154
 31
0.0
  0
LINE
  5
374
330
1F
100
AcDbEntity
  8
0
  6
CONTINUOUS
 62
     7
100
AcDbLine
 10
-5.111671510195093
 20
176.8458251446704
 30
0.0
 11
-4.800101658386877
 21
177.6574923585042
 31
0.0
  0
LINE
  5
375
330
1F
100
AcDbEntity
  8
0
  6
CONTINUOUS
 62
     7
100
AcDbLine
 10
0.2076837953978172
 20
177.4302292982195
 30
0.0
 11
0.1754648023689111
 21
177.4507305939289
 31
0.0
  0
LINE
  5
376
330
1F
100
AcDbEntity
  8
0
  6
CONTINUOUS
 62
     7
100
AcDbLine
 10
0.4355130385436112
 20
177.1601809799197
 30
0.0
 11
0.4254124835287518
 21
177.1871226164139
 31
0.0
  0
LINE
  5
377
330
1F
100
AcDbEntity
  8
0
  6
CONTINUOUS
 62
     7
100
AcDbLine
 10
22.6010836757905
 20
190.4860984987149
 30
0.0
 11
22.59920503788181
 21
190.4451272133821
 31
0.0
  0
LINE
  5
378
330
1F
100
AcDbEntity
  8
0
  6
CONTINUOUS
 62
     7
100
AcDbLine
 10
24.76454427669555
 20
194.8030058909603
 30
0.0
 11
24.73483175123824
 21
194.7951214797155
 31
0.0
  0
LINE
  5
379
330
1F
100
AcDbEntity
  8
0
  6
CONTINUOUS
 62
     7
100
AcDbLine
 10
24.55449831372442
 20
194.7027157204373
 30
0.0
 11
24.52470925931244
 21
194.6802507803597
 31
0.0
  0
LINE
  5
37A
330
1F
100
AcDbEntity
  8
0
  6
CONTINUOUS
 62
     7
100
AcDbLine
 10
22.63136859110309
 20
190.1886408657008
 30
0.0
 11
22.64232303585427
 21
190.1577374451956
 31
0.0
  0
LINE
  5
37B
330
1F
100
AcDbEntity
  8
0
  6
CONTINUOUS
 62
     7
100
AcDbLine
 10
24.13846092189498
 20
194.1495604993186
 30
0.0
 11
24.1228534795312
 21
194.1134277777759
 31
0.0
  0
LINE
  5
37C
330
1F
100
AcDbEntity
  8
0
  6
CONTINUOUS
 62
     7
100
AcDbLine
 10
22.70117362964607
 20
190.0501831525285
 30
0.0
 11
22.71941718127873
 21
190.0277947909123
 31
0.0
  0
LINE
  5
37D
330
1F
100
AcDbEntity
  8
0
  6
CONTINUOUS
 62
     7
100
AcDbLine
 10
22.68429697918484
 20
190.0744686716073
 30
0.0
 11
22.70117362964603
 21
190.0501831525285
 31
0.0
  0
LINE
  5
37E
330
1F
100
AcDbEntity
  8
0
  6
CONTINUOUS
 62
     7
100
AcDbLine
 10
22.61417376309716
 20
190.2550710334384
 30
0.0
 11
22.62200834803544
 21
190.2209560794564
 31
0.0
  0
LINE
  5
37F
330
1F
100
AcDbEntity
  8
0
  6
CONTINUOUS
 62
     7
100
AcDbLine
 10
0.4254124835287865
 20
177.1871226164139
 30
0.0
 11
0.4130748183262464
 21
177.2137809640199
 31
0.0
  0
LINE
  5
380
330
1F
100
AcDbEntity
  8
0
  6
CONTINUOUS
 62
     7
100
AcDbLine
 10
22.73955663815847
 20
190.0067886639067
 30
0.0
 11
22.76107843551237
 21
189.9877919401514
 31
0.0
  0
LINE
  5
381
330
1F
100
AcDbEntity
  8
0
  6
CONTINUOUS
 62
     7
100
AcDbLine
 10
-4.675171315067672
 20
177.8229515043705
 30
0.0
 11
-4.699263500524516
 21
177.8019768506792
 31
0.0
  0
LINE
  5
382
330
1F
100
AcDbEntity
  8
0
  6
CONTINUOUS
 62
     7
100
AcDbLine
 10
22.6220083480354
 20
190.2209560794564
 30
0.0
 11
22.63136859110308
 21
190.1886408657008
 31
0.0
  0
LINE
  5
383
330
1F
100
AcDbEntity
  8
0
  6
CONTINUOUS
 62
     7
100
AcDbLine
 10
-9.993891626874307
 20
179.3450570173625
 30
0.0
 11
-9.987832412755713
 21
179.3721753328323
 31
0.0
  0
LINE
  5
384
330
1F
100
AcDbEntity
  8
0
  6
CONTINUOUS
 62
     7
100
AcDbLine
 10
-9.98393914302026
 20
179.4001448491724
 30
0.0
 11
-9.98220830838709
 21
179.428865524653
 31
0.0
  0
LINE
  5
385
330
1F
100
AcDbEntity
  8
0
  6
CONTINUOUS
 62
     7
100
AcDbLine
 10
22.60333191466296
 20
190.327598465979
 30
0.0
 11
22.607946783256
 21
190.2906630781203
 31
0.0
  0
LINE
  5
386
330
1F
100
AcDbEntity
  8
0
  6
CONTINUOUS
 62
     7
100
AcDbLine
 10
-9.982208308387087
 20
179.428865524653
 30
0.0
 11
-9.982636399575563
 21
179.4582373175446
 31
0.0
  0
LINE
  5
387
330
1F
100
AcDbEntity
  8
0
  6
CONTINUOUS
 62
     7
100
AcDbLine
 10
24.73483175123819
 20
194.7951214797157
 30
0.0
 11
24.70499472506991
 21
194.785063750963
 31
0.0
  0
LINE
  5
388
330
1F
100
AcDbEntity
  8
0
  6
CONTINUOUS
 62
     7
100
AcDbLine
 10
-4.490321278904252
 20
177.9271631608521
 30
0.0
 11
-4.525672803464921
 21
177.9125242063613
 31
0.0
  0
LINE
  5
389
330
1F
100
AcDbEntity
  8
0
  6
CONTINUOUS
 62
     7
100
AcDbLine
 10
0.29407343410498
 20
177.3636935928782
 30
0.0
 11
0.2670825843802196
 21
177.3866371567347
 31
0.0
  0
LINE
  5
38A
330
1F
100
AcDbEntity
  8
0
  6
CONTINUOUS
 62
     7
100
AcDbLine
 10
-0.4555771800356379
 20
177.6372589155903
 30
0.0
 11
-0.4949297723892826
 21
177.6401152969914
 31
0.0
  0
LINE
  5
38B
330
1F
100
AcDbEntity
  8
0
  6
CONTINUOUS
 62
     7
100
AcDbLine
 10
-4.203579466445007
 20
177.9943906179084
 30
0.0
 11
-4.248273715823387
 21
177.9886746782351
 31
0.0
  0
LINE
  5
38C
330
1F
100
AcDbEntity
  8
0
  6
CONTINUOUS
 62
     7
100
AcDbLine
 10
-4.774930722065363
 20
177.7094761265288
 30
0.0
 11
-4.788685301602868
 21
177.6838311145979
 31
0.0
  0
LINE
  5
38D
330
1F
100
AcDbEntity
  8
0
  6
CONTINUOUS
 62
     7
100
AcDbLine
 10
22.60033366346897
 20
190.365743449491
 30
0.0
 11
22.60333191466296
 21
190.3275984659791
 31
0.0
  0
LINE
  5
38E
330
1F
100
AcDbEntity
  8
0
  6
CONTINUOUS
 62
     7
100
AcDbLine
 10
-0.3211358024225452
 20
177.62104465822
 30
0.0
 11
-0.3686160383866259
 21
177.6279390836625
 31
0.0
  0
LINE
  5
38F
330
1F
100
AcDbEntity
  8
0
  6
CONTINUOUS
 62
     7
100
AcDbLine
 10
22.61662954447363
 20
190.6149524658335
 30
0.0
 11
22.6098273610392
 21
190.5712375190583
 31
0.0
  0
LINE
  5
390
330
1F
100
AcDbEntity
  8
0
  6
CONTINUOUS
 62
     7
100
AcDbLine
 10
22.60794678325595
 20
190.2906630781202
 30
0.0
 11
22.61417376309709
 21
190.2550710334384
 31
0.0
  0
LINE
  5
391
330
1F
100
AcDbEntity
  8
0
  6
CONTINUOUS
 62
     7
100
AcDbLine
 10
22.71941718127868
 20
190.0277947909124
 30
0.0
 11
22.73955663815844
 21
190.0067886639068
 31
0.0
  0
LINE
  5
392
330
1F
100
AcDbEntity
  8
0
  6
CONTINUOUS
 62
     7
100
AcDbLine
 10
0.1414225942094061
 20
177.4704349283258
 30
0.0
 11
0.1056900077258359
 21
177.489276614941
 31
0.0
  0
LINE
  5
393
330
1F
100
AcDbEntity
  8
0
  6
CONTINUOUS
 62
     7
100
AcDbLine
 10
24.67501939260325
 20
194.7728146773833
 30
0.0
 11
24.64488285472319
 21
194.7583882445777
 31
0.0
  0
LINE
  5
394
330
1F
100
AcDbEntity
  8
0
  6
CONTINUOUS
 62
     7
100
AcDbLine
 10
-0.0936643465502263
 20
177.5687366997608
 30
0.0
 11
-0.137308530081072
 21
177.5814857267836
 31
0.0
  0
LINE
  5
395
330
1F
100
AcDbEntity
  8
0
  6
CONTINUOUS
 62
     7
100
AcDbLine
 10
-3.726888560417529
 20
177.9776930091135
 30
0.0
 11
-3.775291929329526
 21
177.9852682583726
 31
0.0
  0
LINE
  5
396
330
1F
100
AcDbEntity
  8
0
  6
CONTINUOUS
 62
     7
100
AcDbLine
 10
0.1754648023688521
 20
177.450730593929
 30
0.0
 11
0.1414225942094199
 21
177.4704349283258
 31
0.0
  0
LINE
  5
397
330
1F
100
AcDbEntity
  8
0
  6
CONTINUOUS
 62
     7
100
AcDbLine
 10
165.1474540677257
 20
235.2899971433904
 30
0.0
 11
168.3801270797485
 21
235.2899971433904
 31
0.0
  0
LINE
  5
398
330
1F
100
AcDbEntity
  8
0
  6
CONTINUOUS
 62
     7
100
AcDbLine
 10
162.1390795333952
 20
229.7899971433879
 30
0.0
 11
162.1390795333952
 21
202.7899971433744
 31
0.0
  0
LINE
  5
399
330
1F
100
AcDbEntity
  8
0
  6
CONTINUOUS
 62
     7
100
AcDbLine
 10
94.87984647920089
 20
229.039997143387
 30
0.0
 11
94.87984647920089
 21
202.7899971433744
 31
0.0
  0
LINE
  5
39A
330
1F
100
AcDbEntity
  8
0
  6
CONTINUOUS
 62
     7
100
AcDbLine
 10
79.38012707970398
 20
234.7899971433902
 30
0.0
 11
79.38012707970398
 21
202.7899971433742
 31
0.0
  0
LINE
  5
39B
330
1F
100
AcDbEntity
  8
0
  6
CONTINUOUS
 62
     7
100
AcDbLine
 10
170.3801270797496
 20
235.2899971433904
 30
0.0
 11
170.8801270797498
 21
235.2899971433904
 31
0.0
  0
LINE
  5
39C
330
1F
100
AcDbEntity
  8
0
  6
CONTINUOUS
 62
     7
100
AcDbLine
 10
-14.28785643059843
 20
223.4783444717412
 30
0.0
 11
-14.25253448600862
 21
223.4756475620848
 31
0.0
  0
LINE
  5
39D
330
1F
100
AcDbEntity
  8
0
  6
CONTINUOUS
 62
     7
100
AcDbLine
 10
81.88012707970526
 20
202.7899971433743
 30
0.0
 11
81.88012707970526
 21
237.2899971433916
 31
0.0
  0
LINE
  5
39E
330
1F
100
AcDbEntity
  8
0
  6
CONTINUOUS
 62
     7
100
AcDbLine
 10
81.88012707970526
 20
237.2899971433915
 30
0.0
 11
94.88012707971176
 21
237.2899971433915
 31
0.0
  0
LINE
  5
39F
330
1F
100
AcDbEntity
  8
0
  6
CONTINUOUS
 62
     7
100
AcDbLine
 10
-14.32200756847735
 20
223.4827162416182
 30
0.0
 11
-14.28785643059847
 21
223.4783444717413
 31
0.0
  0
LINE
  5
3A0
330
1F
100
AcDbEntity
  8
0
  6
CONTINUOUS
 62
     7
100
AcDbLine
 10
176.3801270797524
 20
235.2899971433904
 30
0.0
 11
176.3801270797524
 21
202.7899971433743
 31
0.0
  0
LINE
  5
3A1
330
1F
100
AcDbEntity
  8
0
  6
CONTINUOUS
 62
     7
100
AcDbLine
 10
74.88012707970182
 20
232.0399971433889
 30
0.0
 11
77.38012707970292
 21
232.0399971433889
 31
0.0
  0
LINE
  5
3A2
330
1F
100
AcDbEntity
  8
0
  6
CONTINUOUS
 62
     7
100
AcDbLine
 10
168.3801270797486
 20
170.289997143358
 30
0.0
 11
170.3801270797496
 21
170.289997143358
 31
0.0
  0
ARC
  5
3A3
330
1F
100
AcDbEntity
  8
0
  6
CONTINUOUS
 62
     7
100
AcDbCircle
 10
0.4948876794765855
 20
202.7899971433743
 30
0.0
 40
26.2500000000131
100
AcDbArc
 50
174.0947182621078
 51
185.9052817378924
  0
LINE
  5
3A4
330
1F
100
AcDbEntity
  8
0
  6
CONTINUOUS
 62
     7
100
AcDbLine
 10
74.88012707970165
 20
232.0399971433889
 30
0.0
 11
74.88012707970165
 21
202.7899971433743
 31
0.0
  0
LINE
  5
3A5
330
1F
100
AcDbEntity
  8
0
  6
CONTINUOUS
 62
     7
100
AcDbLine
 10
168.3801270797486
 20
202.7899971433743
 30
0.0
 11
168.3801270797486
 21
170.289997143358
 31
0.0
  0
LINE
  5
3A6
330
1F
100
AcDbEntity
  8
0
  6
CONTINUOUS
 62
     7
100
AcDbLine
 10
81.88012707970526
 20
237.2899971433915
 30
0.0
 11
94.88012707971176
 21
237.2899971433915
 31
0.0
  0
LINE
  5
3A7
330
1F
100
AcDbEntity
  8
0
  6
CONTINUOUS
 62
     7
100
AcDbLine
 10
99.88012707971416
 20
232.7899971433893
 30
0.0
 11
142.6128000917566
 21
232.7899971433893
 31
0.0
  0
LINE
  5
3A8
330
1F
100
AcDbEntity
  8
0
  6
CONTINUOUS
 62
     7
100
AcDbLine
 10
170.8801270797497
 20
235.2899971433904
 30
0.0
 11
176.3801270797524
 21
235.2899971433904
 31
0.0
  0
LINE
  5
3A9
330
1F
100
AcDbEntity
  8
0
  6
CONTINUOUS
 62
     7
100
AcDbLine
 10
97.88012707971328
 20
202.7899971433743
 30
0.0
 11
97.88012707971328
 21
235.2899971433904
 31
0.0
  0
LINE
  5
3AA
330
1F
100
AcDbEntity
  8
0
  6
CONTINUOUS
 62
     7
100
AcDbLine
 10
94.88012707971177
 20
237.2899971433915
 30
0.0
 11
95.88012707971227
 21
237.2899971433915
 31
0.0
  0
LINE
  5
3AB
330
1F
100
AcDbEntity
  8
0
  6
CONTINUOUS
 62
     7
100
AcDbLine
 10
81.88012707970526
 20
237.2899971433915
 30
0.0
 11
94.88012707971176
 21
237.2899971433915
 31
0.0
  0
LINE
  5
3AC
330
1F
100
AcDbEntity
  8
0
  6
CONTINUOUS
 62
     7
100
AcDbLine
 10
144.9513016450091
 20
202.7899971433743
 30
0.0
 11
144.9513016450091
 21
229.7899971433878
 31
0.0
  0
LINE
  5
3AD
330
1F
100
AcDbEntity
  8
0
  6
CONTINUOUS
 62
     7
100
AcDbLine
 10
168.3801270797486
 20
235.2899971433904
 30
0.0
 11
170.3801270797496
 21
235.2899971433904
 31
0.0
  0
LINE
  5
3AE
330
1F
100
AcDbEntity
  8
0
  6
CONTINUOUS
 62
     7
100
AcDbLine
 10
170.8801270797497
 20
219.0399971433823
 30
0.0
 11
170.8801270797497
 21
203.7899971433746
 31
0.0
  0
LINE
  5
3AF
330
1F
100
AcDbEntity
  8
0
  6
CONTINUOUS
 62
     7
100
AcDbLine
 10
81.88012707970526
 20
237.2899971433915
 30
0.0
 11
94.88012707971176
 21
237.2899971433915
 31
0.0
  0
LINE
  5
3B0
330
1F
100
AcDbEntity
  8
0
  6
CONTINUOUS
 62
     7
100
AcDbLine
 10
81.88012707970526
 20
202.7899971433743
 30
0.0
 11
81.88012707970526
 21
237.2899971433916
 31
0.0
  0
LINE
  5
3B1
330
1F
100
AcDbEntity
  8
0
  6
CONTINUOUS
 62
     7
100
AcDbLine
 10
81.88012707970526
 20
237.2899971433915
 30
0.0
 11
94.88012707971176
 21
237.2899971433915
 31
0.0
  0
LINE
  5
3B2
330
1F
100
AcDbEntity
  8
0
  6
CONTINUOUS
 62
     7
100
AcDbLine
 10
81.88012707970526
 20
237.2899971433915
 30
0.0
 11
94.88012707971176
 21
237.2899971433915
 31
0.0
  0
LINE
  5
3B3
330
1F
100
AcDbEntity
  8
0
  6
CONTINUOUS
 62
     7
100
AcDbLine
 10
94.88012707971177
 20
237.2899971433915
 30
0.0
 11
95.88012707971227
 21
237.2899971433915
 31
0.0
  0
LINE
  5
3B4
330
1F
100
AcDbEntity
  8
0
  6
CONTINUOUS
 62
     7
100
AcDbLine
 10
170.8801270797497
 20
235.2899971433904
 30
0.0
 11
170.8801270797497
 21
234.28999714339
 31
0.0
  0
LINE
  5
3B5
330
1F
100
AcDbEntity
  8
0
  6
CONTINUOUS
 62
     7
100
AcDbLine
 10
94.88012707971177
 20
237.2899971433915
 30
0.0
 11
94.88012707971177
 21
202.7899971433743
 31
0.0
  0
LINE
  5
3B6
330
1F
100
AcDbEntity
  8
0
  6
CONTINUOUS
 62
     7
100
AcDbLine
 10
143.5787259180462
 20
232.0488161884915
 30
0.0
 11
143.9853758187197
 21
230.5311780982857
 31
0.0
  0
LINE
  5
3B7
330
1F
100
AcDbEntity
  8
0
  6
CONTINUOUS
 62
     7
100
AcDbLine
 10
170.8801270797497
 20
203.7899971433746
 30
0.0
 11
170.8801270797497
 21
202.7899971433743
 31
0.0
  0
LINE
  5
3B8
330
1F
100
AcDbEntity
  8
0
  6
CONTINUOUS
 62
     7
100
AcDbLine
 10
94.88012707971177
 20
237.2899971433915
 30
0.0
 11
94.88012707971177
 21
202.7899971433743
 31
0.0
  0
LINE
  5
3B9
330
1F
100
AcDbEntity
  8
0
  6
CONTINUOUS
 62
     7
100
AcDbLine
 10
81.88012707970526
 20
202.7899971433743
 30
0.0
 11
81.88012707970526
 21
237.2899971433916
 31
0.0
  0
LINE
  5
3BA
330
1F
100
AcDbEntity
  8
0
  6
CONTINUOUS
 62
     7
100
AcDbLine
 10
81.88012707970526
 20
237.2899971433915
 30
0.0
 11
94.88012707971176
 21
237.2899971433915
 31
0.0
  0
LINE
  5
3BB
330
1F
100
AcDbEntity
  8
0
  6
CONTINUOUS
 62
     7
100
AcDbLine
 10
94.88012707971177
 20
237.2899971433915
 30
0.0
 11
95.88012707971227
 21
237.2899971433915
 31
0.0
  0
LINE
  5
3BC
330
1F
100
AcDbEntity
  8
0
  6
CONTINUOUS
 62
     7
100
AcDbLine
 10
94.88012707971177
 20
237.2899971433915
 30
0.0
 11
95.88012707971227
 21
237.2899971433915
 31
0.0
  0
LINE
  5
3BD
330
1F
100
AcDbEntity
  8
0
  6
CONTINUOUS
 62
     7
100
AcDbLine
 10
81.88012707970526
 20
237.2899971433915
 30
0.0
 11
94.88012707971176
 21
237.2899971433915
 31
0.0
  0
LINE
  5
3BE
330
1F
100
AcDbEntity
  8
0
  6
CONTINUOUS
 62
     7
100
AcDbLine
 10
94.88012707971177
 20
237.2899971433915
 30
0.0
 11
94.88012707971177
 21
202.7899971433743
 31
0.0
  0
LINE
  5
3BF
330
1F
100
AcDbEntity
  8
0
  6
CONTINUOUS
 62
     7
100
AcDbLine
 10
81.88012707970526
 20
237.2899971433915
 30
0.0
 11
94.88012707971176
 21
237.2899971433915
 31
0.0
  0
LINE
  5
3C0
330
1F
100
AcDbEntity
  8
0
  6
CONTINUOUS
 62
     7
100
AcDbLine
 10
81.88012707970526
 20
237.2899971433915
 30
0.0
 11
94.88012707971176
 21
237.2899971433915
 31
0.0
  0
LINE
  5
3C1
330
1F
100
AcDbEntity
  8
0
  6
CONTINUOUS
 62
     7
100
AcDbLine
 10
163.1050053596849
 20
230.5311780982855
 30
0.0
 11
164.1815282414363
 21
234.5488161884926
 31
0.0
  0
LINE
  5
3C2
330
1F
100
AcDbEntity
  8
0
  6
CONTINUOUS
 62
     7
100
AcDbLine
 10
81.88012707970526
 20
202.7899971433743
 30
0.0
 11
81.88012707970526
 21
237.2899971433916
 31
0.0
  0
LINE
  5
3C3
330
1F
100
AcDbEntity
  8
0
  6
CONTINUOUS
 62
     7
100
AcDbLine
 10
94.88012707971177
 20
237.2899971433915
 30
0.0
 11
94.88012707971177
 21
202.7899971433743
 31
0.0
  0
LINE
  5
3C4
330
1F
100
AcDbEntity
  8
0
  6
CONTINUOUS
 62
     7
100
AcDbLine
 10
144.9513016450091
 20
229.7899971433879
 30
0.0
 11
162.1390795333952
 21
229.7899971433879
 31
0.0
  0
LINE
  5
3C5
330
1F
100
AcDbEntity
  8
0
  6
CONTINUOUS
 62
     7
100
AcDbLine
 10
-14.35486818422016
 20
223.4887588248311
 30
0.0
 11
-14.32200756847729
 21
223.482716241618
 31
0.0
  0
LINE
  5
3C6
330
1F
100
AcDbEntity
  8
0
  6
CONTINUOUS
 62
     7
100
AcDbLine
 10
170.8801270797497
 20
234.2899971433901
 30
0.0
 11
170.8801270797497
 21
219.0399971433824
 31
0.0
  0
LINE
  5
3C7
330
1F
100
AcDbEntity
  8
0
  6
CONTINUOUS
 62
     7
100
AcDbLine
 10
142.6128000917566
 20
232.7899971433893
 30
0.0
 11
142.6128000917566
 21
202.7899971433743
 31
0.0
  0
LINE
  5
3C8
330
1F
100
AcDbEntity
  8
0
  6
CONTINUOUS
 62
     7
100
AcDbLine
 10
81.88012707970526
 20
237.2899971433915
 30
0.0
 11
94.88012707971176
 21
237.2899971433915
 31
0.0
  0
LINE
  5
3C9
330
1F
100
AcDbEntity
  8
0
  6
CONTINUOUS
 62
     7
100
AcDbLine
 10
94.88012707971177
 20
237.2899971433915
 30
0.0
 11
95.88012707971227
 21
237.2899971433915
 31
0.0
  0
LINE
  5
3CA
330
1F
100
AcDbEntity
  8
0
  6
CONTINUOUS
 62
     7
100
AcDbLine
 10
168.3801270797486
 20
202.7899971433743
 30
0.0
 11
168.3801270797486
 21
235.2899971433904
 31
0.0
  0
LINE
  5
3CB
330
1F
100
AcDbEntity
  8
0
  6
CONTINUOUS
 62
     7
100
AcDbLine
 10
81.88012707970526
 20
237.2899971433915
 30
0.0
 11
94.88012707971176
 21
237.2899971433915
 31
0.0
  0
LINE
  5
3CC
330
1F
100
AcDbEntity
  8
0
  6
CONTINUOUS
 62
     7
100
AcDbLine
 10
-21.86301949213376
 20
176.5150283154794
 30
0.0
 11
-18.84634633838559
 21
171.2899971433586
 31
0.0
  0
LINE
  5
3CD
330
1F
100
AcDbEntity
  8
0
  6
CONTINUOUS
 62
     7
100
AcDbLine
 10
18.10407088976895
 20
235.2899971433904
 30
0.0
 11
12.07072458227257
 21
235.2899971433904
 31
0.0
  0
LINE
  5
3CE
330
1F
100
AcDbEntity
  8
0
  6
CONTINUOUS
 62
     7
100
AcDbLine
 10
168.3801270797486
 20
235.2899971433904
 30
0.0
 11
168.3801270797486
 21
202.7899971433743
 31
0.0
  0
LINE
  5
3CF
330
1F
100
AcDbEntity
  8
0
  6
CONTINUOUS
 62
     7
100
AcDbLine
 10
-23.69739111594593
 20
209.7732132867893
 30
0.0
 11
-23.68995443820026
 21
209.8210715907405
 31
0.0
  0
LINE
  5
3D0
330
1F
100
AcDbEntity
  8
0
  6
CONTINUOUS
 62
     7
100
AcDbLine
 10
-24.42846455243841
 20
206.3258442262449
 30
0.0
 11
-24.42071058536648
 21
206.3644323308611
 31
0.0
  0
LINE
  5
3D1
330
1F
100
AcDbEntity
  8
0
  6
CONTINUOUS
 62
     7
100
AcDbLine
 10
-23.79496754946869
 20
210.5415009267726
 30
0.0
 11
-23.81330898268984
 21
210.5676535810345
 31
0.0
  0
LINE
  5
3D2
330
1F
100
AcDbEntity
  8
0
  6
CONTINUOUS
 62
     7
100
AcDbLine
 10
97.88012707971328
 20
202.7899971433743
 30
0.0
 11
97.88012707971328
 21
170.289997143358
 31
0.0
  0
LINE
  5
3D3
330
1F
100
AcDbEntity
  8
0
  6
CONTINUOUS
 62
     7
100
AcDbLine
 10
94.88012707971177
 20
237.2899971433915
 30
0.0
 11
95.88012707971227
 21
237.2899971433915
 31
0.0
  0
LINE
  5
3D4
330
1F
100
AcDbEntity
  8
0
  6
CONTINUOUS
 62
     7
100
AcDbLine
 10
-24.72111441411934
 20
211.0777474449571
 30
0.0
 11
-23.9464615160191
 21
210.6830420788502
 31
0.0
  0
LINE
  5
3D5
330
1F
100
AcDbEntity
  8
0
  6
CONTINUOUS
 62
     7
100
AcDbLine
 10
-18.84634633838555
 20
234.2899971433901
 30
0.0
 11
-21.86301949213373
 21
229.0649659712691
 31
0.0
  0
LINE
  5
3D6
330
1F
100
AcDbEntity
  8
0
  6
CONTINUOUS
 62
     7
100
AcDbLine
 10
165.1474540677257
 20
202.7899971433743
 30
0.0
 11
165.1474540677257
 21
235.2899971433904
 31
0.0
  0
LINE
  5
3D7
330
1F
100
AcDbEntity
  8
0
  6
CONTINUOUS
 62
     7
100
AcDbLine
 10
-23.67477517451216
 20
210.0996191285521
 30
0.0
 11
-23.67721048360405
 21
210.1437930523155
 31
0.0
  0
LINE
  5
3D8
330
1F
100
AcDbEntity
  8
0
  6
CONTINUOUS
 62
     7
100
AcDbLine
 10
-23.72760299294607
 20
209.6295844536071
 30
0.0
 11
-23.71624878108902
 21
209.6773053570802
 31
0.0
  0
LINE
  5
3D9
330
1F
100
AcDbEntity
  8
0
  6
CONTINUOUS
 62
     7
100
AcDbLine
 10
-23.69304009057604
 20
210.2693560504086
 30
0.0
 11
-23.70114736203747
 21
210.3086929927092
 31
0.0
  0
LINE
  5
3DA
330
1F
100
AcDbEntity
  8
0
  6
CONTINUOUS
 62
     7
100
AcDbLine
 10
-23.67599361074035
 20
209.9624920838503
 30
0.0
 11
-23.67416940191215
 21
210.0088105163262
 31
0.0
  0
LINE
  5
3DB
330
1F
100
AcDbEntity
  8
0
  6
CENTER
 62
     1
100
AcDbLine
 10
-37.00511232054065
 20
202.7899971433743
 30
0.0
 11
37.99488767949384
 21
202.7899971433743
 31
0.0
  0
LINE
  5
3DC
330
1F
100
AcDbEntity
  8
0
  6
CONTINUOUS
 62
     7
100
AcDbLine
 10
-14.24741781220579
 20
182.1046118728029
 30
0.0
 11
-14.28346577657648
 21
182.1021393867441
 31
0.0
  0
LINE
  5
3DD
330
1F
100
AcDbEntity
  8
0
  6
CONTINUOUS
 62
     7
100
AcDbLine
 10
-14.1719529512534
 20
182.1043352512822
 30
0.0
 11
-14.21020237514432
 21
182.1053406613298
 31
0.0
  0
LINE
  5
3DE
330
1F
100
AcDbEntity
  8
0
  6
CONTINUOUS
 62
     7
100
AcDbLine
 10
-10.08223296676081
 20
179.7395127652508
 30
0.0
 11
-10.1033278532966
 21
179.7713462758898
 31
0.0
  0
LINE
  5
3DF
330
1F
100
AcDbEntity
  8
0
  6
CONTINUOUS
 62
     7
100
AcDbLine
 10
-14.21020237514425
 20
182.10534066133
 30
0.0
 11
-14.24741781220573
 21
182.104611872803
 31
0.0
  0
LINE
  5
3E0
330
1F
100
AcDbEntity
  8
0
  6
CONTINUOUS
 62
     7
100
AcDbLine
 10
-14.41374902828307
 20
182.0749563240835
 30
0.0
 11
-14.44284948937291
 21
182.0639312864409
 31
0.0
  0
LINE
  5
3E1
330
1F
100
AcDbEntity
  8
0
  6
CONTINUOUS
 62
     7
100
AcDbLine
 10
-9.982636399575528
 20
179.4582373175446
 30
0.0
 11
-9.985219907304714
 21
179.488160186118
 31
0.0
  0
LINE
  5
3E2
330
1F
100
AcDbEntity
  8
0
  6
CONTINUOUS
 62
     7
100
AcDbLine
 10
-10.44806184321523
 20
180.1023755164328
 30
0.0
 11
-10.48772210928792
 21
180.1289215786377
 31
0.0
  0
LINE
  5
3E3
330
1F
100
AcDbEntity
  8
0
  6
CONTINUOUS
 62
     7
100
AcDbLine
 10
-14.49632522259181
 20
182.0370327299008
 30
0.0
 11
-14.52049790883716
 21
182.0212293393876
 31
0.0
  0
LINE
  5
3E4
330
1F
100
AcDbEntity
  8
0
  6
CONTINUOUS
 62
     7
100
AcDbLine
 10
-10.17816634155172
 20
179.8664843332436
 30
0.0
 11
-10.20663412045699
 21
179.8977255310196
 31
0.0
  0
LINE
  5
3E5
330
1F
100
AcDbEntity
  8
0
  6
CONTINUOUS
 62
     7
100
AcDbLine
 10
-14.35132938185219
 20
182.0919825971532
 30
0.0
 11
-14.3832085614622
 21
182.0843184490516
 31
0.0
  0
LINE
  5
3E6
330
1F
100
AcDbEntity
  8
0
  6
CONTINUOUS
 62
     7
100
AcDbLine
 10
-13.5369842963472
 20
181.8921333291754
 30
0.0
 11
-13.57945401422993
 21
181.916533161465
 31
0.0
  0
ARC
  5
3E7
330
1F
100
AcDbEntity
  8
0
  6
CONTINUOUS
 62
     7
100
AcDbCircle
 10
0.4948876794765855
 20
202.7899971433743
 30
0.0
 40
25.16890603643285
100
AcDbArc
 50
140.3436856525001
 51
147.6563143474996
  0
LINE
  5
3E8
330
1F
100
AcDbEntity
  8
0
  6
CONTINUOUS
 62
     7
100
AcDbLine
 10
-13.83926119495549
 20
182.0345939248734
 30
0.0
 11
-13.88265740075941
 21
182.0491221870759
 31
0.0
  0
LINE
  5
3E9
330
1F
100
AcDbEntity
  8
0
  6
CONTINUOUS
 62
     7
100
AcDbLine
 10
-10.06300489605538
 20
179.707538672732
 30
0.0
 11
-10.0822329667608
 21
179.7395127652507
 31
0.0
  0
LINE
  5
3EA
330
1F
100
AcDbEntity
  8
0
  6
CONTINUOUS
 62
     7
100
AcDbLine
 10
-10.48772210928794
 20
180.1289215786378
 30
0.0
 11
-10.52829324772029
 21
180.1545319014723
 31
0.0
  0
LINE
  5
3EB
330
1F
100
AcDbEntity
  8
0
  6
CONTINUOUS
 62
     7
100
AcDbLine
 10
-13.92581251137659
 20
182.0620792053079
 30
0.0
 11
-13.96857696131797
 21
182.073413581878
 31
0.0
  0
LINE
  5
3EC
330
1F
100
AcDbEntity
  8
0
  6
CONTINUOUS
 62
     7
100
AcDbLine
 10
-14.13280302639436
 20
182.1016051416172
 30
0.0
 11
-14.17195295125335
 21
182.1043352512822
 31
0.0
  0
LINE
  5
3ED
330
1F
100
AcDbEntity
  8
0
  6
CONTINUOUS
 62
     7
100
AcDbLine
 10
-10.30119215746239
 20
179.9886149044318
 30
0.0
 11
-10.33587760662577
 21
180.0180134088569
 31
0.0
  0
LINE
  5
3EE
330
1F
100
AcDbEntity
  8
0
  6
CONTINUOUS
 62
     7
100
AcDbLine
 10
-13.75234375974327
 20
182.0010292593245
 30
0.0
 11
-13.79577345945375
 21
182.0185458163923
 31
0.0
  0
LINE
  5
3EF
330
1F
100
AcDbEntity
  8
0
  6
CONTINUOUS
 62
     7
100
AcDbLine
 10
-10.10332785329659
 20
179.7713462758898
 30
0.0
 11
-10.12641248310214
 21
179.8031932945435
 31
0.0
  0
LINE
  5
3F0
330
1F
100
AcDbEntity
  8
0
  6
CONTINUOUS
 62
     7
100
AcDbLine
 10
-14.01080118509457
 20
182.0830739190942
 30
0.0
 11
-14.05233561721747
 21
182.0910088192648
 31
0.0
  0
LINE
  5
3F1
330
1F
100
AcDbEntity
  8
0
  6
CONTINUOUS
 62
     7
100
AcDbLine
 10
-10.04569999418836
 20
179.6755296983751
 30
0.0
 11
-10.06300489605541
 21
179.7075386727321
 31
0.0
  0
LINE
  5
3F2
330
1F
100
AcDbEntity
  8
0
  6
CONTINUOUS
 62
     7
100
AcDbLine
 10
-9.985219907304776
 20
179.488160186118
 30
0.0
 11
-9.989955322293982
 21
179.5185340886431
 31
0.0
  0
LINE
  5
3F3
330
1F
100
AcDbEntity
  8
0
  6
CONTINUOUS
 62
     7
100
AcDbLine
 10
-10.1513922208103
 20
179.8349397840397
 30
0.0
 11
-10.17816634155169
 21
179.8664843332436
 31
0.0
  0
LINE
  5
3F4
330
1F
100
AcDbEntity
  8
0
  6
CONTINUOUS
 62
     7
100
AcDbLine
 10
-13.49510766455719
 20
181.8665882618413
 30
0.0
 11
-13.5369842963472
 21
181.8921333291755
 31
0.0
  0
LINE
  5
3F5
330
1F
100
AcDbEntity
  8
0
  6
CONTINUOUS
 62
     7
100
AcDbLine
 10
-14.47040865178983
 20
182.0512784003159
 30
0.0
 11
-14.49632522259188
 21
182.0370327299007
 31
0.0
  0
LINE
  5
3F6
330
1F
100
AcDbEntity
  8
0
  6
CONTINUOUS
 62
     7
100
AcDbLine
 10
-14.52049790883719
 20
182.0212293393875
 30
0.0
 11
-14.54349410855988
 21
182.0033959467349
 31
0.0
  0
LINE
  5
3F7
330
1F
100
AcDbEntity
  8
0
  6
CONTINUOUS
 62
     7
100
AcDbLine
 10
-18.64848871442559
 20
219.2151524533956
 30
0.0
 11
-18.62950390085923
 21
219.2567923133216
 31
0.0
  0
LINE
  5
3F8
330
1F
100
AcDbEntity
  8
0
  6
CONTINUOUS
 62
     7
100
AcDbLine
 10
-10.3358776066258
 20
180.0180134088569
 30
0.0
 11
-10.37200645913711
 21
180.0468323800163
 31
0.0
  0
LINE
  5
3F9
330
1F
100
AcDbEntity
  8
0
  6
CONTINUOUS
 62
     7
100
AcDbLine
 10
-13.45397011820715
 20
181.8399805035054
 30
0.0
 11
-13.4951076645572
 21
181.8665882618413
 31
0.0
  0
LINE
  5
3FA
330
1F
100
AcDbEntity
  8
0
  6
CONTINUOUS
 62
     7
100
AcDbLine
 10
-10.01708510900107
 20
179.6118299043112
 30
0.0
 11
-10.03037461416758
 21
179.6435915422209
 31
0.0
  0
LINE
  5
3FB
330
1F
100
AcDbEntity
  8
0
  6
CONTINUOUS
 62
     7
100
AcDbLine
 10
-13.66558871088463
 20
181.9615669447398
 30
0.0
 11
-13.70896169096207
 21
181.9820358076399
 31
0.0
  0
LINE
  5
3FC
330
1F
100
AcDbEntity
  8
0
  6
CONTINUOUS
 62
     7
100
AcDbLine
 10
-10.60394548651289
 20
180.1984162744283
 30
0.0
 11
-10.63873407352163
 21
180.2170318499929
 31
0.0
  0
LINE
  5
3FD
330
1F
100
AcDbEntity
  8
0
  6
CONTINUOUS
 62
     7
100
AcDbLine
 10
-10.37200645913711
 20
180.0468323800162
 30
0.0
 11
-10.4094455822493
 21
180.0749827663836
 31
0.0
  0
ARC
  5
3FE
330
1F
100
AcDbEntity
  8
0
  6
CONTINUOUS
 62
     7
100
AcDbCircle
 10
0.4948876794765855
 20
202.7899971433743
 30
0.0
 40
25.16890603643285
100
AcDbArc
 50
44.34368565250001
 51
51.65631434749995
  0
LINE
  5
3FF
330
1F
100
AcDbEntity
  8
0
  6
CONTINUOUS
 62
     7
100
AcDbLine
 10
-10.00588783169665
 20
179.5803504846874
 30
0.0
 11
-10.01708510900104
 21
179.6118299043113
 31
0.0
  0
LINE
  5
400
330
1F
100
AcDbEntity
  8
0
  6
CONTINUOUS
 62
     7
100
AcDbLine
 10
-13.6223708188582
 20
181.9397052146673
 30
0.0
 11
-13.66558871088467
 21
181.9615669447398
 31
0.0
  0
LINE
  5
401
330
1F
100
AcDbEntity
  8
0
  6
CONTINUOUS
 62
     7
100
AcDbLine
 10
-14.44284948937291
 20
182.0639312864409
 30
0.0
 11
-14.47040865178981
 21
182.0512784003159
 31
0.0
  0
LINE
  5
402
330
1F
100
AcDbEntity
  8
0
  6
CONTINUOUS
 62
     7
100
AcDbLine
 10
-9.989955322293964
 20
179.5185340886432
 30
0.0
 11
-9.996839135262405
 21
179.5492589833907
 31
0.0
  0
LINE
  5
403
330
1F
100
AcDbEntity
  8
0
  6
CONTINUOUS
 62
     7
100
AcDbLine
 10
-21.22158019632181
 20
215.7774124784208
 30
0.0
 11
-21.18740979376278
 21
215.8007426244746
 31
0.0
  0
LINE
  5
404
330
1F
100
AcDbEntity
  8
0
  6
CONTINUOUS
 62
     7
100
AcDbLine
 10
-10.1264124831022
 20
179.8031932945435
 30
0.0
 11
-10.15139222081035
 21
179.8349397840397
 31
0.0
  0
LINE
  5
405
330
1F
100
AcDbEntity
  8
0
  6
CONTINUOUS
 62
     7
100
AcDbLine
 10
-14.05233561721753
 20
182.0910088192649
 30
0.0
 11
-14.09288608642868
 21
182.0971598312924
 31
0.0
  0
LINE
  5
406
330
1F
100
AcDbEntity
  8
0
  6
CONTINUOUS
 62
     7
100
AcDbLine
 10
-14.31821278239498
 20
182.0979137041959
 30
0.0
 11
-14.35132938185219
 21
182.0919825971532
 31
0.0
  0
ARC
  5
407
330
1F
100
AcDbEntity
  8
0
  6
CONTINUOUS
 62
     7
100
AcDbCircle
 10
0.4948876794765855
 20
202.7899971433743
 30
0.0
 40
25.16890603643285
100
AcDbArc
 50
92.34368565249996
 51
99.6563143475001
  0
LINE
  5
408
330
1F
100
AcDbEntity
  8
0
  6
CONTINUOUS
 62
     7
100
AcDbLine
 10
-14.38320856146219
 20
182.0843184490517
 30
0.0
 11
-14.41374902828306
 21
182.0749563240836
 31
0.0
  0
LINE
  5
409
330
1F
100
AcDbEntity
  8
0
  6
CONTINUOUS
 62
     7
100
AcDbLine
 10
-13.79577345945376
 20
182.0185458163923
 30
0.0
 11
-13.83926119495549
 21
182.0345939248734
 31
0.0
  0
LINE
  5
40A
330
1F
100
AcDbEntity
  8
0
  6
CONTINUOUS
 62
     7
100
AcDbLine
 10
-13.88265740075945
 20
182.0491221870759
 30
0.0
 11
-13.92581251137661
 21
182.062079205308
 31
0.0
  0
LINE
  5
40B
330
1F
100
AcDbEntity
  8
0
  6
CONTINUOUS
 62
     7
100
AcDbLine
 10
-13.70896169096208
 20
181.9820358076398
 30
0.0
 11
-13.7523437597433
 21
182.0010292593245
 31
0.0
  0
LINE
  5
40C
330
1F
100
AcDbEntity
  8
0
  6
CONTINUOUS
 62
     7
100
AcDbLine
 10
-10.23669483265677
 20
179.928561966233
 30
0.0
 11
-10.26824775328171
 21
179.9588922277488
 31
0.0
  0
LINE
  5
40D
330
1F
100
AcDbEntity
  8
0
  6
CONTINUOUS
 62
     7
100
AcDbLine
 10
-10.03037461416756
 20
179.643591542221
 30
0.0
 11
-10.04569999418835
 21
179.6755296983752
 31
0.0
  0
LINE
  5
40E
330
1F
100
AcDbEntity
  8
0
  6
CONTINUOUS
 62
     7
100
AcDbLine
 10
-13.57945401422988
 20
181.9165331614649
 30
0.0
 11
-13.62237081885812
 21
181.9397052146673
 31
0.0
  0
LINE
  5
40F
330
1F
100
AcDbEntity
  8
0
  6
CONTINUOUS
 62
     7
100
AcDbLine
 10
-10.56964212576522
 20
180.1791174334102
 30
0.0
 11
-10.60394548651288
 21
180.1984162744282
 31
0.0
  0
LINE
  5
410
330
1F
100
AcDbEntity
  8
0
  6
CONTINUOUS
 62
     7
100
AcDbLine
 10
-10.63873407352167
 20
180.2170318499928
 30
0.0
 11
-10.6739300415148
 21
180.234923616869
 31
0.0
  0
LINE
  5
411
330
1F
100
AcDbEntity
  8
0
  6
CONTINUOUS
 62
     7
100
AcDbLine
 10
-10.20663412045697
 20
179.8977255310195
 30
0.0
 11
-10.23669483265675
 21
179.9285619662328
 31
0.0
  0
LINE
  5
412
330
1F
100
AcDbEntity
  8
0
  6
CONTINUOUS
 62
     7
100
AcDbLine
 10
-9.993891626874307
 20
179.3450570173625
 30
0.0
 11
-10.21850168457472
 21
178.5068008701336
 31
0.0
  0
LINE
  5
413
330
1F
100
AcDbEntity
  8
0
  6
CONTINUOUS
 62
     7
100
AcDbLine
 10
-10.40944558224927
 20
180.0749827663837
 30
0.0
 11
-10.44806184321525
 21
180.102375516433
 31
0.0
  0
LINE
  5
414
330
1F
100
AcDbEntity
  8
0
  6
CONTINUOUS
 62
     7
100
AcDbLine
 10
-10.52829324772031
 20
180.1545319014724
 30
0.0
 11
-10.56964212576527
 21
180.1791174334103
 31
0.0
  0
LINE
  5
415
330
1F
100
AcDbEntity
  8
0
  6
CONTINUOUS
 62
     7
100
AcDbLine
 10
-15.1794044273863
 20
181.3692097256728
 30
0.0
 11
-14.56463640667912
 21
181.98397774638
 31
0.0
  0
LINE
  5
416
330
1F
100
AcDbEntity
  8
0
  6
CONTINUOUS
 62
     7
100
AcDbLine
 10
-14.09288608642867
 20
182.0971598312924
 30
0.0
 11
-14.13280302639439
 21
182.1016051416173
 31
0.0
  0
LINE
  5
417
330
1F
100
AcDbEntity
  8
0
  6
CONTINUOUS
 62
     7
100
AcDbLine
 10
-14.28346577657646
 20
182.1021393867441
 30
0.0
 11
-14.318212782395
 21
182.0979137041959
 31
0.0
  0
LINE
  5
418
330
1F
100
AcDbEntity
  8
0
  6
CONTINUOUS
 62
     7
100
AcDbLine
 10
-9.996839135262391
 20
179.5492589833907
 30
0.0
 11
-10.00588783169665
 21
179.5803504846875
 31
0.0
  0
LINE
  5
419
330
1F
100
AcDbEntity
  8
0
  6
CONTINUOUS
 62
     7
100
AcDbLine
 10
-13.96857696131798
 20
182.073413581878
 30
0.0
 11
-14.01080118509461
 21
182.0830739190942
 31
0.0
  0
LINE
  5
41A
330
1F
100
AcDbEntity
  8
0
  6
CONTINUOUS
 62
     7
100
AcDbLine
 10
-10.26824775328172
 20
179.9588922277489
 30
0.0
 11
-10.3011921574624
 21
179.9886149044319
 31
0.0
  0
LINE
  5
41B
330
1F
100
AcDbEntity
  8
0
  6
CONTINUOUS
 62
     7
100
AcDbLine
 10
-18.57011052480772
 20
219.4211626694622
 30
0.0
 11
-18.55975453043619
 21
219.4608480431253
 31
0.0
  0
LINE
  5
41C
330
1F
100
AcDbEntity
  8
0
  6
CONTINUOUS
 62
     7
100
AcDbLine
 10
-21.52185120417938
 20
215.6535678259236
 30
0.0
 11
-21.48998417904702
 21
215.6593170058008
 31
0.0
  0
LINE
  5
41D
330
1F
100
AcDbEntity
  8
0
  6
CONTINUOUS
 62
     7
100
AcDbLine
 10
-18.61210692513371
 20
219.2983566385232
 30
0.0
 11
-18.59636453722954
 21
219.3397020553683
 31
0.0
  0
LINE
  5
41E
330
1F
100
AcDbEntity
  8
0
  6
CONTINUOUS
 62
     7
100
AcDbLine
 10
-20.79064017573517
 20
216.2221451249907
 30
0.0
 11
-20.76916744138243
 21
216.2552780868918
 31
0.0
  0
LINE
  5
41F
330
1F
100
AcDbEntity
  8
0
  6
CONTINUOUS
 62
     7
100
AcDbLine
 10
-21.08609204783535
 20
215.8806713055994
 30
0.0
 11
-21.05308856714283
 21
215.9103283711691
 31
0.0
  0
LINE
  5
420
330
1F
100
AcDbEntity
  8
0
  6
CONTINUOUS
 62
     7
100
AcDbLine
 10
-20.89405281836088
 20
216.0811704513605
 30
0.0
 11
-20.86434195280115
 21
216.1188423291617
 31
0.0
  0
LINE
  5
421
330
1F
100
AcDbEntity
  8
0
  6
CONTINUOUS
 62
     7
100
AcDbLine
 10
-18.54829709427774
 20
219.7822741626995
 30
0.0
 11
-18.55621990913254
 21
219.8123676386608
 31
0.0
  0
LINE
  5
422
330
1F
100
AcDbEntity
  8
0
  6
CONTINUOUS
 62
     7
100
AcDbLine
 10
-21.67149689193354
 20
215.65632517249
 30
0.0
 11
-21.64311447280267
 21
215.651601691478
 31
0.0
  0
LINE
  5
423
330
1F
100
AcDbEntity
  8
0
  6
CONTINUOUS
 62
     7
100
AcDbLine
 10
-20.98778790284961
 20
215.9746693614315
 30
0.0
 11
-20.95587827323918
 21
216.0089608724826
 31
0.0
  0
LINE
  5
424
330
1F
100
AcDbEntity
  8
0
  6
CONTINUOUS
 62
     7
100
AcDbLine
 10
-18.76552883205962
 20
219.0093687965315
 30
0.0
 11
-18.73926936299273
 21
219.0500647633747
 31
0.0
  0
LINE
  5
425
330
1F
100
AcDbEntity
  8
0
  6
CONTINUOUS
 62
     7
100
AcDbLine
 10
-18.55116111559335
 20
219.5000816524604
 30
0.0
 11
-18.54435368027227
 21
219.5387317357668
 31
0.0
  0
LINE
  5
426
330
1F
100
AcDbEntity
  8
0
  6
CONTINUOUS
 62
     7
100
AcDbLine
 10
-21.32371356646379
 20
215.7186069256295
 30
0.0
 11
-21.28984942705453
 21
215.7362587442222
 31
0.0
  0
LINE
  5
427
330
1F
100
AcDbEntity
  8
0
  6
CONTINUOUS
 62
     7
100
AcDbLine
 10
-20.8127901707682
 20
216.1894929710082
 30
0.0
 11
-20.79064017573515
 21
216.2221451249906
 31
0.0
  0
LINE
  5
428
330
1F
100
AcDbEntity
  8
0
  6
CONTINUOUS
 62
     7
100
AcDbLine
 10
-21.64311447280265
 20
215.6516016914781
 30
0.0
 11
-21.61385883395155
 21
215.6489572491638
 31
0.0
  0
LINE
  5
429
330
1F
100
AcDbEntity
  8
0
  6
CONTINUOUS
 62
     7
100
AcDbLine
 10
-21.55312733912967
 20
215.6499333492348
 30
0.0
 11
-21.52185120417936
 21
215.6535678259236
 31
0.0
  0
LINE
  5
42A
330
1F
100
AcDbEntity
  8
0
  6
CONTINUOUS
 62
     7
100
AcDbLine
 10
-18.5348812513691
 20
219.6498632125107
 30
0.0
 11
-18.53545173406468
 21
219.6848615746987
 31
0.0
  0
LINE
  5
42B
330
1F
100
AcDbEntity
  8
0
  6
CONTINUOUS
 62
     7
100
AcDbLine
 10
-18.53545173406468
 20
219.6848615746987
 30
0.0
 11
-18.5378887226325
 21
219.7184167274637
 31
0.0
  0
LINE
  5
42C
330
1F
100
AcDbEntity
  8
0
  6
CONTINUOUS
 62
     7
100
AcDbLine
 10
-18.54217860407403
 20
219.7509223912155
 30
0.0
 11
-18.54829709427779
 21
219.7822741626995
 31
0.0
  0
LINE
  5
42D
330
1F
100
AcDbEntity
  8
0
  6
CONTINUOUS
 62
     7
100
AcDbLine
 10
-18.73926936299275
 20
219.0500647633747
 30
0.0
 11
-18.71437891971063
 21
219.0910605629454
 31
0.0
  0
LINE
  5
42E
330
1F
100
AcDbEntity
  8
0
  6
CONTINUOUS
 62
     7
100
AcDbLine
 10
-21.45750677278813
 20
215.6671624478905
 30
0.0
 11
-21.42452999690154
 21
215.6770591565559
 31
0.0
  0
LINE
  5
42F
330
1F
100
AcDbEntity
  8
0
  6
CONTINUOUS
 62
     7
100
AcDbLine
 10
-21.35752238224054
 20
215.7028263910625
 30
0.0
 11
-21.3237135664637
 21
215.7186069256294
 31
0.0
  0
LINE
  5
430
330
1F
100
AcDbEntity
  8
0
  6
CONTINUOUS
 62
     7
100
AcDbLine
 10
-18.55621990913253
 20
219.8123676386607
 30
0.0
 11
-18.56592276452705
 21
219.8410984158451
 31
0.0
  0
LINE
  5
431
330
1F
100
AcDbEntity
  8
0
  6
CONTINUOUS
 62
     7
100
AcDbLine
 10
-18.57824402257247
 20
185.7099603189871
 30
0.0
 11
-18.56668851889122
 21
185.736966907339
 31
0.0
  0
LINE
  5
432
330
1F
100
AcDbEntity
  8
0
  6
CONTINUOUS
 62
     7
100
AcDbLine
 10
-18.71437891971062
 20
219.0910605629455
 30
0.0
 11
-18.69095485515846
 21
219.1322196238979
 31
0.0
  0
LINE
  5
433
330
1F
100
AcDbEntity
  8
0
  6
CONTINUOUS
 62
     7
100
AcDbLine
 10
-18.54264151675067
 20
185.8258961097555
 30
0.0
 11
-18.53826185941017
 21
185.8579800459483
 31
0.0
  0
LINE
  5
434
330
1F
100
AcDbEntity
  8
0
  6
CONTINUOUS
 62
     7
100
AcDbLine
 10
-20.9245990851249
 20
216.0445022674631
 30
0.0
 11
-20.89405281836084
 21
216.0811704513605
 31
0.0
  0
LINE
  5
435
330
1F
100
AcDbEntity
  8
0
  6
CONTINUOUS
 62
     7
100
AcDbLine
 10
-18.57738137635001
 20
219.8683620909974
 30
0.0
 11
-18.59057146049012
 21
219.8940542608629
 31
0.0
  0
LINE
  5
436
330
1F
100
AcDbEntity
  8
0
  6
CONTINUOUS
 62
     7
100
AcDbLine
 10
-21.28984942705447
 20
215.7362587442222
 30
0.0
 11
-21.25576386882237
 21
215.7558879940907
 31
0.0
  0
LINE
  5
437
330
1F
100
AcDbEntity
  8
0
  6
CONTINUOUS
 62
     7
100
AcDbLine
 10
-18.79305997396619
 20
218.9691092337617
 30
0.0
 11
-18.76552883205965
 21
219.0093687965316
 31
0.0
  0
LINE
  5
438
330
1F
100
AcDbEntity
  8
0
  6
CONTINUOUS
 62
     7
100
AcDbLine
 10
-21.18740979376277
 20
215.8007426244746
 30
0.0
 11
-21.15336404535539
 21
215.8257888595142
 31
0.0
  0
LINE
  5
439
330
1F
100
AcDbEntity
  8
0
  6
CONTINUOUS
 62
     7
100
AcDbLine
 10
-18.54435368027224
 20
219.5387317357668
 30
0.0
 11
-18.53935562446587
 21
219.5766665313442
 31
0.0
  0
LINE
  5
43A
330
1F
100
AcDbEntity
  8
0
  6
CONTINUOUS
 62
     7
100
AcDbLine
 10
-18.6689946158522
 20
219.1735804323772
 30
0.0
 11
-18.64848871442555
 21
219.2151524533957
 31
0.0
  0
LINE
  5
43B
330
1F
100
AcDbEntity
  8
0
  6
CONTINUOUS
 62
     7
100
AcDbLine
 10
-18.60590340253387
 20
219.9187885821262
 30
0.0
 11
-18.62300525602309
 21
219.9418448151667
 31
0.0
  0
LINE
  5
43C
330
1F
100
AcDbEntity
  8
0
  6
CONTINUOUS
 62
     7
100
AcDbLine
 10
-18.53788872263251
 20
219.7184167274637
 30
0.0
 11
-18.54217860407399
 21
219.7509223912155
 31
0.0
  0
LINE
  5
43D
330
1F
100
AcDbEntity
  8
0
  6
CONTINUOUS
 62
     7
100
AcDbLine
 10
-18.56592276452707
 20
219.8410984158452
 30
0.0
 11
-18.57738137635006
 21
219.8683620909974
 31
0.0
  0
LINE
  5
43E
330
1F
100
AcDbEntity
  8
0
  6
CONTINUOUS
 62
     7
100
AcDbLine
 10
-21.48998417904702
 20
215.6593170058008
 30
0.0
 11
-21.45750677278818
 21
215.6671624478905
 31
0.0
  0
LINE
  5
43F
330
1F
100
AcDbEntity
  8
0
  6
CONTINUOUS
 62
     7
100
AcDbLine
 10
-18.88230990727191
 20
218.8523146833463
 30
0.0
 11
-18.8515478645175
 21
218.8904456058234
 31
0.0
  0
LINE
  5
440
330
1F
100
AcDbEntity
  8
0
  6
CONTINUOUS
 62
     7
100
AcDbLine
 10
-21.72524262899372
 20
215.6719813819999
 30
0.0
 11
-22.53542857717399
 21
215.9829826291976
 31
0.0
  0
LINE
  5
441
330
1F
100
AcDbEntity
  8
0
  6
CONTINUOUS
 62
     7
100
AcDbLine
 10
-19.17014475671802
 20
220.6175058288029
 30
0.0
 11
-18.62300525602311
 21
219.9418448151667
 31
0.0
  0
LINE
  5
442
330
1F
100
AcDbEntity
  8
0
  6
CONTINUOUS
 62
     7
100
AcDbLine
 10
-18.5393556244659
 20
219.5766665313442
 30
0.0
 11
-18.53619034816717
 21
219.6137542774924
 31
0.0
  0
LINE
  5
443
330
1F
100
AcDbEntity
  8
0
  6
CONTINUOUS
 62
     7
100
AcDbLine
 10
-18.82176543576719
 20
218.9294226464102
 30
0.0
 11
-18.79305997396619
 21
218.9691092337616
 31
0.0
  0
LINE
  5
444
330
1F
100
AcDbEntity
  8
0
  6
CONTINUOUS
 62
     7
100
AcDbLine
 10
-20.83556896829974
 20
216.1573948058544
 30
0.0
 11
-20.81279017076825
 21
216.1894929710082
 31
0.0
  0
LINE
  5
445
330
1F
100
AcDbEntity
  8
0
  6
CONTINUOUS
 62
     7
100
AcDbLine
 10
-21.05308856714283
 20
215.910328371169
 30
0.0
 11
-21.02022549410217
 21
215.9417508293227
 31
0.0
  0
LINE
  5
446
330
1F
100
AcDbEntity
  8
0
  6
CONTINUOUS
 62
     7
100
AcDbLine
 10
-18.62950390085916
 20
219.2567923133217
 30
0.0
 11
-18.61210692513363
 21
219.2983566385232
 31
0.0
  0
LINE
  5
447
330
1F
100
AcDbEntity
  8
0
  6
CONTINUOUS
 62
     7
100
AcDbLine
 10
-20.95587827323919
 20
216.0089608724826
 30
0.0
 11
-20.92459908512494
 21
216.0445022674631
 31
0.0
  0
LINE
  5
448
330
1F
100
AcDbEntity
  8
0
  6
CONTINUOUS
 62
     7
100
AcDbLine
 10
-18.59057146049015
 20
219.8940542608629
 30
0.0
 11
-18.60590340253388
 21
219.9187885821263
 31
0.0
  0
LINE
  5
449
330
1F
100
AcDbEntity
  8
0
  6
CONTINUOUS
 62
     7
100
AcDbLine
 10
-21.72524262899372
 20
215.6719813819999
 30
0.0
 11
-21.69890623083397
 21
215.6631207250479
 31
0.0
  0
LINE
  5
44A
330
1F
100
AcDbEntity
  8
0
  6
CONTINUOUS
 62
     7
100
AcDbLine
 10
-18.58234348712728
 20
219.3806851902253
 30
0.0
 11
-18.57011052480764
 21
219.4211626694622
 31
0.0
  0
LINE
  5
44B
330
1F
100
AcDbEntity
  8
0
  6
CONTINUOUS
 62
     7
100
AcDbLine
 10
-18.53619034816717
 20
219.6137542774924
 30
0.0
 11
-18.53488125136912
 21
219.6498632125106
 31
0.0
  0
LINE
  5
44C
330
1F
100
AcDbEntity
  8
0
  6
CONTINUOUS
 62
     7
100
AcDbLine
 10
-21.25576386882233
 20
215.7558879940906
 30
0.0
 11
-21.22158019632176
 21
215.7774124784208
 31
0.0
  0
LINE
  5
44D
330
1F
100
AcDbEntity
  8
0
  6
CONTINUOUS
 62
     7
100
AcDbLine
 10
-21.02022549410221
 20
215.9417508293228
 30
0.0
 11
-20.98778790284963
 21
215.9746693614315
 31
0.0
  0
LINE
  5
44E
330
1F
100
AcDbEntity
  8
0
  6
CONTINUOUS
 62
     7
100
AcDbLine
 10
-20.86434195280112
 20
216.1188423291618
 30
0.0
 11
-20.83556896829972
 21
216.1573948058544
 31
0.0
  0
LINE
  5
44F
330
1F
100
AcDbEntity
  8
0
  6
CONTINUOUS
 62
     7
100
AcDbLine
 10
-21.69890623083398
 20
215.6631207250479
 30
0.0
 11
-21.67149689193355
 21
215.6563251724901
 31
0.0
  0
LINE
  5
450
330
1F
100
AcDbEntity
  8
0
  6
CONTINUOUS
 62
     7
100
AcDbLine
 10
-21.58382983589047
 20
215.6483988126988
 30
0.0
 11
-21.55312733912966
 21
215.6499333492347
 31
0.0
  0
LINE
  5
451
330
1F
100
AcDbEntity
  8
0
  6
CONTINUOUS
 62
     7
100
AcDbLine
 10
-14.54349410855987
 20
182.0033959467349
 30
0.0
 11
-14.56463640667907
 21
181.9839777463799
 31
0.0
  0
LINE
  5
452
330
1F
100
AcDbEntity
  8
0
  6
CONTINUOUS
 62
     7
100
AcDbLine
 10
-21.42452999690159
 20
215.6770591565559
 30
0.0
 11
-21.39116486288611
 21
215.6889621361588
 31
0.0
  0
LINE
  5
453
330
1F
100
AcDbEntity
  8
0
  6
CONTINUOUS
 62
     7
100
AcDbLine
 10
-18.69095485515848
 20
219.1322196238978
 30
0.0
 11
-18.6689946158522
 21
219.1735804323772
 31
0.0
  0
LINE
  5
454
330
1F
100
AcDbEntity
  8
0
  6
CONTINUOUS
 62
     7
100
AcDbLine
 10
-21.15336404535539
 20
215.8257888595142
 30
0.0
 11
-21.11955433530952
 21
215.8524616108017
 31
0.0
  0
LINE
  5
455
330
1F
100
AcDbEntity
  8
0
  6
CONTINUOUS
 62
     7
100
AcDbLine
 10
-18.55975453043612
 20
219.4608480431253
 30
0.0
 11
-18.55116111559332
 21
219.5000816524604
 31
0.0
  0
LINE
  5
456
330
1F
100
AcDbEntity
  8
0
  6
CONTINUOUS
 62
     7
100
AcDbLine
 10
-21.61385883395156
 20
215.6489572491638
 30
0.0
 11
-21.58382983589048
 21
215.6483988126989
 31
0.0
  0
LINE
  5
457
330
1F
100
AcDbEntity
  8
0
  6
CONTINUOUS
 62
     7
100
AcDbLine
 10
-21.39116486288611
 20
215.6889621361588
 30
0.0
 11
-21.35752238224057
 21
215.7028263910626
 31
0.0
  0
LINE
  5
458
330
1F
100
AcDbEntity
  8
0
  6
CONTINUOUS
 62
     7
100
AcDbLine
 10
-21.11955433530954
 20
215.8524616108017
 30
0.0
 11
-21.08609204783534
 21
215.8806713055993
 31
0.0
  0
LINE
  5
459
330
1F
100
AcDbEntity
  8
0
  6
CONTINUOUS
 62
     7
100
AcDbLine
 10
-18.59636453722952
 20
219.3397020553682
 30
0.0
 11
-18.58234348712732
 21
219.3806851902251
 31
0.0
  0
LINE
  5
45A
330
1F
100
AcDbEntity
  8
0
  6
CONTINUOUS
 62
     7
100
AcDbLine
 10
-18.85154786451748
 20
218.8904456058234
 30
0.0
 11
-18.8217654357672
 21
218.9294226464102
 31
0.0
  0
LINE
  5
45B
330
1F
100
AcDbEntity
  8
0
  6
CONTINUOUS
 62
     7
100
AcDbLine
 10
-18.62300525602312
 20
185.6381494715818
 30
0.0
 11
-18.60643987588817
 21
185.6604587810877
 31
0.0
  0
LINE
  5
45C
330
1F
100
AcDbEntity
  8
0
  6
CONTINUOUS
 62
     7
100
AcDbLine
 10
-18.53870879746477
 20
185.997403840422
 30
0.0
 11
-18.54326947906051
 21
186.0344343883361
 31
0.0
  0
LINE
  5
45D
330
1F
100
AcDbEntity
  8
0
  6
CONTINUOUS
 62
     7
100
AcDbLine
 10
-18.60643987588817
 20
185.6604587810877
 30
0.0
 11
-18.59150696982136
 21
185.6844266702298
 31
0.0
  0
LINE
  5
45E
330
1F
100
AcDbEntity
  8
0
  6
CONTINUOUS
 62
     7
100
AcDbLine
 10
-18.53826185941016
 20
185.8579800459483
 30
0.0
 11
-18.53568724776576
 21
185.8912922697372
 31
0.0
  0
LINE
  5
45F
330
1F
100
AcDbEntity
  8
0
  6
CONTINUOUS
 62
     7
100
AcDbLine
 10
-18.5666885188912
 20
185.7369669073391
 30
0.0
 11
-18.55687794352732
 21
185.765353615265
 31
0.0
  0
CIRCLE
  5
460
330
1F
100
AcDbEntity
  8
0
  6
CONTINUOUS
 62
     7
100
AcDbCircle
 10
0.4948876794765855
 20
202.7899971433743
 30
0.0
 40
29.25000000001465
  0
LINE
  5
461
330
1F
100
AcDbEntity
  8
0
  6
CONTINUOUS
 62
     7
100
AcDbLine
 10
-18.55687794352734
 20
185.7653536152649
 30
0.0
 11
-18.54884978123058
 21
185.795027622744
 31
0.0
  0
LINE
  5
462
330
1F
100
AcDbEntity
  8
0
  6
CONTINUOUS
 62
     7
100
AcDbLine
 10
-18.59150696982131
 20
185.6844266702298
 30
0.0
 11
-18.57824402257243
 21
185.7099603189872
 31
0.0
  0
LINE
  5
463
330
1F
100
AcDbEntity
  8
0
  6
CONTINUOUS
 62
     7
100
AcDbLine
 10
-18.53591920574749
 20
185.9611236496002
 30
0.0
 11
-18.53870879746477
 21
185.9974038404221
 31
0.0
  0
LINE
  5
464
330
1F
100
AcDbEntity
  8
0
  6
CONTINUOUS
 62
     7
100
AcDbLine
 10
-18.53490919286305
 20
185.9257132984966
 30
0.0
 11
-18.5359192057475
 21
185.9611236496
 31
0.0
  0
LINE
  5
465
330
1F
100
AcDbEntity
  8
0
  6
CONTINUOUS
 62
     7
100
AcDbLine
 10
-18.53568724776578
 20
185.8912922697371
 30
0.0
 11
-18.53490919286301
 21
185.9257132984966
 31
0.0
  0
LINE
  5
466
330
1F
100
AcDbEntity
  8
0
  6
CONTINUOUS
 62
     7
100
AcDbLine
 10
-18.5488497812305
 20
185.795027622744
 30
0.0
 11
-18.54264151675064
 21
185.8258961097555
 31
0.0
  0
LINE
  5
467
330
1F
100
AcDbEntity
  8
0
  6
CONTINUOUS
 62
     7
100
AcDbLine
 10
-4.375625058517518
 20
177.9636416123154
 30
0.0
 11
-4.415171597454258
 21
177.952767479691
 31
0.0
  0
LINE
  5
468
330
1F
100
AcDbEntity
  8
0
  6
CONTINUOUS
 62
     7
100
AcDbLine
 10
-4.453445607241924
 20
177.9405927905826
 30
0.0
 11
-4.490321278904267
 21
177.9271631608521
 31
0.0
  0
LINE
  5
469
330
1F
100
AcDbEntity
  8
0
  6
CONTINUOUS
 62
     7
100
AcDbLine
 10
-3.92129194981089
 20
178.000301330336
 30
0.0
 11
-3.969665425462031
 21
178.0026947142161
 31
0.0
  0
LINE
  5
46A
330
1F
100
AcDbEntity
  8
0
  6
CONTINUOUS
 62
     7
100
AcDbLine
 10
-4.69926350052452
 20
177.8019768506793
 30
0.0
 11
-4.721363807767952
 21
177.7800687537648
 31
0.0
  0
LINE
  5
46B
330
1F
100
AcDbEntity
  8
0
  6
CONTINUOUS
 62
     7
100
AcDbLine
 10
-3.969665425462066
 20
178.0026947142161
 30
0.0
 11
-4.017614050979737
 21
178.0037525706245
 31
0.0
  0
LINE
  5
46C
330
1F
100
AcDbEntity
  8
0
  6
CONTINUOUS
 62
     7
100
AcDbLine
 10
-4.591300175376123
 20
177.8798007865458
 30
0.0
 11
-4.621324404774026
 21
177.861807552945
 31
0.0
  0
LINE
  5
46D
330
1F
100
AcDbEntity
  8
0
  6
CONTINUOUS
 62
     7
100
AcDbLine
 10
-4.111770506153967
 20
178.0017965959833
 30
0.0
 11
-4.158025883156009
 21
177.9987692170371
 31
0.0
  0
LINE
  5
46E
330
1F
100
AcDbEntity
  8
0
  6
CONTINUOUS
 62
     7
100
AcDbLine
 10
-0.0514788340189587
 20
177.5549833798525
 30
0.0
 11
-0.0936643465502332
 21
177.5687366997608
 31
0.0
  0
LINE
  5
46F
330
1F
100
AcDbEntity
  8
0
  6
CONTINUOUS
 62
     7
100
AcDbLine
 10
0.2670825843802405
 20
177.3866371567348
 30
0.0
 11
0.2382545471063466
 21
177.4088402721683
 31
0.0
  0
LINE
  5
470
330
1F
100
AcDbEntity
  8
0
  6
CONTINUOUS
 62
     7
100
AcDbLine
 10
-9.987832412755749
 20
179.3721753328323
 30
0.0
 11
-9.983939143020272
 21
179.4001448491723
 31
0.0
  0
ARC
  5
471
330
1F
100
AcDbEntity
  8
0
  6
CONTINUOUS
 62
     7
100
AcDbCircle
 10
0.4948876794765855
 20
202.7899971433743
 30
0.0
 40
26.25000000001315
100
AcDbArc
 50
342.0947182621077
 51
353.9052817378921
  0
ARC
  5
472
330
1F
100
AcDbEntity
  8
0
  6
CONTINUOUS
 62
     7
100
AcDbCircle
 10
0.4948876794765855
 20
202.7899971433743
 30
0.0
 40
26.25000000001315
100
AcDbArc
 50
198.0947182621077
 51
209.9052817378923
  0
LINE
  5
473
330
1F
100
AcDbEntity
  8
0
  6
CONTINUOUS
 62
     7
100
AcDbLine
 10
-14.2525344860086
 20
223.4756475620848
 30
0.0
 11
-14.21616145013277
 21
223.4746295595331
 31
0.0
  0
LINE
  5
474
330
1F
100
AcDbEntity
  8
0
  6
CONTINUOUS
 62
     7
100
AcDbLine
 10
-0.4163899548317862
 20
177.6335809808371
 30
0.0
 11
-0.455577180035624
 21
177.6372589155903
 31
0.0
  0
LINE
  5
475
330
1F
100
AcDbEntity
  8
0
  6
CONTINUOUS
 62
     7
100
AcDbLine
 10
-21.45378151736543
 20
189.9118690637576
 30
0.0
 11
-21.48644743494047
 21
189.919920462353
 31
0.0
  0
LINE
  5
476
330
1F
100
AcDbEntity
  8
0
  6
CONTINUOUS
 62
     7
100
AcDbLine
 10
-21.38638270331117
 20
189.8891932367412
 30
0.0
 11
-21.4203198080989
 21
189.901596536351
 31
0.0
  0
LINE
  5
477
330
1F
100
AcDbEntity
  8
0
  6
CONTINUOUS
 62
     7
100
AcDbLine
 10
-14.52190518681951
 20
223.5598535206151
 30
0.0
 11
-14.49789776955599
 21
223.5439942361128
 31
0.0
  0
LINE
  5
478
330
1F
100
AcDbEntity
  8
0
  6
CONTINUOUS
 62
     7
100
AcDbLine
 10
0.381863743457056
 20
177.26588793131
 30
0.0
 11
0.3630781268400898
 21
177.2911566203648
 31
0.0
  0
LINE
  5
479
330
1F
100
AcDbEntity
  8
0
  6
CONTINUOUS
 62
     7
100
AcDbLine
 10
-14.47224700516286
 20
223.5296790775113
 30
0.0
 11
-14.44504128695973
 21
223.5169550265491
 31
0.0
  0
LINE
  5
47A
330
1F
100
AcDbEntity
  8
0
  6
CONTINUOUS
 62
     7
100
AcDbLine
 10
-21.61178764947208
 20
189.9311692307397
 30
0.0
 11
-21.64125785116902
 21
189.928696382249
 31
0.0
  0
LINE
  5
47B
330
1F
100
AcDbEntity
  8
0
  6
CONTINUOUS
 62
     7
100
AcDbLine
 10
-4.75927569235346
 20
177.733745159405
 30
0.0
 11
-4.774930722065383
 21
177.7094761265288
 31
0.0
  0
LINE
  5
47C
330
1F
100
AcDbEntity
  8
0
  6
CONTINUOUS
 62
     7
100
AcDbLine
 10
0.0684003072897732
 20
177.5072039785877
 30
0.0
 11
0.029686757272572
 21
177.5241653440796
 31
0.0
  0
LINE
  5
47D
330
1F
100
AcDbEntity
  8
0
  6
CONTINUOUS
 62
     7
100
AcDbLine
 10
-4.559374371947644
 20
177.8967215429719
 30
0.0
 11
-4.591300175376109
 21
177.8798007865458
 31
0.0
  0
LINE
  5
47E
330
1F
100
AcDbEntity
  8
0
  6
CONTINUOUS
 62
     7
100
AcDbLine
 10
0.3630781268401106
 20
177.2911566203649
 30
0.0
 11
0.3421656784493021
 21
177.3158796837338
 31
0.0
  0
LINE
  5
47F
330
1F
100
AcDbEntity
  8
0
  6
CONTINUOUS
 62
     7
100
AcDbLine
 10
-21.48644743494049
 20
189.919920462353
 30
0.0
 11
-21.51868780453736
 21
189.9258853451668
 31
0.0
  0
LINE
  5
480
330
1F
100
AcDbEntity
  8
0
  6
CONTINUOUS
 62
     7
100
AcDbLine
 10
-21.35208828483054
 20
189.8747221362489
 30
0.0
 11
-21.38638270331117
 21
189.8891932367413
 31
0.0
  0
LINE
  5
481
330
1F
100
AcDbEntity
  8
0
  6
CONTINUOUS
 62
     7
100
AcDbLine
 10
-21.58146470940197
 20
189.9315188961779
 30
0.0
 11
-21.61178764947207
 21
189.9311692307397
 31
0.0
  0
LINE
  5
482
330
1F
100
AcDbEntity
  8
0
  6
CONTINUOUS
 62
     7
100
AcDbLine
 10
-14.41636900826626
 20
223.5058690649645
 30
0.0
 11
-14.3863185624021
 21
223.4964681744962
 31
0.0
  0
LINE
  5
483
330
1F
100
AcDbEntity
  8
0
  6
CONTINUOUS
 62
     7
100
AcDbLine
 10
-4.415171597454248
 20
177.952767479691
 30
0.0
 11
-4.453445607241913
 21
177.9405927905826
 31
0.0
  0
LINE
  5
484
330
1F
100
AcDbEntity
  8
0
  6
CONTINUOUS
 62
     7
100
AcDbLine
 10
-21.66976851689401
 20
189.9240911838878
 30
0.0
 11
-21.69803008495587
 21
189.9171529661143
 31
0.0
  0
LINE
  5
485
330
1F
100
AcDbEntity
  8
0
  6
CONTINUOUS
 62
     7
100
AcDbLine
 10
0.2382545471063535
 20
177.4088402721683
 30
0.0
 11
0.2076837953977825
 21
177.4302292982195
 31
0.0
  0
LINE
  5
486
330
1F
100
AcDbEntity
  8
0
  6
CONTINUOUS
 62
     7
100
AcDbLine
 10
-4.721363807767998
 20
177.7800687537647
 30
0.0
 11
-4.741393962982631
 21
177.7573004459118
 31
0.0
  0
LINE
  5
487
330
1F
100
AcDbEntity
  8
0
  6
CONTINUOUS
 62
     7
100
AcDbLine
 10
-21.69803008495585
 20
189.9171529661143
 30
0.0
 11
-21.72524262899371
 21
189.9080129047485
 31
0.0
  0
LINE
  5
488
330
1F
100
AcDbEntity
  8
0
  6
CONTINUOUS
 62
     7
100
AcDbLine
 10
-14.5646364066791
 20
223.5960165403684
 30
0.0
 11
-14.54418086363378
 21
223.5772099492798
 31
0.0
  0
ARC
  5
489
330
1F
100
AcDbEntity
  8
0
  6
CONTINUOUS
 62
     7
100
AcDbCircle
 10
0.4948876794765855
 20
202.7899971433743
 30
0.0
 40
26.25000000001315
100
AcDbArc
 50
294.0947182621075
 51
305.9052817378923
  0
LINE
  5
48A
330
1F
100
AcDbEntity
  8
0
  6
CONTINUOUS
 62
     7
100
AcDbLine
 10
-4.017614050979723
 20
178.0037525706246
 30
0.0
 11
-4.064970875636589
 21
178.0034588751105
 31
0.0
  0
LINE
  5
48B
330
1F
100
AcDbEntity
  8
0
  6
CONTINUOUS
 62
     7
100
AcDbLine
 10
-3.823938251017345
 20
177.9915720779632
 30
0.0
 11
-3.872660574753519
 21
177.9965884434346
 31
0.0
  0
LINE
  5
48C
330
1F
100
AcDbEntity
  8
0
  6
CONTINUOUS
 62
     7
100
AcDbLine
 10
-21.24824196551389
 20
189.8195317426781
 30
0.0
 11
-21.28289983410358
 21
189.8398284178968
 31
0.0
  0
LINE
  5
48D
330
1F
100
AcDbEntity
  8
0
  6
CONTINUOUS
 62
     7
100
AcDbLine
 10
-4.158025883155947
 20
177.9987692170371
 30
0.0
 11
-4.203579466445014
 21
177.9943906179085
 31
0.0
  0
LINE
  5
48E
330
1F
100
AcDbEntity
  8
0
  6
CONTINUOUS
 62
     7
100
AcDbLine
 10
-3.775291929329516
 20
177.9852682583726
 30
0.0
 11
-3.823938251017307
 21
177.9915720779633
 31
0.0
  0
LINE
  5
48F
330
1F
100
AcDbEntity
  8
0
  6
CONTINUOUS
 62
     7
100
AcDbLine
 10
-21.21369911054438
 20
189.7974191518582
 30
0.0
 11
-21.24824196551388
 21
189.819531742678
 31
0.0
  0
LINE
  5
490
330
1F
100
AcDbEntity
  8
0
  6
CONTINUOUS
 62
     7
100
AcDbLine
 10
-0.2741070902747555
 20
177.6129249071603
 30
0.0
 11
-0.3211358024225314
 21
177.6210446582201
 31
0.0
  0
LINE
  5
491
330
1F
100
AcDbEntity
  8
0
  6
CONTINUOUS
 62
     7
100
AcDbLine
 10
-0.1820356107689047
 20
177.5931182387914
 30
0.0
 11
-0.2276877452785306
 21
177.6036070331339
 31
0.0
  0
LINE
  5
492
330
1F
100
AcDbEntity
  8
0
  6
CONTINUOUS
 62
     7
100
AcDbLine
 10
-4.291951091093426
 20
177.9816352776538
 30
0.0
 11
-4.334454052057357
 21
177.9732862958016
 31
0.0
  0
LINE
  5
493
330
1F
100
AcDbEntity
  8
0
  6
CONTINUOUS
 62
     7
100
AcDbLine
 10
-4.24827371582337
 20
177.9886746782351
 30
0.0
 11
-4.291951091093385
 21
177.9816352776537
 31
0.0
  0
LINE
  5
494
330
1F
100
AcDbEntity
  8
0
  6
CONTINUOUS
 62
     7
100
AcDbLine
 10
-0.2276877452785375
 20
177.6036070331339
 30
0.0
 11
-0.2741070902747625
 21
177.6129249071602
 31
0.0
  0
LINE
  5
495
330
1F
100
AcDbEntity
  8
0
  6
CONTINUOUS
 62
     7
100
AcDbLine
 10
0.4488272319110864
 20
177.1058077015255
 30
0.0
 11
0.584585225319574
 21
176.2486654650135
 31
0.0
  0
LINE
  5
496
330
1F
100
AcDbEntity
  8
0
  6
CONTINUOUS
 62
     7
100
AcDbLine
 10
-3.872660574753495
 20
177.9965884434347
 30
0.0
 11
-3.921291949810914
 21
178.000301330336
 31
0.0
  0
LINE
  5
497
330
1F
100
AcDbEntity
  8
0
  6
CONTINUOUS
 62
     7
100
AcDbLine
 10
0.3421656784493576
 20
177.315879683734
 30
0.0
 11
0.3191326231661816
 21
177.3400832215583
 31
0.0
  0
LINE
  5
498
330
1F
100
AcDbEntity
  8
0
  6
CONTINUOUS
 62
     7
100
AcDbLine
 10
-0.36861603838656
 20
177.6279390836626
 30
0.0
 11
-0.4163899548317619
 21
177.6335809808373
 31
0.0
  0
LINE
  5
499
330
1F
100
AcDbEntity
  8
0
  6
CONTINUOUS
 62
     7
100
AcDbLine
 10
-4.741393962982565
 20
177.7573004459119
 30
0.0
 11
-4.759275692353449
 21
177.733745159405
 31
0.0
  0
LINE
  5
49A
330
1F
100
AcDbEntity
  8
0
  6
CONTINUOUS
 62
     7
100
AcDbLine
 10
-4.788685301602924
 20
177.6838311145978
 30
0.0
 11
-4.80010165838693
 21
177.6574923585041
 31
0.0
  0
LINE
  5
49B
330
1F
100
AcDbEntity
  8
0
  6
CONTINUOUS
 62
     7
100
AcDbLine
 10
0.0296867572726067
 20
177.5241653440796
 30
0.0
 11
-0.0103173779541291
 21
177.54010903623
 31
0.0
  0
LINE
  5
49C
330
1F
100
AcDbEntity
  8
0
  6
CONTINUOUS
 62
     7
100
AcDbLine
 10
-4.64916552521244
 20
177.842919482554
 30
0.0
 11
-4.675171315067661
 21
177.8229515043706
 31
0.0
  0
ARC
  5
49D
330
1F
100
AcDbEntity
  8
0
  6
CONTINUOUS
 62
     7
100
AcDbCircle
 10
0.4948876794765855
 20
202.7899971433743
 30
0.0
 40
26.25000000001315
100
AcDbArc
 50
270.0947182621076
 51
281.9052817378923
  0
ARC
  5
49E
330
1F
100
AcDbEntity
  8
0
  6
CONTINUOUS
 62
     7
100
AcDbCircle
 10
0.4948876794765855
 20
202.7899971433743
 30
0.0
 40
26.25000000001315
100
AcDbArc
 50
318.0947182621076
 51
329.9052817378923
  0
ARC
  5
49F
330
1F
100
AcDbEntity
  8
0
  6
CONTINUOUS
 62
     7
100
AcDbCircle
 10
35.71325410006132
 20
202.7899971433743
 30
0.0
 40
2.000000000001001
100
AcDbArc
 50
329.9999999999998
 51
30.00000000000023
  0
ARC
  5
4A0
330
1F
100
AcDbEntity
  8
0
  6
CONTINUOUS
 62
     7
100
AcDbCircle
 10
-34.7234787411082
 20
202.7899971433743
 30
0.0
 40
2.000000000001056
100
AcDbArc
 50
149.9999999999998
 51
210.0000000000002
  0
ARC
  5
4A1
330
1F
100
AcDbEntity
  8
0
  6
CONTINUOUS
 62
     7
100
AcDbCircle
 10
0.4948876794765855
 20
202.7899971433743
 30
0.0
 40
26.25000000001315
100
AcDbArc
 50
246.0947182621076
 51
257.9052817378923
  0
ARC
  5
4A2
330
1F
100
AcDbEntity
  8
0
  6
CONTINUOUS
 62
     7
100
AcDbCircle
 10
0.4948876794765855
 20
202.7899971433743
 30
0.0
 40
26.2500000000131
100
AcDbArc
 50
222.0947182621075
 51
233.9052817378924
  0
LINE
  5
4A3
330
1F
100
AcDbEntity
  8
0
  6
CONTINUOUS
 62
     7
100
AcDbLine
 10
-21.51868780453736
 20
189.9258853451668
 30
0.0
 11
-21.55039582855749
 21
189.929754545381
 31
0.0
  0
LINE
  5
4A4
330
1F
100
AcDbEntity
  8
0
  6
CONTINUOUS
 62
     7
100
AcDbLine
 10
-4.62132440477403
 20
177.861807552945
 30
0.0
 11
-4.64916552521246
 21
177.8429194825541
 31
0.0
  0
LINE
  5
4A5
330
1F
100
AcDbEntity
  8
0
  6
CONTINUOUS
 62
     7
100
AcDbLine
 10
0.3191326231661296
 20
177.3400832215581
 30
0.0
 11
0.2940734341049696
 21
177.3636935928782
 31
0.0
  0
LINE
  5
4A6
330
1F
100
AcDbEntity
  8
0
  6
CONTINUOUS
 62
     7
100
AcDbLine
 10
-4.525672803464942
 20
177.9125242063613
 30
0.0
 11
-4.559374371947658
 21
177.8967215429718
 31
0.0
  0
ARC
  5
4A7
330
1F
100
AcDbEntity
  8
0
  6
CONTINUOUS
 62
     7
100
AcDbCircle
 10
0.4948876794765855
 20
202.7899971433743
 30
0.0
 40
26.55000000001328
100
AcDbArc
 50
200.0000000000002
 51
290.0000000000001
  0
LINE
  5
4A8
330
1F
100
AcDbEntity
  8
0
  6
CONTINUOUS
 62
     7
100
AcDbLine
 10
-21.42031980809888
 20
189.9015965363511
 30
0.0
 11
-21.45378151736541
 21
189.9118690637575
 31
0.0
  0
ARC
  5
4A9
330
1F
100
AcDbEntity
  8
0
  6
CONTINUOUS
 62
     7
100
AcDbCircle
 10
0.4948876794765855
 20
202.7899971433743
 30
0.0
 40
20.00000000001001
100
AcDbArc
 50
90.0
 51
0.0
  0
ARC
  5
4AA
330
1F
100
AcDbEntity
  8
0
  6
CONTINUOUS
 62
     7
100
AcDbCircle
 10
0.4948876794765855
 20
202.7899971433743
 30
0.0
 40
25.16890603643285
100
AcDbArc
 50
116.3436856525
 51
123.6563143475001
  0
ARC
  5
4AB
330
1F
100
AcDbEntity
  8
0
  6
CONTINUOUS
 62
     7
100
AcDbCircle
 10
0.4948876794765855
 20
202.7899971433743
 30
0.0
 40
25.16890603643285
100
AcDbArc
 50
260.3436856524999
 51
267.6563143474999
  0
ARC
  5
4AC
330
1F
100
AcDbEntity
  8
0
  6
CONTINUOUS
 62
     7
100
AcDbCircle
 10
0.4948876794765855
 20
202.7899971433743
 30
0.0
 40
34.50000000001724
100
AcDbArc
 50
20.00000000000001
 51
289.9999999999999
  0
ARC
  5
4AD
330
1F
100
AcDbEntity
  8
0
  6
CONTINUOUS
 62
     7
100
AcDbCircle
 10
0.4948876794765855
 20
202.7899971433743
 30
0.0
 40
25.16890603643285
100
AcDbArc
 50
20.34368565250001
 51
27.65631434750021
  0
ARC
  5
4AE
330
1F
100
AcDbEntity
  8
0
  6
CONTINUOUS
 62
     7
100
AcDbCircle
 10
0.4948876794765855
 20
202.7899971433743
 30
0.0
 40
25.16890603643285
100
AcDbArc
 50
164.3436856525
 51
171.6563143475002
  0
LINE
  5
4AF
330
1F
100
AcDbEntity
  8
0
  6
CONTINUOUS
 62
     7
100
AcDbLine
 10
-21.17898293340126
 20
189.7732766843569
 30
0.0
 11
-21.2136991105444
 21
189.7974191518583
 31
0.0
  0
ARC
  5
4B0
330
1F
100
AcDbEntity
  8
0
  6
CONTINUOUS
 62
     7
100
AcDbCircle
 10
0.4948876794765855
 20
202.7899971433743
 30
0.0
 40
34.50000000001724
100
AcDbArc
 50
20.00000000000001
 51
270.0
  0
ARC
  5
4B1
330
1F
100
AcDbEntity
  8
0
  6
CONTINUOUS
 62
     7
100
AcDbCircle
 10
0.4948876794765855
 20
202.7899971433743
 30
0.0
 40
25.16890603643285
100
AcDbArc
 50
356.3436856524999
 51
3.656314347500199
  0
ARC
  5
4B2
330
1F
100
AcDbEntity
  8
0
  6
CONTINUOUS
 62
     7
100
AcDbCircle
 10
18.10407088976895
 20
172.289997143359
 30
0.0
 40
2.000000000001001
100
AcDbArc
 50
270.0
 51
330.0000000000006
  0
ARC
  5
4B3
330
1F
100
AcDbEntity
  8
0
  6
CONTINUOUS
 62
     7
100
AcDbCircle
 10
0.4948876794765855
 20
202.7899971433743
 30
0.0
 40
25.16890603643285
100
AcDbArc
 50
308.3436856525
 51
315.6563143474999
  0
ARC
  5
4B4
330
1F
100
AcDbEntity
  8
0
  6
CONTINUOUS
 62
     7
100
AcDbCircle
 10
0.4948876794765855
 20
202.7899971433743
 30
0.0
 40
34.50000000001724
100
AcDbArc
 50
270.0
 51
289.9999999999999
  0
ARC
  5
4B5
330
1F
100
AcDbEntity
  8
0
  6
CONTINUOUS
 62
     7
100
AcDbCircle
 10
0.4948876794765855
 20
202.7899971433743
 30
0.0
 40
25.16890603643285
100
AcDbArc
 50
236.3436856525
 51
243.6563143474999
  0
ARC
  5
4B6
330
1F
100
AcDbEntity
  8
0
  6
CONTINUOUS
 62
     7
100
AcDbCircle
 10
18.10407088976895
 20
233.2899971433895
 30
0.0
 40
2.000000000001001
100
AcDbArc
 50
30.00000000000021
 51
89.99999999999999
  0
LINE
  5
4B7
330
1F
100
AcDbEntity
  8
0
  6
CONTINUOUS
 62
     7
100
AcDbLine
 10
-14.54418086363374
 20
223.5772099492799
 30
0.0
 11
-14.52190518681949
 21
223.5598535206152
 31
0.0
  0
LINE
  5
4B8
330
1F
100
AcDbEntity
  8
0
  6
CONTINUOUS
 62
     7
100
AcDbLine
 10
-21.28289983410358
 20
189.8398284178968
 30
0.0
 11
-21.31755463448524
 21
189.8582462061938
 31
0.0
  0
ARC
  5
4B9
330
1F
100
AcDbEntity
  8
0
  6
CONTINUOUS
 62
     7
100
AcDbCircle
 10
0.4948876794765855
 20
202.7899971433743
 30
0.0
 40
26.55000000001328
100
AcDbArc
 50
289.9999999999999
 51
200.0
  0
LINE
  5
4BA
330
1F
100
AcDbEntity
  8
0
  6
CONTINUOUS
 62
     7
100
AcDbLine
 10
-21.64125785116899
 20
189.928696382249
 30
0.0
 11
-21.66976851689399
 21
189.9240911838878
 31
0.0
  0
LINE
  5
4BB
330
1F
100
AcDbEntity
  8
0
  6
CONTINUOUS
 62
     7
100
AcDbLine
 10
-14.38631856240213
 20
223.4964681744963
 30
0.0
 11
-14.35486818422021
 21
223.4887588248312
 31
0.0
  0
ARC
  5
4BC
330
1F
100
AcDbEntity
  8
0
  6
CONTINUOUS
 62
     7
100
AcDbCircle
 10
0.4948876794765855
 20
202.7899971433743
 30
0.0
 40
25.16890603643285
100
AcDbArc
 50
212.3436856524998
 51
219.6563143474999
  0
ARC
  5
4BD
330
1F
100
AcDbEntity
  8
0
  6
CONTINUOUS
 62
     7
100
AcDbCircle
 10
0.4948876794765855
 20
202.7899971433743
 30
0.0
 40
25.16890603643285
100
AcDbArc
 50
188.3436856525
 51
195.6563143475001
  0
ARC
  5
4BE
330
1F
100
AcDbEntity
  8
0
  6
CONTINUOUS
 62
     7
100
AcDbCircle
 10
0.4948876794765855
 20
202.7899971433743
 30
0.0
 40
25.16890603643285
100
AcDbArc
 50
284.3436856525
 51
291.6563143475
  0
LINE
  5
4BF
330
1F
100
AcDbEntity
  8
0
  6
CONTINUOUS
 62
     7
100
AcDbLine
 10
-21.31755463448526
 20
189.8582462061937
 30
0.0
 11
-21.35208828483058
 21
189.8747221362489
 31
0.0
  0
LINE
  5
4C0
330
1F
100
AcDbEntity
  8
0
  6
CONTINUOUS
 62
     7
100
AcDbLine
 10
-21.55039582855744
 20
189.929754545381
 30
0.0
 11
-21.58146470940196
 21
189.9315188961778
 31
0.0
  0
LINE
  5
4C1
330
1F
100
AcDbEntity
  8
0
  6
CONTINUOUS
 62
     7
100
AcDbLine
 10
-14.49789776955601
 20
223.5439942361128
 30
0.0
 11
-14.47224700516289
 21
223.5296790775112
 31
0.0
  0
ARC
  5
4C2
330
1F
100
AcDbEntity
  8
0
  6
CONTINUOUS
 62
     7
100
AcDbCircle
 10
0.4948876794765855
 20
202.7899971433743
 30
0.0
 40
34.50000000001724
100
AcDbArc
 50
289.9999999999999
 51
20.0
  0
ARC
  5
4C3
330
1F
100
AcDbEntity
  8
0
  6
CONTINUOUS
 62
     7
100
AcDbCircle
 10
0.4948876794765855
 20
202.7899971433743
 30
0.0
 40
25.16890603643285
100
AcDbArc
 50
68.34368565249994
 51
75.65631434749986
  0
ARC
  5
4C4
330
1F
100
AcDbEntity
  8
0
  6
CONTINUOUS
 62
     7
100
AcDbCircle
 10
-17.11429553081584
 20
233.2899971433895
 30
0.0
 40
2.000000000001001
100
AcDbArc
 50
90.0
 51
149.9999999999998
  0
ARC
  5
4C5
330
1F
100
AcDbEntity
  8
0
  6
CONTINUOUS
 62
     7
100
AcDbCircle
 10
-17.11429553081584
 20
172.289997143359
 30
0.0
 40
2.000000000001056
100
AcDbArc
 50
210.0000000000002
 51
270.0
  0
LINE
  5
4C6
330
1F
100
AcDbEntity
  8
0
  6
CONTINUOUS
 62
     7
100
AcDbLine
 10
-14.44504128695973
 20
223.5169550265491
 30
0.0
 11
-14.41636900826625
 21
223.5058690649646
 31
0.0
  0
LINE
  5
4C7
330
1F
100
AcDbEntity
  8
0
  6
CONTINUOUS
 62
     7
100
AcDbLine
 10
-21.14433839869789
 20
189.7472773881385
 30
0.0
 11
-21.17898293340124
 21
189.773276684357
 31
0.0
  0
ARC
  5
4C8
330
1F
100
AcDbEntity
  8
0
  6
CONTINUOUS
 62
     7
100
AcDbCircle
 10
0.4948876794765855
 20
202.7899971433743
 30
0.0
 40
20.00000000001001
100
AcDbArc
 50
0.0
 51
90.0
  0
ARC
  5
4C9
330
1F
100
AcDbEntity
  8
0
  6
CONTINUOUS
 62
     7
100
AcDbCircle
 10
0.4948876794765855
 20
202.7899971433743
 30
0.0
 40
25.16890603643285
100
AcDbArc
 50
332.3436856524999
 51
339.6563143475004
  0
MTEXT
  5
4CA
330
1F
100
AcDbEntity
  8
0
 62
     7
100
AcDbMText
 10
35.43301566290576
 20
148.993950268569
 30
0.0
 40
4.5
 41
0.0
 71
     1
 72
     1
  1
{\fＭＳ ゴシック;FPK-42YP}
  0
ENDSEC
  0
SECTION
  2
OBJECTS
  0
DICTIONARY
  5
C
330
0
100
AcDbDictionary
  3
ACAD_GROUP
350
D
  3
ACAD_LAYOUT
350
1A
  3
ACAD_MATERIAL
350
43
  3
ACAD_MLEADERSTYLE
350
6B
  3
ACAD_MLINESTYLE
350
17
  3
ACAD_PLOTSETTINGS
350
19
  3
ACAD_SCALELIST
350
47
  3
ACAD_VISUALSTYLE
350
2A
  3
ACDBHEADERROUNDTRIPXREC
350
4CB
  3
ACDBVARIABLEDICTIONARY
350
4EC
  0
DICTIONARY
  5
4F3
330
8
100
AcDbDictionary
280
     1
  3
ACAD_XREC_ROUNDTRIP
360
4F4
  0
DICTIONARY
  5
D
102
{ACAD_REACTORS
330
C
102
}
330
C
100
AcDbDictionary
  0
DICTIONARY
  5
1A
102
{ACAD_REACTORS
330
C
102
}
330
C
100
AcDbDictionary
  0
DICTIONARY
  5
43
102
{ACAD_REACTORS
330
C
102
}
330
C
100
AcDbDictionary
  3
BYBLOCK
350
45
  3
BYLAYER
350
44
  3
GLOBAL
350
46
  0
DICTIONARY
  5
6B
102
{ACAD_REACTORS
330
C
102
}
330
C
100
AcDbDictionary
  3
STANDARD
350
6C
  0
DICTIONARY
  5
17
102
{ACAD_REACTORS
330
C
102
}
330
C
100
AcDbDictionary
  3
STANDARD
350
18
  0
DICTIONARY
  5
19
102
{ACAD_REACTORS
330
C
102
}
330
C
100
AcDbDictionary
  0
DICTIONARY
  5
47
102
{ACAD_REACTORS
330
C
102
}
330
C
100
AcDbDictionary
  3
A0
350
48
  3
A1
350
49
  3
A2
350
4A
  3
A3
350
4B
  3
A4
350
4C
  3
A5
350
4D
  3
A6
350
4E
  3
A7
350
4F
  3
A8
350
50
  3
A9
350
51
  3
B0
350
52
  3
B1
350
53
  3
B2
350
54
  3
B3
350
55
  3
B4
350
56
  3
B5
350
57
  3
B6
350
58
  3
B7
350
59
  3
B8
350
5A
  3
B9
350
5B
  3
C0
350
5C
  3
C1
350
5D
  3
C2
350
5E
  3
C3
350
5F
  3
C4
350
60
  3
C5
350
61
  3
C6
350
62
  3
C7
350
63
  3
C8
350
64
  3
C9
350
65
  3
D0
350
66
  3
D1
350
67
  3
D2
350
68
  0
DICTIONARY
  5
2A
102
{ACAD_REACTORS
330
C
102
}
330
C
100
AcDbDictionary
  3
2DWIREFRAME
350
2F
  3
BASIC
350
32
  3
BRIGHTEN
350
36
  3
COLORCHANGE
350
3A
  3
CONCEPTUAL
350
34
  3
DIM
350
35
  3
EDGECOLOROFF
350
3D
  3
FACEPATTERN
350
39
  3
FLAT
350
2B
  3
FLATWITHEDGES
350
2C
  3
GOURAUD
350
2D
  3
GOURAUDWITHEDGES
350
2E
  3
HIDDEN
350
31
  3
JITTEROFF
350
3B
  3
LINEPATTERN
350
38
  3
OVERHANGOFF
350
3C
  3
REALISTIC
350
33
  3
SHADED
350
42
  3
SHADED_WITH_EDGES
350
41
  3
SHADES_OF_GRAY
350
3E
  3
SKETCHY
350
3F
  3
THICKEN
350
37
  3
WIREFRAME
350
30
  3
X-RAY
350
40
  0
DICTIONARY
  5
4CB
102
{ACAD_REACTORS
330
C
102
}
330
C
100
AcDbDictionary
  3
CEPSNID
350
4D5
  3
CEPSNTYPE
350
4D4
  3
DIMSTYLEDATA
350
4EB
  3
FINGERPRINTGUID
350
4D6
  3
HYPERLINKBASE
350
4CE
  3
INSUNITS
350
4D3
  3
LAYOUTDICT
350
4D0
  3
LWETCUNION
350
4D2
  3
PLOTSETDICT
350
4D1
  3
PSVPSCALE
350
4D8
  3
PUCSBASE
350
4DB
  3
PUCSORGBACK
350
4E1
  3
PUCSORGBOTTOM
350
4DD
  3
PUCSORGFRONT
350
4E0
  3
PUCSORGLEFT
350
4DE
  3
PUCSORGRIGHT
350
4DF
  3
PUCSORGTOP
350
4DC
  3
PUCSORTHOREF
350
4D9
  3
PUCSORTHOVIEW
350
4DA
  3
STYLESHEET
350
4CF
  3
TSTACKALIGN
350
4CC
  3
TSTACKSIZE
350
4CD
  3
UCSBASE
350
4E4
  3
UCSORGBACK
350
4EA
  3
UCSORGBOTTOM
350
4E6
  3
UCSORGFRONT
350
4E9
  3
UCSORGLEFT
350
4E7
  3
UCSORGRIGHT
350
4E8
  3
UCSORGTOP
350
4E5
  3
UCSORTHOREF
350
4E2
  3
UCSORTHOVIEW
350
4E3
  3
VERSIONGUID
350
4D7
  0
DICTIONARY
  5
4EC
102
{ACAD_REACTORS
330
C
102
}
330
C
100
AcDbDictionary
  3
CANNOSCALE
350
4F5
  3
CMLEADERSTYLE
350
4EE
  3
CTABLESTYLE
350
4ED
  3
DIMASSOC
350
4F1
  3
HIDETEXT
350
4F2
  3
MSLTSCALE
350
4F6
  0
XRECORD
  5
4F4
102
{ACAD_REACTORS
330
4F3
102
}
330
4F3
100
AcDbXrecord
102
VTR_0.000_0.000_1.000_1.000_VISUALSTYLE
340
2F
102
VTR_0.000_0.000_1.000_1.000_GRIDDISPLAY
 70
     3
102
VTR_0.000_0.000_1.000_1.000_GRIDMAJOR
 70
     5
102
VTR_0.000_0.000_1.000_1.000_DEFAULTLIGHTING
280
     1
102
VTR_0.000_0.000_1.000_1.000_DEFAULTLIGHTINGTYPE
 70
     1
102
VTR_0.000_0.000_1.000_1.000_BRIGHTNESS
141
0.0
102
VTR_0.000_0.000_1.000_1.000_CONTRAST
142
0.0
  0
MATERIAL
  5
45
102
{ACAD_REACTORS
330
43
102
}
102
{ACAD_XDICTIONARY
360
4F9
102
}
330
43
100
AcDbMaterial
  1
BYBLOCK
  0
MATERIAL
  5
44
102
{ACAD_REACTORS
330
43
102
}
102
{ACAD_XDICTIONARY
360
4F7
102
}
330
43
100
AcDbMaterial
  1
BYLAYER
  0
MATERIAL
  5
46
102
{ACAD_REACTORS
330
43
102
}
102
{ACAD_XDICTIONARY
360
4FB
102
}
330
43
100
AcDbMaterial
  1
GLOBAL
  0
ACAD_PROXY_OBJECT
  5
6C
102
{ACAD_REACTORS
330
6B
102
}
330
6B
100
AcDbProxyObject
 90
      499
 91
      505
 93
      610
310
40901902A4063FBFFFFFE056BD1B81E855B9FC0AD7A3703D0AD73F4214DD185B99185C9900AD7A3703D0AC73F90141901A02B5E8DC0F42B1CFC02B5E8DC0F42B1CFE5764000000000000300FC0
340
14
340
0
340
11
340
0
 94
        0
1001
ACAD_MLEADERVER
1070
     2
  0
MLINESTYLE
  5
18
102
{ACAD_REACTORS
330
17
102
}
330
17
100
AcDbMlineStyle
  2
Standard
 70
     0
  3

 62
   256
 51
90.0
 52
90.0
 71
     2
 49
0.5
 62
   256
  6
BYLAYER
 49
-0.5
 62
   256
  6
BYLAYER
  0
ACAD_PROXY_OBJECT
  5
48
102
{ACAD_REACTORS
330
47
102
}
330
47
100
AcDbProxyObject
 90
      499
 91
      503
 93
       41
310
903313A31580
  0
ACAD_PROXY_OBJECT
  5
49
102
{ACAD_REACTORS
330
47
102
}
330
47
100
AcDbProxyObject
 90
      499
 91
      503
 93
      105
310
903313A324000000000000004000
  0
ACAD_PROXY_OBJECT
  5
4A
102
{ACAD_REACTORS
330
47
102
}
330
47
100
AcDbProxyObject
 90
      499
 91
      503
 93
      105
310
903313A344000000000000104000
  0
ACAD_PROXY_OBJECT
  5
4B
102
{ACAD_REACTORS
330
47
102
}
330
47
100
AcDbProxyObject
 90
      499
 91
      503
 93
      105
310
903313A354000000000000144000
  0
ACAD_PROXY_OBJECT
  5
4C
102
{ACAD_REACTORS
330
47
102
}
330
47
100
AcDbProxyObject
 90
      499
 91
      503
 93
      105
310
903313A384000000000000204000
  0
ACAD_PROXY_OBJECT
  5
4D
102
{ACAD_REACTORS
330
47
102
}
330
47
100
AcDbProxyObject
 90
      499
 91
      503
 93
      113
310
904313A31304000000000000244000
  0
ACAD_PROXY_OBJECT
  5
4E
102
{ACAD_REACTORS
330
47
102
}
330
47
100
AcDbProxyObject
 90
      499
 91
      503
 93
      113
310
904313A31364000000000000304000
  0
ACAD_PROXY_OBJECT
  5
4F
102
{ACAD_REACTORS
330
47
102
}
330
47
100
AcDbProxyObject
 90
      499
 91
      503
 93
      113
310
904313A32304000000000000344000
  0
ACAD_PROXY_OBJECT
  5
50
102
{ACAD_REACTORS
330
47
102
}
330
47
100
AcDbProxyObject
 90
      499
 91
      503
 93
      113
310
904313A333040000000000003E4000
  0
ACAD_PROXY_OBJECT
  5
51
102
{ACAD_REACTORS
330
47
102
}
330
47
100
AcDbProxyObject
 90
      499
 91
      503
 93
      113
310
904313A34304000000000000444000
  0
ACAD_PROXY_OBJECT
  5
52
102
{ACAD_REACTORS
330
47
102
}
330
47
100
AcDbProxyObject
 90
      499
 91
      503
 93
      113
310
904313A35304000000000000494000
  0
ACAD_PROXY_OBJECT
  5
53
102
{ACAD_REACTORS
330
47
102
}
330
47
100
AcDbProxyObject
 90
      499
 91
      503
 93
      121
310
905313A3130304000000000000594000
  0
ACAD_PROXY_OBJECT
  5
54
102
{ACAD_REACTORS
330
47
102
}
330
47
100
AcDbProxyObject
 90
      499
 91
      503
 93
      105
310
903323A310000000000000010100
  0
ACAD_PROXY_OBJECT
  5
55
102
{ACAD_REACTORS
330
47
102
}
330
47
100
AcDbProxyObject
 90
      499
 91
      503
 93
      105
310
903343A310000000000000410100
  0
ACAD_PROXY_OBJECT
  5
56
102
{ACAD_REACTORS
330
47
102
}
330
47
100
AcDbProxyObject
 90
      499
 91
      503
 93
      105
310
903383A310000000000000810100
  0
ACAD_PROXY_OBJECT
  5
57
102
{ACAD_REACTORS
330
47
102
}
330
47
100
AcDbProxyObject
 90
      499
 91
      503
 93
      113
310
90431303A310000000000000910100
  0
ACAD_PROXY_OBJECT
  5
58
102
{ACAD_REACTORS
330
47
102
}
330
47
100
AcDbProxyObject
 90
      499
 91
      503
 93
      121
310
9053130303A310000000000001650100
  0
ACAD_PROXY_OBJECT
  5
59
102
{ACAD_REACTORS
330
47
102
}
330
47
100
AcDbProxyObject
 90
      499
 91
      503
 93
      257
310
90E312F31323822203D2031272D3022000000000000200FC000000000000284000
  0
ACAD_PROXY_OBJECT
  5
5A
102
{ACAD_REACTORS
330
47
102
}
330
47
100
AcDbProxyObject
 90
      499
 91
      503
 93
      249
310
90D312F363422203D2031272D3022000000000000240FC000000000000284000
  0
ACAD_PROXY_OBJECT
  5
5B
102
{ACAD_REACTORS
330
47
102
}
330
47
100
AcDbProxyObject
 90
      499
 91
      503
 93
      249
310
90D312F333222203D2031272D3022000000000000280FC000000000000284000
  0
ACAD_PROXY_OBJECT
  5
5C
102
{ACAD_REACTORS
330
47
102
}
330
47
100
AcDbProxyObject
 90
      499
 91
      503
 93
      249
310
90D312F313622203D2031272D30220000000000002C0FC000000000000284000
  0
ACAD_PROXY_OBJECT
  5
5D
102
{ACAD_REACTORS
330
47
102
}
330
47
100
AcDbProxyObject
 90
      499
 91
      503
 93
      249
310
90D332F333222203D2031272D30220000000000002E0FC000000000000284000
  0
ACAD_PROXY_OBJECT
  5
5E
102
{ACAD_REACTORS
330
47
102
}
330
47
100
AcDbProxyObject
 90
      499
 91
      503
 93
      241
310
90C312F3822203D2031272D3022000000000000300FC000000000000284000
  0
ACAD_PROXY_OBJECT
  5
5F
102
{ACAD_REACTORS
330
47
102
}
330
47
100
AcDbProxyObject
 90
      499
 91
      503
 93
      249
310
90D332F313622203D2031272D3022000000000000320FC000000000000284000
  0
ACAD_PROXY_OBJECT
  5
60
102
{ACAD_REACTORS
330
47
102
}
330
47
100
AcDbProxyObject
 90
      499
 91
      503
 93
      241
310
90C312F3422203D2031272D3022000000000000340FC000000000000284000
  0
ACAD_PROXY_OBJECT
  5
61
102
{ACAD_REACTORS
330
47
102
}
330
47
100
AcDbProxyObject
 90
      499
 91
      503
 93
      241
310
90C332F3822203D2031272D3022000000000000360FC000000000000284000
  0
ACAD_PROXY_OBJECT
  5
62
102
{ACAD_REACTORS
330
47
102
}
330
47
100
AcDbProxyObject
 90
      499
 91
      503
 93
      241
310
90C312F3222203D2031272D3022000000000000380FC000000000000284000
  0
ACAD_PROXY_OBJECT
  5
63
102
{ACAD_REACTORS
330
47
102
}
330
47
100
AcDbProxyObject
 90
      499
 91
      503
 93
      241
310
90C332F3422203D2031272D30220000000000003A0FC000000000000284000
  0
ACAD_PROXY_OBJECT
  5
64
102
{ACAD_REACTORS
330
47
102
}
330
47
100
AcDbProxyObject
 90
      499
 91
      503
 93
      161
310
90A3122203D2031272D30224000000000000284000
  0
ACAD_PROXY_OBJECT
  5
65
102
{ACAD_REACTORS
330
47
102
}
330
47
100
AcDbProxyObject
 90
      499
 91
      503
 93
      257
310
90E312D312F3222203D2031272D30220000000000003E0FC000000000000284000
  0
ACAD_PROXY_OBJECT
  5
66
102
{ACAD_REACTORS
330
47
102
}
330
47
100
AcDbProxyObject
 90
      499
 91
      503
 93
      225
310
90A3322203D2031272D302200000000000002100000000000000284000
  0
ACAD_PROXY_OBJECT
  5
67
102
{ACAD_REACTORS
330
47
102
}
330
47
100
AcDbProxyObject
 90
      499
 91
      503
 93
      225
310
90A3622203D2031272D302200000000000006100000000000000284000
  0
ACAD_PROXY_OBJECT
  5
68
102
{ACAD_REACTORS
330
47
102
}
330
47
100
AcDbProxyObject
 90
      499
 91
      503
 93
      249
310
90D31272D3022203D2031272D30220000000000000A100000000000000284000
  0
ACAD_PROXY_OBJECT
  5
2F
102
{ACAD_REACTORS
330
2A
102
}
330
2A
100
AcDbProxyObject
 90
      499
 91
      501
 93
      436
310
42CC9915DA5C99599C985B595049028333333333333E33F0000000000000F90107901411070040501600405405064090741402480A0340
1001
ACAD
1000
AcDbSavedByObjectVersion
1070
     0
  0
ACAD_PROXY_OBJECT
  5
32
102
{ACAD_REACTORS
330
2A
102
}
330
2A
100
AcDbProxyObject
 90
      499
 91
      501
 93
      388
310
4150985CDA58D07406404333333333333E33F0000000000000F90107A41107004050150841D405064090741402480A0350
1001
ACAD
1000
AcDbSavedByObjectVersion
1070
     0
  0
ACAD_PROXY_OBJECT
  5
36
102
{ACAD_REACTORS
330
2A
102
}
330
2A
100
AcDbProxyObject
 90
      499
 91
      501
 93
      428
310
42109C9A59DA1D195B90C409028333333333333E33F0000000000000F9010790141107004050150841D405064090741402480A029950
1001
ACAD
1000
AcDbSavedByObjectVersion
1070
     0
  0
ACAD_PROXY_OBJECT
  5
3A
102
{ACAD_REACTORS
330
2A
102
}
330
2A
100
AcDbProxyObject
 90
      499
 91
      501
 93
      452
310
42D0DBDB1BDC90DA185B99D95104090240C333333333333E33F0000000000000F90108901411070040501508421405064090741402480A0350
1001
ACAD
1000
AcDbSavedByObjectVersion
1070
     0
  0
ACAD_PROXY_OBJECT
  5
34
102
{ACAD_REACTORS
330
2A
102
}
330
2A
100
AcDbProxyObject
 90
      499
 91
      501
 93
      500
310
4290DBDB98D95C1D1D585B10940D028333333333333E33F0000000000000F90107902409070040501000000000018199010841D405064090740C02480A0340
1001
ACAD
1000
AcDbSavedByObjectVersion
1070
     0
  0
ACAD_PROXY_OBJECT
  5
35
102
{ACAD_REACTORS
330
2A
102
}
330
2A
100
AcDbProxyObject
 90
      499
 91
      501
 93
      412
310
40D11A5B50B409028333333333333E33F0000000000000F9010790141107004050150841D405064090741402480A02677FFFFFD0
1001
ACAD
1000
AcDbSavedByObjectVersion
1070
     0
  0
ACAD_PROXY_OBJECT
  5
3D
102
{ACAD_REACTORS
330
2A
102
}
330
2A
100
AcDbProxyObject
 90
      499
 91
      501
 93
      452
310
43115919D950DBDB1BDC93D999916409028333333333333E33F0000000000000F9010790141107004050150841D405064090741402480A0350
1001
ACAD
1000
AcDbSavedByObjectVersion
1070
     0
  0
ACAD_PROXY_OBJECT
  5
39
102
{ACAD_REACTORS
330
2A
102
}
330
2A
100
AcDbProxyObject
 90
      499
 91
      501
 93
      444
310
42D19858D95C185D1D195C9B90F409028333333333333E33F0000000000000F9010790141107004050150841D405064090741402480A0350
1001
ACAD
1000
AcDbSavedByObjectVersion
1070
     0
  0
ACAD_PROXY_OBJECT
  5
2B
102
{ACAD_REACTORS
330
2A
102
}
330
2A
100
AcDbProxyObject
 90
      499
 91
      501
 93
      380
310
41119B185D240901404333333333333E33F0000000000000F9010740A907004050150841D405064090741402480A1B50
1001
ACAD
1000
AcDbSavedByObjectVersion
1070
     0
  0
ACAD_PROXY_OBJECT
  5
2C
102
{ACAD_REACTORS
330
2A
102
}
330
2A
100
AcDbProxyObject
 90
      499
 91
      501
 93
      468
310
43519B185D15DA5D1A115919D95CD0140901404333333333333E33F0000000000000F90107409019070040501600405405064090741402480A1B50
1001
ACAD
1000
AcDbSavedByObjectVersion
1070
     0
  0
ACAD_PROXY_OBJECT
  5
2D
102
{ACAD_REACTORS
330
2A
102
}
330
2A
100
AcDbProxyObject
 90
      499
 91
      501
 93
      404
310
41D1DBDD5C985D5910240902404333333333333E33F0000000000000F9010740A9070040501641D405064090741402480A1B50
1001
ACAD
1000
AcDbSavedByObjectVersion
1070
     0
  0
ACAD_PROXY_OBJECT
  5
2E
102
{ACAD_REACTORS
330
2A
102
}
330
2A
100
AcDbProxyObject
 90
      499
 91
      501
 93
      492
310
4411DBDD5C985D5915DA5D1A115919D95CD0340902404333333333333E33F0000000000000F90107409019070040501600405405064090741402480A1B50
1001
ACAD
1000
AcDbSavedByObjectVersion
1070
     0
  0
ACAD_PROXY_OBJECT
  5
31
102
{ACAD_REACTORS
330
2A
102
}
330
2A
100
AcDbProxyObject
 90
      499
 91
      501
 93
      476
310
41921A5919195B90640502408333333333333E33F0000000000000F901079024090700405020000000000001110200405405064090740C02480A0340
1001
ACAD
1000
AcDbSavedByObjectVersion
1070
     0
  0
ACAD_PROXY_OBJECT
  5
3B
102
{ACAD_REACTORS
330
2A
102
}
330
2A
100
AcDbProxyObject
 90
      499
 91
      501
 93
      428
310
42529A5D1D195C93D999914409028333333333333E33F0000000000000F9010790141107004050150A41D405064090741402480A0350
1001
ACAD
1000
AcDbSavedByObjectVersion
1070
     0
  0
ACAD_PROXY_OBJECT
  5
38
102
{ACAD_REACTORS
330
2A
102
}
330
2A
100
AcDbProxyObject
 90
      499
 91
      501
 93
      444
310
42D31A5B995C185D1D195C9B90E409028333333333333E33F0000000000000F9010790141107004050750841D405064090741402483A0350
1001
ACAD
1000
AcDbSavedByObjectVersion
1070
     0
  0
ACAD_PROXY_OBJECT
  5
3C
102
{ACAD_REACTORS
330
2A
102
}
330
2A
100
AcDbProxyObject
 90
      499
 91
      501
 93
      444
310
42D3DD995C9A185B99D3D999915409028333333333333E33F0000000000000F9010790141107004050150941D405064090741402480A0350
1001
ACAD
1000
AcDbSavedByObjectVersion
1070
     0
  0
ACAD_PROXY_OBJECT
  5
33
102
{ACAD_REACTORS
330
2A
102
}
330
2A
100
AcDbProxyObject
 90
      499
 91
      501
 93
      428
310
425499585B1A5CDD1A58D08409038333333333333E33F0000000000000F9010740A907004050150800405405064090740C02480A1B40
1001
ACAD
1000
AcDbSavedByObjectVersion
1070
     0
  0
ACAD_PROXY_OBJECT
  5
42
102
{ACAD_REACTORS
330
2A
102
}
330
2A
100
AcDbProxyObject
 90
      499
 91
      501
 93
      420
310
4194DA1859195911B40902404333333333333E33F0000000000000F9010740A41107004050150800405405064090840C02480A0B40
1001
ACAD
1000
AcDbSavedByObjectVersion
1070
     0
  0
ACAD_PROXY_OBJECT
  5
41
102
{ACAD_REACTORS
330
2A
102
}
330
2A
100
AcDbProxyObject
 90
      499
 91
      501
 93
      516
310
4454DA18591959081DDA5D1A08195919D95CD1A40902404333333333333E33F0000000000000F901074090142907004050250800405405064090740C02480A0B40
1001
ACAD
1000
AcDbSavedByObjectVersion
1070
     0
  0
ACAD_PROXY_OBJECT
  5
3E
102
{ACAD_REACTORS
330
2A
102
}
330
2A
100
AcDbProxyObject
 90
      499
 91
      501
 93
      532
310
4394DA1859195CC81BD98811DC985E5174090240C333333333333E33F0000000000000F901079024090741D01000000000000111010841D405064090740C02480A0340
1001
ACAD
1000
AcDbSavedByObjectVersion
1070
     0
  0
ACAD_PROXY_OBJECT
  5
3F
102
{ACAD_REACTORS
330
2A
102
}
330
2A
100
AcDbProxyObject
 90
      499
 91
      501
 93
      476
310
41D4DAD95D18DA1E51840502408333333333333E33F0000000000000F901079024090741D01000000000000111010B41D405064090741802480A0340
1001
ACAD
1000
AcDbSavedByObjectVersion
1070
     0
  0
ACAD_PROXY_OBJECT
  5
37
102
{ACAD_REACTORS
330
2A
102
}
330
2A
100
AcDbProxyObject
 90
      499
 91
      501
 93
      412
310
41D51A1A58DAD95B90D409028333333333333E33F0000000000000F9010790141107004050150C41D405064090741402480A0350
1001
ACAD
1000
AcDbSavedByObjectVersion
1070
     0
  0
ACAD_PROXY_OBJECT
  5
30
102
{ACAD_REACTORS
330
2A
102
}
330
2A
100
AcDbProxyObject
 90
      499
 91
      501
 93
      420
310
4255DA5C99599C985B595059028333333333333E33F0000000000000F90107901411070040501600405405064090740C02480A0340
1001
ACAD
1000
AcDbSavedByObjectVersion
1070
     0
  0
ACAD_PROXY_OBJECT
  5
40
102
{ACAD_REACTORS
330
2A
102
}
330
2A
100
AcDbProxyObject
 90
      499
 91
      501
 93
      404
310
41560B54985E51940902404000000000000E03F0000000000000F9010740501907004050150841D405064090740C02480A1B40
1001
ACAD
1000
AcDbSavedByObjectVersion
1070
     0
  0
XRECORD
  5
4D5
102
{ACAD_REACTORS
330
4CB
102
}
330
4CB
100
AcDbXrecord
340
0
  0
XRECORD
  5
4D4
102
{ACAD_REACTORS
330
4CB
102
}
330
4CB
100
AcDbXrecord
 90
        0
  0
XRECORD
  5
4EB
102
{ACAD_REACTORS
330
4CB
102
}
330
4CB
100
AcDbXrecord
1000
DSTYLE
1002
{
1070
   179
 70
     2
1070
   171
 70
     2
1070
   143
 40
25.4
1070
   274
 70
     2
1070
    41
 40
3.0
1070
   141
 40
0.09
1070
    43
 40
0.38
1070
   278
 70
    46
1070
    44
 40
1.5
1070
    42
 40
0.0625
1070
   147
 40
1.5
1070
   272
 70
     4
1070
    73
 70
     1
1070
   172
 70
     0
1070
    74
 70
     1
1070
   283
 70
     1
1070
   340
340
6E
1070
   140
 40
3.0
1070
   284
 70
     0
1070
    78
 70
     0
1002
}
  0
XRECORD
  5
4D6
102
{ACAD_REACTORS
330
4CB
102
}
330
4CB
100
AcDbXrecord
  1
{7C0A6611-24F7-42F5-BFEF-4377D81E0160}
  0
XRECORD
  5
4CE
102
{ACAD_REACTORS
330
4CB
102
}
330
4CB
100
AcDbXrecord
  1

  0
XRECORD
  5
4D3
102
{ACAD_REACTORS
330
4CB
102
}
330
4CB
100
AcDbXrecord
 90
        4
  0
XRECORD
  5
4D0
102
{ACAD_REACTORS
330
4CB
102
}
330
4CB
100
AcDbXrecord
340
1A
  0
XRECORD
  5
4D2
102
{ACAD_REACTORS
330
4CB
102
}
330
4CB
100
AcDbXrecord
 90
    10269
  0
XRECORD
  5
4D1
102
{ACAD_REACTORS
330
4CB
102
}
330
4CB
100
AcDbXrecord
340
19
  0
XRECORD
  5
4D8
102
{ACAD_REACTORS
330
4CB
102
}
330
4CB
100
AcDbXrecord
 40
0.0
  0
XRECORD
  5
4DB
102
{ACAD_REACTORS
330
4CB
102
}
330
4CB
100
AcDbXrecord
340
0
  0
XRECORD
  5
4E1
102
{ACAD_REACTORS
330
4CB
102
}
330
4CB
100
AcDbXrecord
 10
0.0
 20
0.0
 30
0.0
  0
XRECORD
  5
4DD
102
{ACAD_REACTORS
330
4CB
102
}
330
4CB
100
AcDbXrecord
 10
0.0
 20
0.0
 30
0.0
  0
XRECORD
  5
4E0
102
{ACAD_REACTORS
330
4CB
102
}
330
4CB
100
AcDbXrecord
 10
0.0
 20
0.0
 30
0.0
  0
XRECORD
  5
4DE
102
{ACAD_REACTORS
330
4CB
102
}
330
4CB
100
AcDbXrecord
 10
0.0
 20
0.0
 30
0.0
  0
XRECORD
  5
4DF
102
{ACAD_REACTORS
330
4CB
102
}
330
4CB
100
AcDbXrecord
 10
0.0
 20
0.0
 30
0.0
  0
XRECORD
  5
4DC
102
{ACAD_REACTORS
330
4CB
102
}
330
4CB
100
AcDbXrecord
 10
0.0
 20
0.0
 30
0.0
  0
XRECORD
  5
4D9
102
{ACAD_REACTORS
330
4CB
102
}
330
4CB
100
AcDbXrecord
340
0
  0
XRECORD
  5
4DA
102
{ACAD_REACTORS
330
4CB
102
}
330
4CB
100
AcDbXrecord
 70
     0
  0
XRECORD
  5
4CF
102
{ACAD_REACTORS
330
4CB
102
}
330
4CB
100
AcDbXrecord
  1

  0
XRECORD
  5
4CC
102
{ACAD_REACTORS
330
4CB
102
}
330
4CB
100
AcDbXrecord
 90
        1
  0
XRECORD
  5
4CD
102
{ACAD_REACTORS
330
4CB
102
}
330
4CB
100
AcDbXrecord
 90
       70
  0
XRECORD
  5
4E4
102
{ACAD_REACTORS
330
4CB
102
}
330
4CB
100
AcDbXrecord
340
0
  0
XRECORD
  5
4EA
102
{ACAD_REACTORS
330
4CB
102
}
330
4CB
100
AcDbXrecord
 10
0.0
 20
0.0
 30
0.0
  0
XRECORD
  5
4E6
102
{ACAD_REACTORS
330
4CB
102
}
330
4CB
100
AcDbXrecord
 10
0.0
 20
0.0
 30
0.0
  0
XRECORD
  5
4E9
102
{ACAD_REACTORS
330
4CB
102
}
330
4CB
100
AcDbXrecord
 10
0.0
 20
0.0
 30
0.0
  0
XRECORD
  5
4E7
102
{ACAD_REACTORS
330
4CB
102
}
330
4CB
100
AcDbXrecord
 10
0.0
 20
0.0
 30
0.0
  0
XRECORD
  5
4E8
102
{ACAD_REACTORS
330
4CB
102
}
330
4CB
100
AcDbXrecord
 10
0.0
 20
0.0
 30
0.0
  0
XRECORD
  5
4E5
102
{ACAD_REACTORS
330
4CB
102
}
330
4CB
100
AcDbXrecord
 10
0.0
 20
0.0
 30
0.0
  0
XRECORD
  5
4E2
102
{ACAD_REACTORS
330
4CB
102
}
330
4CB
100
AcDbXrecord
340
0
  0
XRECORD
  5
4E3
102
{ACAD_REACTORS
330
4CB
102
}
330
4CB
100
AcDbXrecord
 70
     0
  0
XRECORD
  5
4D7
102
{ACAD_REACTORS
330
4CB
102
}
330
4CB
100
AcDbXrecord
  1
{FAEB1C32-E019-11D5-929B-00C0DF256EC4}
  0
DICTIONARYVAR
  5
4F5
102
{ACAD_REACTORS
330
4EC
102
}
330
4EC
100
DictionaryVariables
280
     0
  1
1:1
  0
DICTIONARYVAR
  5
4EE
102
{ACAD_REACTORS
330
4EC
102
}
330
4EC
100
DictionaryVariables
280
     0
  1
Standard
  0
DICTIONARYVAR
  5
4ED
102
{ACAD_REACTORS
330
4EC
102
}
330
4EC
100
DictionaryVariables
280
     0
  1
Standard
  0
DICTIONARYVAR
  5
4F1
102
{ACAD_REACTORS
330
4EC
102
}
330
4EC
100
DictionaryVariables
280
     0
  1
2
  0
DICTIONARYVAR
  5
4F2
102
{ACAD_REACTORS
330
4EC
102
}
330
4EC
100
DictionaryVariables
280
     0
  1
1
  0
DICTIONARYVAR
  5
4F6
102
{ACAD_REACTORS
330
4EC
102
}
330
4EC
100
DictionaryVariables
280
     0
  1
1
  0
DICTIONARY
  5
4F9
330
45
100
AcDbDictionary
280
     1
  3
ACAD_XREC_ROUNDTRIP
360
4FA
  0
DICTIONARY
  5
4F7
330
44
100
AcDbDictionary
280
     1
  3
ACAD_XREC_ROUNDTRIP
360
4F8
  0
DICTIONARY
  5
4FB
330
46
100
AcDbDictionary
280
     1
  3
ACAD_XREC_ROUNDTRIP
360
4FC
  0
XRECORD
  5
4FA
102
{ACAD_REACTORS
330
4F9
102
}
330
4F9
100
AcDbXrecord
102
MATERIAL
148
0.0
149
0.0
149
0.0
 93
        0
 94
      127
282
     0
 72
     1
 77
     1
171
     1
175
     1
179
     1
273
     0
  0
XRECORD
  5
4F8
102
{ACAD_REACTORS
330
4F7
102
}
330
4F7
100
AcDbXrecord
102
MATERIAL
148
0.0
149
0.0
149
0.0
 93
        0
 94
      127
282
     0
 72
     1
 77
     1
171
     1
175
     1
179
     1
273
     0
  0
XRECORD
  5
4FC
102
{ACAD_REACTORS
330
4FB
102
}
330
4FB
100
AcDbXrecord
102
MATERIAL
148
0.0
149
0.0
149
0.0
 93
        0
 94
      127
282
     0
 72
     1
 77
     1
171
     1
175
     1
179
     1
273
     0
  0
ENDSEC
  0
EOF
