  0
SECTION
  2
HEADER
  9
$ACADVER
  1
AC1004
  9
$INSBASE
 10
0.0
 20
0.0
  9
$EXTMIN
 10
-540.2430605368
 20
314.7437669090909
  9
$EXTMAX
 10
-300.7259386565
 20
369.5143271829
  9
$LIMMIN
 10
0.0
 20
0.0
  9
$LIMMAX
 10
12.0
 20
9.0
  9
$ORTHOMODE
 70
     0
  9
$REGENMODE
 70
     1
  9
$FILLMODE
 70
     1
  9
$QTEXTMODE
 70
     0
  9
$DRAGMODE
 70
     2
  9
$LTSCALE
 40
1.0
  9
$OSMODE
 70
    37
  9
$ATTMODE
 70
     1
  9
$TEXTSIZE
 40
0.2
  9
$TRACEWID
 40
0.05
  9
$TEXTSTYLE
  7
STANDARD
  9
$CLAYER
  8
0
  9
$CELTYPE
  6
BYLAYER
  9
$CECOLOR
 62
   256
  9
$DIMSCALE
 40
1.0
  9
$DIMASZ
 40
3.0
  9
$DIMEXO
 40
0.0625
  9
$DIMDLI
 40
0.38
  9
$DIMRND
 40
0.0
  9
$DIMDLE
 40
0.0
  9
$DIMEXE
 40
1.5
  9
$DIMTP
 40
0.0
  9
$DIMTM
 40
0.0
  9
$DIMTXT
 40
3.5
  9
$DIMCEN
 40
0.09
  9
$DIMTSZ
 40
0.0
  9
$DIMTOL
 70
     0
  9
$DIMLIM
 70
     0
  9
$DIMTIH
 70
     1
  9
$DIMTOH
 70
     1
  9
$DIMSE1
 70
     0
  9
$DIMSE2
 70
     0
  9
$DIMTAD
 70
     1
  9
$DIMZIN
 70
     0
  9
$DIMBLK
  1

  9
$DIMASO
 70
     1
  9
$DIMSHO
 70
     1
  9
$DIMPOST
  1

  9
$DIMAPOST
  1

  9
$DIMALT
 70
     0
  9
$DIMALTD
 70
     2
  9
$DIMALTF
 40
25.4
  9
$DIMLFAC
 40
1.0
  9
$DIMTOFL
 70
     0
  9
$DIMTVP
 40
0.0
  9
$DIMTIX
 70
     0
  9
$DIMSOXD
 70
     0
  9
$DIMSAH
 70
     0
  9
$DIMBLK1
  1

  9
$DIMBLK2
  1

  9
$LUNITS
 70
     2
  9
$LUPREC
 70
     4
  9
$SKETCHINC
 40
0.1
  9
$FILLETRAD
 40
0.5
  9
$AUNITS
 70
     0
  9
$AUPREC
 70
     0
  9
$MENU
  1
.
  9
$ELEVATION
 40
0.0
  9
$THICKNESS
 40
0.0
  9
$LIMCHECK
 70
     0
  9
$CHAMFERA
 40
0.0
  9
$CHAMFERB
 40
0.0
  9
$SKPOLY
 70
     0
  9
$TDCREATE
 40
2460780.629833762
  9
$TDUPDATE
 40
2460780.629833843
  9
$TDINDWG
 40
0.0000000116
  9
$TDUSRTIMER
 40
0.0000000116
  9
$USRTIMER
 70
     1
  9
$ANGBASE
 50
0.0
  9
$ANGDIR
 70
     0
  9
$PDMODE
 70
     0
  9
$PDSIZE
 40
0.0
  9
$PLINEWID
 40
0.0
  9
$COORDS
 70
     1
  9
$SPLFRAME
 70
     0
  9
$SPLINETYPE
 70
     6
  9
$SPLINESEGS
 70
     8
  9
$ATTDIA
 70
     0
  9
$ATTREQ
 70
     1
  9
$SURFTAB1
 70
     6
  9
$SURFTAB2
 70
     6
  9
$SURFTYPE
 70
     6
  9
$SURFU
 70
     6
  9
$SURFV
 70
     6
  9
$UCSNAME
  2

  9
$UCSORG
 10
0.0
 20
0.0
 30
0.0
  9
$UCSXDIR
 10
1.0
 20
0.0
 30
0.0
  9
$UCSYDIR
 10
0.0
 20
1.0
 30
0.0
  9
$USERI1
 70
     0
  9
$USERI2
 70
     0
  9
$USERI3
 70
     0
  9
$USERI4
 70
     0
  9
$USERI5
 70
     0
  9
$USERR1
 40
0.0
  9
$USERR2
 40
0.0
  9
$USERR3
 40
0.0
  9
$USERR4
 40
0.0
  9
$USERR5
 40
0.0
  9
$WORLDVIEW
 70
     1
  0
ENDSEC
  0
SECTION
  2
TABLES
  0
TABLE
  2
LTYPE
 70
     2
  0
LTYPE
  2
CONTINUOUS
 70
     0
  3
Solid line
 72
    65
 73
     0
 40
0.0
  0
LTYPE
  2
CENTER
 70
     0
  3

 72
    65
 73
     0
 40
0.0
  0
ENDTAB
  0
TABLE
  2
LAYER
 70
     2
  0
LAYER
  2
0
 70
     0
 62
     7
  6
CONTINUOUS
  0
LAYER
  2
1
 70
     0
 62
     7
  6
CONTINUOUS
  0
ENDTAB
  0
TABLE
  2
STYLE
 70
     2
  0
STYLE
  2
STANDARD
 70
     0
 40
0.0
 41
1.0
 50
0.0
 71
     0
 42
0.2
  3
txt
  4

  0
STYLE
  2
ＭＳ_ゴシック
 70
     0
 40
0.0
 41
1.0
 50
0.0
 71
     0
 42
0.2
  3
ＭＳ ゴシック.shx
  4

  0
ENDTAB
  0
TABLE
  2
VIEW
 70
     0
  0
ENDTAB
  0
ENDSEC
  0
SECTION
  2
BLOCKS
  0
ENDSEC
  0
SECTION
  2
ENTITIES
  0
ARC
  8
1
  6
CONTINUOUS
 62
     7
 10
-420.5502456406
 20
364.5176301829
 40
1.28737
 50
36.07207
 51
49.300633
  0
ARC
  8
1
  6
CONTINUOUS
 62
     7
 10
-420.1899886406
 20
359.6404311829
 40
0.746036
 50
50.031993
 51
78.95204600000001
  0
ARC
  8
1
  6
CONTINUOUS
 62
     7
 10
-420.6164246406
 20
338.8970061829
 40
1.409894
 50
309.968007
 51
321.5836609999999
  0
LINE
  8
1
  6
CONTINUOUS
 62
     7
 10
-404.9178716406
 20
365.6578161829
 11
-395.9178716406
 21
365.6578161829
  0
ARC
  8
1
  6
CONTINUOUS
 62
     7
 10
-391.4178716406
 20
364.2643271829
 40
1.5
 50
180.0
 51
270.0
  0
ARC
  8
1
  6
CONTINUOUS
 62
     7
 10
-420.4178716406
 20
363.9538951829
 40
1.74685
 50
77.699784
 51
90.0
  0
ARC
  8
1
  6
CONTINUOUS
 62
     7
 10
-419.8968066406
 20
364.9936391829
 40
0.478935
 50
0.0
 51
36.07207
  0
ARC
  8
1
  6
CONTINUOUS
 62
     7
 10
-420.1899886406
 20
338.3882231829
 40
0.746036
 50
281.047954
 51
309.968007
  0
ARC
  8
1
  6
CONTINUOUS
 62
     7
 10
-420.2082626406
 20
364.9152311829
 40
0.762928
 50
49.300633
 51
77.699784
  0
LINE
  8
1
  6
CONTINUOUS
 62
     7
 10
-404.9178716406
 20
332.3708381829
 11
-395.9178716406
 21
332.3708381829
  0
ARC
  8
1
  6
CONTINUOUS
 62
     7
 10
-420.4178716406
 20
360.8885541829
 40
1.0
 50
0.0
 51
90.0
  0
ARC
  8
1
  6
CONTINUOUS
 62
     7
 10
-420.4178716406
 20
349.2406901829
 40
1.74685
 50
270.0
 51
282.300216
  0
ARC
  8
1
  6
CONTINUOUS
 62
     7
 10
-405.4178716406
 20
333.0143271829
 40
1.5
 50
180.0
 51
270.0
  0
ARC
  8
1
  6
CONTINUOUS
 62
     7
 10
-419.8968066406
 20
348.2009461829
 40
0.478935
 50
323.92793
 51
0.0
  0
ARC
  8
1
  6
CONTINUOUS
 62
     7
 10
-420.7065036406
 20
347.3169191829
 40
1.334187
 50
282.4939089999999
 51
344.9844640167
  0
ARC
  8
1
  6
CONTINUOUS
 62
     7
 10
-419.9434866406
 20
360.8885541829
 40
0.525615
 50
0.0
 51
34.00464000000001
  0
ARC
  8
1
  6
CONTINUOUS
 62
     7
 10
-391.4178716406
 20
333.7643271829
 40
1.5
 50
90.0
 51
180.0
  0
LINE
  8
1
  6
CONTINUOUS
 62
     7
 10
-404.9178716406
 20
366.2043541829
 11
-395.9178716406
 21
366.2043541829
  0
ARC
  8
1
  6
CONTINUOUS
 62
     7
 10
-420.5067026406
 20
360.5085931829
 40
1.205013
 50
34.00464000000001
 51
48.66031199999999
  0
LINE
  8
1
  6
CONTINUOUS
 62
     7
 10
-404.9178716406
 20
366.3763341829
 11
-395.9178716406
 21
366.3763341829
  0
ARC
  8
1
  6
CONTINUOUS
 62
     7
 10
-420.4148236406
 20
364.9936391829
 40
0.996952
 50
0.0
 51
22.544766
  0
ARC
  8
1
  6
CONTINUOUS
 62
     7
 10
-394.9178716406
 20
333.5143271829
 40
2.0
 50
270.0
 51
0.0
  0
LINE
  8
1
  6
CONTINUOUS
 62
     7
 10
-404.9178716406
 20
331.6523201829
 11
-395.9178716406
 21
331.6523201829
  0
LINE
  8
1
  6
CONTINUOUS
 62
     7
 10
-419.4178716406
 20
364.4552721829
 11
-419.5191486406
 21
364.3782741829
  0
ARC
  8
1
  6
CONTINUOUS
 62
     7
 10
-420.4178716406
 20
360.0319241829
 40
1.598769
 50
76.494557
 51
90.0
  0
ARC
  8
1
  6
CONTINUOUS
 62
     7
 10
-420.4178716406
 20
339.5553661829
 40
1.935217
 50
270.0
 51
281.047954
  0
ARC
  8
1
  6
CONTINUOUS
 62
     7
 10
-419.8968066406
 20
333.0350151829
 40
0.478935
 50
323.92793
 51
0.0
  0
LINE
  8
1
  6
CONTINUOUS
 62
     7
 10
-389.9178716406
 20
362.7643271829
 11
-391.4178716406
 21
362.7643271829
  0
ARC
  8
1
  6
CONTINUOUS
 62
     7
 10
-420.2082626406
 20
333.1134231829
 40
0.762928
 50
282.300216
 51
310.699367
  0
LINE
  8
1
  6
CONTINUOUS
 62
     7
 10
-404.9178716406
 20
331.5488591829
 11
-395.9178716406
 21
331.5488591829
  0
ARC
  8
1
  6
CONTINUOUS
 62
     7
 10
-420.5502456406
 20
333.5110241829
 40
1.28737
 50
310.699367
 51
323.92793
  0
LINE
  8
1
  6
CONTINUOUS
 62
     7
 10
-404.9178716406
 20
332.0641221829
 11
-395.9178716406
 21
332.0641221829
  0
ARC
  8
1
  6
CONTINUOUS
 62
     7
 10
-420.4178716406
 20
364.9905831829
 40
1.001763
 50
67.544718
 51
90.0
  0
ARC
  8
1
  6
CONTINUOUS
 62
     7
 10
-419.8515186406
 20
359.7382601829
 40
0.433647
 50
0.0
 51
38.416339
  0
ARC
  8
1
  6
CONTINUOUS
 62
     7
 10
-420.5850226406
 20
358.8126511829
 40
1.17865
 50
278.152899
 51
8.010131999999999
  0
ARC
  8
1
  6
CONTINUOUS
 62
     7
 10
-405.4178716406
 20
365.0143271829
 40
1.5
 50
90.0
 51
180.0
  0
ARC
  8
1
  6
CONTINUOUS
 62
     7
 10
-420.4178716406
 20
358.4732881829
 40
1.935217
 50
78.95204600000001
 51
90.0
  0
LINE
  8
1
  6
CONTINUOUS
 62
     7
 10
-391.4178716406
 20
335.2643271829
 11
-389.9178716406
 21
335.2643271829
  0
ARC
  8
1
  6
CONTINUOUS
 62
     7
 10
-420.6164246406
 20
359.1316481829
 40
1.409894
 50
38.416339
 51
50.031993
  0
LINE
  8
1
  6
CONTINUOUS
 62
     7
 10
-404.9178716406
 20
366.4797951829
 11
-395.9178716406
 21
366.4797951829
  0
ARC
  8
1
  6
CONTINUOUS
 62
     7
 10
-419.4178716406
 20
363.5143271829
 40
1.0
 50
0.0
 51
90.0
  0
LINE
  8
1
  6
CONTINUOUS
 62
     7
 10
-419.4831636406
 20
333.6329731829
 11
-419.4178716406
 21
333.5733821829
  0
ARC
  8
1
  6
CONTINUOUS
 62
     7
 10
-419.9434866406
 20
337.1401001829
 40
0.525615
 50
325.9953600000001
 51
0.0
  0
ARC
  8
1
  6
CONTINUOUS
 62
     7
 10
-408.4178716406
 20
364.2643271829
 40
1.5
 50
270.0
 51
0.0
  0
ARC
  8
1
  6
CONTINUOUS
 62
     7
 10
-394.9178716406
 20
364.5143271829
 40
2.0
 50
0.0
 51
90.0
  0
ARC
  8
1
  6
CONTINUOUS
 62
     7
 10
-420.4178716406
 20
337.1401001829
 40
1.0
 50
270.0
 51
0.0
  0
ARC
  8
1
  6
CONTINUOUS
 62
     7
 10
-420.2270336406
 20
337.2021641829
 40
0.781607
 50
283.505443
 51
311.339688
  0
LINE
  8
1
  6
CONTINUOUS
 62
     7
 10
-404.9178716406
 20
365.9645321829
 11
-395.9178716406
 21
365.9645321829
  0
ARC
  8
1
  6
CONTINUOUS
 62
     7
 10
-419.4178716406
 20
334.5143271829
 40
1.0
 50
270.0
 51
0.0
  0
ARC
  8
1
  6
CONTINUOUS
 62
     7
 10
-420.2270336406
 20
360.8264901829
 40
0.781607
 50
48.66031199999999
 51
76.494557
  0
ARC
  8
1
  6
CONTINUOUS
 62
     7
 10
-420.5067026406
 20
337.5200611829
 40
1.205013
 50
311.339688
 51
325.9953600000001
  0
LINE
  8
1
  6
CONTINUOUS
 62
     7
 10
-406.9178716406
 20
333.0143271829
 11
-406.9178716406
 21
365.0143271829
  0
ARC
  8
1
  6
CONTINUOUS
 62
     7
 10
-420.3808526406
 20
331.4144151829
 40
2.393292
 50
67.97040100000001
 51
90.88627199999999
  0
ARC
  8
1
  6
CONTINUOUS
 62
     7
 10
-420.2082626406
 20
348.2793541829
 40
0.762928
 50
282.300216
 51
310.699367
  0
ARC
  8
1
  6
CONTINUOUS
 62
     7
 10
-420.3882146406
 20
366.7016621829
 40
2.480606
 50
269.3149780000001
 51
290.508368
  0
ARC
  8
1
  6
CONTINUOUS
 62
     7
 10
-420.5502456406
 20
348.6769551829
 40
1.28737
 50
310.699367
 51
323.92793
  0
ARC
  8
1
  6
CONTINUOUS
 62
     7
 10
-420.4166296406
 20
364.9935881829
 40
0.998511
 50
45.015353
 51
67.544718
  0
LINE
  8
1
  6
CONTINUOUS
 62
     7
 10
-404.9178716406
 20
331.8243001829
 11
-395.9178716406
 21
331.8243001829
  0
ARC
  8
1
  6
CONTINUOUS
 62
     7
 10
-419.8515186406
 20
338.2903941829
 40
0.433647
 50
321.5836609999999
 51
0.0
  0
ARC
  8
1
  6
CONTINUOUS
 62
     7
 10
-420.6375166406
 20
339.1765621829
 40
1.226014
 50
354.157456
 51
79.67951299999999
  0
ARC
  8
1
  6
CONTINUOUS
 62
     7
 10
-420.4178716406
 20
337.9967301829
 40
1.598769
 50
270.0
 51
283.505443
  0
ARC
  8
1
  6
CONTINUOUS
 62
     7
 10
-420.4178716406
 20
348.7879641829
 40
1.74685
 50
77.699784
 51
90.0
  0
LINE
  8
1
  6
CONTINUOUS
 62
     7
 10
-420.4178716406
 20
361.6306931829
 11
-422.4178716406
 21
361.6306931829
  0
LINE
  8
1
  6
CONTINUOUS
 62
     7
 10
-418.4178716406
 20
363.5143271829
 11
-418.4178716406
 21
334.5143271829
  0
LINE
  8
1
  6
CONTINUOUS
 62
     7
 10
-420.4178716406
 20
337.6201481829
 11
-422.4178716406
 21
337.6201481829
  0
LINE
  8
1
  6
CONTINUOUS
 62
     7
 10
-420.4178716406
 20
364.2212331829
 11
-422.4178716406
 21
364.2212331829
  0
LINE
  8
1
  6
CONTINUOUS
 62
     7
 10
-394.9178716406
 20
366.5143271829
 11
-405.4178716406
 21
366.5143271829
  0
LINE
  8
1
  6
CONTINUOUS
 62
     7
 10
-422.4178716406
 20
332.3279081829
 11
-420.4178716406
 21
332.3279081829
  0
LINE
  8
1
  6
CONTINUOUS
 62
     7
 10
-420.4178716406
 20
346.0143271829
 11
-422.4178716406
 21
346.0143271829
  0
LINE
  8
1
  6
CONTINUOUS
 62
     7
 10
-420.4178716406
 20
340.3827411829
 11
-422.4178716406
 21
340.3827411829
  0
ARC
  8
1
  6
CONTINUOUS
 62
     7
 10
-420.4178236406
 20
364.9923931829
 40
1.0002
 50
22.544766
 51
45.015353
  0
LINE
  8
1
  6
CONTINUOUS
 62
     7
 10
-419.4178716406
 20
365.0143271829
 11
-419.4178716406
 21
333.0143271829
  0
LINE
  8
1
  6
CONTINUOUS
 62
     7
 10
-422.4178716406
 20
332.0143271829
 11
-420.4178716406
 21
332.0143271829
  0
CIRCLE
  8
1
  6
CONTINUOUS
 62
     7
 10
-321.2259386565
 20
349.0143271829
 40
8.0
  0
ARC
  8
1
  6
CONTINUOUS
 62
     7
 10
-408.4178716406
 20
333.7643271829
 40
1.5
 50
0.0
 51
90.0
  0
LINE
  8
1
  6
CONTINUOUS
 62
     7
 10
-422.4178716406
 20
336.3979611829
 11
-420.4178716406
 21
336.3979611829
  0
ARC
  8
1
  6
CONTINUOUS
 62
     7
 10
-420.4178716406
 20
333.0143271829
 40
1.0
 50
270.0
 51
0.0
  0
LINE
  8
1
  6
CONTINUOUS
 62
     7
 10
-420.4178716406
 20
347.4938391829
 11
-422.4178716406
 21
347.4938391829
  0
LINE
  8
1
  6
CONTINUOUS
 62
     7
 10
-420.4178716406
 20
366.0143271829
 11
-422.4178716406
 21
366.0143271829
  0
LINE
  8
1
  6
CONTINUOUS
 62
     7
 10
-420.4178716406
 20
336.1401001829
 11
-422.4178716406
 21
336.1401001829
  0
CIRCLE
  8
1
  6
CONTINUOUS
 62
     7
 10
-321.2259386565
 20
349.0143271829
 40
17.5
  0
ARC
  8
1
  6
CONTINUOUS
 62
     7
 10
-420.7065036406
 20
350.7117351829
 40
1.334187
 50
15.0155359833
 51
77.506091
  0
LINE
  8
1
  6
CONTINUOUS
 62
     7
 10
-404.9178716406
 20
331.5143271829
 11
-404.9178716406
 21
366.5143271829
  0
CIRCLE
  8
1
  6
CONTINUOUS
 62
     7
 10
-519.7430605368
 20
349.0143271829
 40
17.5
  0
LINE
  8
1
  6
CONTINUOUS
 62
     7
 10
-404.9178716406
 20
365.2854161829
 11
-395.9178716406
 21
365.2854161829
  0
LINE
  8
1
  6
CONTINUOUS
 62
     7
 10
-408.4178716406
 20
362.7643271829
 11
-418.4178716406
 21
362.7643271829
  0
LINE
  8
1
  6
CONTINUOUS
 62
     7
 10
-422.4178716406
 20
361.8885541829
 11
-420.4178716406
 21
361.8885541829
  0
ARC
  8
1
  6
CONTINUOUS
 62
     7
 10
-420.4178716406
 20
334.0747591829
 40
1.74685
 50
270.0
 51
282.300216
  0
CIRCLE
  8
1
  6
CONTINUOUS
 62
     7
 10
-321.2259386565
 20
349.0143271829
 40
13.75
  0
ARC
  8
1
  6
CONTINUOUS
 62
     7
 10
-419.8968066406
 20
349.8277081829
 40
0.478935
 50
0.0
 51
36.07207
  0
LINE
  8
1
  6
CONTINUOUS
 62
     7
 10
-420.4178716406
 20
365.7007461829
 11
-422.4178716406
 21
365.7007461829
  0
LINE
  8
1
  6
CONTINUOUS
 62
     7
 10
-420.4178716406
 20
357.6459131829
 11
-422.4178716406
 21
357.6459131829
  0
LINE
  8
1
  6
CONTINUOUS
 62
     7
 10
-422.4178716406
 20
350.5348151829
 11
-420.4178716406
 21
350.5348151829
  0
LINE
  8
1
  6
CONTINUOUS
 62
     7
 10
-420.4178716406
 20
333.8074211829
 11
-422.4178716406
 21
333.8074211829
  0
LINE
  8
1
  6
CONTINUOUS
 62
     7
 10
-418.4178716406
 20
335.2643271829
 11
-408.4178716406
 21
335.2643271829
  0
LINE
  8
1
  6
CONTINUOUS
 62
     7
 10
-405.4178716406
 20
331.5143271829
 11
-394.9178716406
 21
331.5143271829
  0
LINE
  8
1
  6
CONTINUOUS
 62
     7
 10
-420.4178716406
 20
352.0143271829
 11
-422.4178716406
 21
352.0143271829
  0
LINE
  8
1
  6
CONTINUOUS
 62
     7
 10
-422.4178716406
 20
360.4085061829
 11
-420.4178716406
 21
360.4085061829
  0
LINE
  8
1
  6
CONTINUOUS
 62
     7
 10
-404.9178716406
 20
363.1721241829
 11
-395.9178716406
 21
363.1721241829
  0
CIRCLE
  8
1
  6
CONTINUOUS
 62
     7
 10
-321.2259386565
 20
349.0143271829
 40
11.85
  0
LINE
  8
1
  6
CENTER
 62
     5
 10
-499.2430605368
 20
349.0143271829
 11
-540.2430605368
 21
349.0143271829
  0
LINE
  8
1
  6
CENTER
 62
     5
 10
-519.7430605368
 20
369.5143271829
 11
-519.7430605368
 21
328.5143271829
  0
LINE
  8
1
  6
CONTINUOUS
 62
     7
 10
-404.9178716406
 20
344.6622541829
 11
-395.9178716406
 21
344.6622541829
  0
LINE
  8
1
  6
CONTINUOUS
 62
     7
 10
-404.9178716406
 20
357.4450161829
 11
-395.9178716406
 21
357.4450161829
  0
LINE
  8
1
  6
CONTINUOUS
 62
     7
 10
-404.9178716406
 20
351.2076591829
 11
-395.9178716406
 21
351.2076591829
  0
LINE
  8
1
  6
CONTINUOUS
 62
     7
 10
-404.9178716406
 20
358.3912961829
 11
-395.9178716406
 21
358.3912961829
  0
LINE
  8
1
  6
CONTINUOUS
 62
     7
 10
-404.9178716406
 20
336.2573761829
 11
-395.9178716406
 21
336.2573761829
  0
LINE
  8
1
  6
CONTINUOUS
 62
     7
 10
-404.9178716406
 20
359.3005691829
 11
-395.9178716406
 21
359.3005691829
  0
LINE
  8
1
  6
CONTINUOUS
 62
     7
 10
-535.2430605368
 20
342.5940169661
 11
-535.2430605368
 21
355.4346373997
  0
LINE
  8
1
  6
CONTINUOUS
 62
     7
 10
-404.9178716406
 20
337.8594071829
 11
-395.9178716406
 21
337.8594071829
  0
LINE
  8
1
  6
CONTINUOUS
 62
     7
 10
-422.4178716406
 20
366.0143271829
 11
-422.4178716406
 21
332.0143271829
  0
LINE
  8
1
  6
CONTINUOUS
 62
     7
 10
-404.9178716406
 20
360.1692471829
 11
-395.9178716406
 21
360.1692471829
  0
LINE
  8
1
  6
CONTINUOUS
 62
     7
 10
-404.9178716406
 20
361.7712781829
 11
-395.9178716406
 21
361.7712781829
  0
CIRCLE
  8
1
  6
CONTINUOUS
 62
     7
 10
-519.7430605368
 20
349.0143271829
 40
9.0
  0
LINE
  8
1
  6
CONTINUOUS
 62
     7
 10
-404.9178716406
 20
356.4654651829
 11
-395.9178716406
 21
356.4654651829
  0
LINE
  8
1
  6
CONTINUOUS
 62
     7
 10
-404.9178716406
 20
354.4221241829
 11
-395.9178716406
 21
354.4221241829
  0
LINE
  8
1
  6
CONTINUOUS
 62
     7
 10
-535.2430605368
 20
355.4346373997
 11
-526.1633707536
 21
364.5143271829
  0
CIRCLE
  8
1
  6
CONTINUOUS
 62
     7
 10
-519.7430605368
 20
349.0143271829
 40
13.0
  0
LINE
  8
1
  6
CONTINUOUS
 62
     7
 10
-504.2430605368
 20
342.5940169661
 11
-513.32275032
 21
333.5143271829
  0
LINE
  8
1
  6
CONTINUOUS
 62
     7
 10
-404.9178716406
 20
360.9939011829
 11
-395.9178716406
 21
360.9939011829
  0
LINE
  8
1
  6
CONTINUOUS
 62
     7
 10
-404.9178716406
 20
340.5836381829
 11
-395.9178716406
 21
340.5836381829
  0
LINE
  8
1
  6
CONTINUOUS
 62
     7
 10
-404.9178716406
 20
334.8565301829
 11
-395.9178716406
 21
334.8565301829
  0
ARC
  8
1
  6
CONTINUOUS
 62
     7
 10
-420.2082626406
 20
349.7493001829
 40
0.762928
 50
49.300633
 51
77.699784
  0
LINE
  8
1
  6
CONTINUOUS
 62
     7
 10
-404.9178716406
 20
342.5721471829
 11
-395.9178716406
 21
342.5721471829
  0
CIRCLE
  8
1
  6
CONTINUOUS
 62
     7
 10
-321.2259386565
 20
349.0143271829
 40
11.35
  0
LINE
  8
1
  6
CONTINUOUS
 62
     7
 10
-395.9178716406
 20
366.5143271829
 11
-395.9178716406
 21
331.5143271829
  0
LINE
  8
1
  6
CONTINUOUS
 62
     7
 10
-392.9178716406
 20
364.5143271829
 11
-392.9178716406
 21
333.5143271829
  0
LINE
  8
1
  6
CONTINUOUS
 62
     7
 10
-404.9178716406
 20
343.6065301829
 11
-395.9178716406
 21
343.6065301829
  0
LINE
  8
1
  6
CONTINUOUS
 62
     7
 10
-404.9178716406
 20
335.5303451829
 11
-395.9178716406
 21
335.5303451829
  0
LINE
  8
1
  6
CONTINUOUS
 62
     7
 10
-389.9178716406
 20
362.7643271829
 11
-389.9178716406
 21
335.2643271829
  0
LINE
  8
1
  6
CENTER
 62
     5
 10
-341.7259386565
 20
349.0143271829
 11
-300.7259386565
 21
349.0143271829
  0
LINE
  8
1
  6
CENTER
 62
     5
 10
-321.2259386565
 20
369.5143271829
 11
-321.2259386565
 21
328.5143271829
  0
ARC
  8
1
  6
CONTINUOUS
 62
     7
 10
-420.5502456406
 20
349.3516991829
 40
1.28737
 50
36.07207
 51
49.300633
  0
LINE
  8
1
  6
CONTINUOUS
 62
     7
 10
-404.9178716406
 20
346.8209951829
 11
-395.9178716406
 21
346.8209951829
  0
LINE
  8
1
  6
CENTER
 62
     5
 10
-477.4178716406
 20
349.0143271829
 11
-386.9178716406
 21
349.0143271829
  0
LINE
  8
1
  6
CONTINUOUS
 62
     7
 10
-404.9178716406
 20
341.5631891829
 11
-395.9178716406
 21
341.5631891829
  0
LINE
  8
1
  6
CONTINUOUS
 62
     7
 10
-526.1633707536
 20
364.5143271829
 11
-513.32275032
 21
364.5143271829
  0
LINE
  8
1
  6
CONTINUOUS
 62
     7
 10
-404.9178716406
 20
353.3664001829
 11
-395.9178716406
 21
353.3664001829
  0
LINE
  8
1
  6
CONTINUOUS
 62
     7
 10
-513.32275032
 20
333.5143271829
 11
-526.1633707536
 21
333.5143271829
  0
CIRCLE
  8
1
  6
CONTINUOUS
 62
     7
 10
-519.7430605368
 20
349.0143271829
 40
10.8
  0
LINE
  8
1
  6
CONTINUOUS
 62
     7
 10
-404.9178716406
 20
363.7900661829
 11
-395.9178716406
 21
363.7900661829
  0
LINE
  8
1
  6
CONTINUOUS
 62
     7
 10
-404.9178716406
 20
350.1131611829
 11
-395.9178716406
 21
350.1131611829
  0
LINE
  8
1
  6
CONTINUOUS
 62
     7
 10
-404.9178716406
 20
352.2935001829
 11
-395.9178716406
 21
352.2935001829
  0
LINE
  8
1
  6
CONTINUOUS
 62
     7
 10
-404.9178716406
 20
362.4983091829
 11
-395.9178716406
 21
362.4983091829
  0
LINE
  8
1
  6
CONTINUOUS
 62
     7
 10
-504.2430605368
 20
355.4346373997
 11
-504.2430605368
 21
342.5940169661
  0
LINE
  8
1
  6
CONTINUOUS
 62
     7
 10
-404.9178716406
 20
337.0347531829
 11
-395.9178716406
 21
337.0347531829
  0
LINE
  8
1
  6
CONTINUOUS
 62
     7
 10
-404.9178716406
 20
345.7351541829
 11
-395.9178716406
 21
345.7351541829
  0
LINE
  8
1
  6
CONTINUOUS
 62
     7
 10
-404.9178716406
 20
338.7280851829
 11
-395.9178716406
 21
338.7280851829
  0
LINE
  8
1
  6
CONTINUOUS
 62
     7
 10
-404.9178716406
 20
339.6373581829
 11
-395.9178716406
 21
339.6373581829
  0
LINE
  8
1
  6
CONTINUOUS
 62
     7
 10
-404.9178716406
 20
333.6789601829
 11
-395.9178716406
 21
333.6789601829
  0
LINE
  8
1
  6
CONTINUOUS
 62
     7
 10
-404.9178716406
 20
364.3496941829
 11
-395.9178716406
 21
364.3496941829
  0
LINE
  8
1
  6
CONTINUOUS
 62
     7
 10
-526.1633707536
 20
333.5143271829
 11
-535.2430605368
 21
342.5940169661
  0
LINE
  8
1
  6
CONTINUOUS
 62
     7
 10
-404.9178716406
 20
332.7432381829
 11
-395.9178716406
 21
332.7432381829
  0
LINE
  8
1
  6
CONTINUOUS
 62
     7
 10
-404.9178716406
 20
333.1798541829
 11
-395.9178716406
 21
333.1798541829
  0
LINE
  8
1
  6
CONTINUOUS
 62
     7
 10
-513.32275032
 20
364.5143271829
 11
-504.2430605368
 21
355.4346373997
  0
LINE
  8
1
  6
CONTINUOUS
 62
     7
 10
-404.9178716406
 20
355.4565071829
 11
-395.9178716406
 21
355.4565071829
  0
LINE
  8
1
  6
CONTINUOUS
 62
     7
 10
-404.9178716406
 20
364.8488001829
 11
-395.9178716406
 21
364.8488001829
  0
LINE
  8
1
  6
CONTINUOUS
 62
     7
 10
-404.9178716406
 20
334.2385881829
 11
-395.9178716406
 21
334.2385881829
  0
LINE
  8
1
  6
CONTINUOUS
 62
     7
 10
-404.9178716406
 20
347.9154931829
 11
-395.9178716406
 21
347.9154931829
  0
POINT
  8
0
 62
     7
 10
-519.7430605368
 20
349.0143271829
 30
0.0
  0
TEXT
  8
1
  6
CONTINUOUS
 62
     7
 10
-337.2157701218602
 20
314.4488728272341
 40
3.5
  1
ＦＰＶＥ－１６ＹP
 41
0.996045
 51
15.0
  0
POINT
  8
1
 62
     7
 10
-418.3178716406
 20
349.0143271829
 30
0.0
  0
LINE
  8
1
  6
CONTINUOUS
 62
     7
 10
-424.4178716406
 20
333.5143271829
 11
-439.4178716406
 21
333.5143271829
  0
LINE
  8
1
  6
CONTINUOUS
 62
     7
 10
-474.4178716406
 20
362.0143271829
 11
-474.4178716406
 21
336.0143271829
  0
LINE
  8
1
  6
CONTINUOUS
 62
     7
 10
-439.4178716408001
 20
342.5940169661
 11
-424.4178716406
 21
342.5940169661
  0
LINE
  8
1
  6
CONTINUOUS
 62
     7
 10
-441.917871641
 20
362.0143271825
 11
-474.4178716406
 21
362.0143271825
  0
LINE
  8
1
  6
CONTINUOUS
 62
     7
 10
-439.4178716404
 20
333.5143271829
 11
-441.917871641
 21
336.0143271833
  0
ARC
  8
0
  6
CONTINUOUS
 62
     7
 10
-519.7430605368
 20
349.0143271829
 40
16.5
 50
24.9500242759714
 51
65.04997572402836
  0
LINE
  8
1
  6
CONTINUOUS
 62
     7
 10
-441.9178716406
 20
336.014327183
 11
-441.9178716404
 21
362.0143271831
  0
LINE
  8
1
  6
CONTINUOUS
 62
     7
 10
-439.4178716404
 20
364.5143271829
 11
-441.917871641
 21
362.0143271825
  0
LINE
  8
1
  6
CONTINUOUS
 62
     7
 10
-439.4178716406
 20
333.5143271829
 11
-439.4178716406
 21
364.5143271827
  0
LINE
  8
1
  6
CONTINUOUS
 62
     7
 10
-439.4178716406
 20
364.5143271829
 11
-424.4178716406
 21
364.5143271829
  0
LINE
  8
1
  6
CONTINUOUS
 62
     7
 10
-441.917871641
 20
336.0143271833
 11
-474.4178716406
 21
336.0143271833
  0
LINE
  8
0
  6
CONTINUOUS
 62
     7
 10
-424.4178716406
 20
365.5143271829
 11
-422.4178716406
 21
365.5143271829
  0
LINE
  8
0
  6
CONTINUOUS
 62
     7
 10
-424.4178716406
 20
365.5143271829
 11
-424.4178716406
 21
332.5143271829
  0
LINE
  8
1
  6
CONTINUOUS
 62
     7
 10
-439.4178716408001
 20
355.4346373997
 11
-424.4178716406
 21
355.4346373997
  0
LINE
  8
0
  6
CONTINUOUS
 62
     7
 10
-424.4178716406
 20
332.5143271829
 11
-422.4178716406
 21
332.5143271829
  0
ARC
  8
0
  6
CONTINUOUS
 62
     7
 10
-519.7430605368
 20
349.0143271829
 40
16.5
 50
339.9500242758492
 51
20.04997572415078
  0
ARC
  8
0
  6
CONTINUOUS
 62
     7
 10
-519.7430605368
 20
349.0143271829
 40
16.5
 50
294.9500242759712
 51
335.0499757240293
  0
ARC
  8
0
  6
CONTINUOUS
 62
     7
 10
-519.7430605368
 20
349.0143271829
 40
16.5
 50
204.9500242759697
 51
245.04997572403
  0
ARC
  8
0
  6
CONTINUOUS
 62
     7
 10
-519.7430605368
 20
349.0143271829
 40
16.5
 50
159.9500242758482
 51
200.0499757241518
  0
ARC
  8
0
  6
CONTINUOUS
 62
     7
 10
-519.7430605368
 20
349.0143271829
 40
16.5
 50
249.9500242758486
 51
290.0499757241514
  0
ARC
  8
0
  6
CONTINUOUS
 62
     7
 10
-519.7430605368
 20
349.0143271829
 40
16.5
 50
114.9500242759694
 51
155.0499757240298
  0
ARC
  8
0
  6
CONTINUOUS
 62
     7
 10
-519.7430605368
 20
349.0143271829
 40
16.5
 50
69.95002427584859
 51
110.0499757241514
  0
ENDSEC
  0
EOF
