  0
SECTION
  2
HEADER
  9
$ACADVER
  1
AC1004
  9
$INSBASE
 10
0.0
 20
0.0
  9
$EXTMIN
 10
-330.0
 20
-80.0
  9
$EXTMAX
 10
3.286363636363636
 20
88.0649946702
  9
$LIMMIN
 10
0.0
 20
0.0
  9
$LIMMAX
 10
12.0
 20
9.0
  9
$ORTHOMODE
 70
     0
  9
$REGENMODE
 70
     1
  9
$FILLMODE
 70
     1
  9
$QTEXTMODE
 70
     0
  9
$DRAGMODE
 70
     2
  9
$LTSCALE
 40
1.0
  9
$OSMODE
 70
    37
  9
$ATTMODE
 70
     1
  9
$TEXTSIZE
 40
0.2
  9
$TRACEWID
 40
0.05
  9
$TEXTSTYLE
  7
STANDARD
  9
$CLAYER
  8
0
  9
$CELTYPE
  6
BYLAYER
  9
$CECOLOR
 62
   256
  9
$DIMSCALE
 40
1.0
  9
$DIMASZ
 40
1.5
  9
$DIMEXO
 40
0.0625
  9
$DIMDLI
 40
0.38
  9
$DIMRND
 40
0.0
  9
$DIMDLE
 40
0.0
  9
$DIMEXE
 40
0.75
  9
$DIMTP
 40
0.0
  9
$DIMTM
 40
0.0
  9
$DIMTXT
 40
3.5
  9
$DIMCEN
 40
0.09
  9
$DIMTSZ
 40
0.0
  9
$DIMTOL
 70
     0
  9
$DIMLIM
 70
     0
  9
$DIMTIH
 70
     1
  9
$DIMTOH
 70
     1
  9
$DIMSE1
 70
     0
  9
$DIMSE2
 70
     0
  9
$DIMTAD
 70
     1
  9
$DIMZIN
 70
     0
  9
$DIMBLK
  1

  9
$DIMASO
 70
     1
  9
$DIMSHO
 70
     1
  9
$DIMPOST
  1

  9
$DIMAPOST
  1

  9
$DIMALT
 70
     0
  9
$DIMALTD
 70
     2
  9
$DIMALTF
 40
25.4
  9
$DIMLFAC
 40
1.0
  9
$DIMTOFL
 70
     0
  9
$DIMTVP
 40
0.0
  9
$DIMTIX
 70
     0
  9
$DIMSOXD
 70
     0
  9
$DIMSAH
 70
     0
  9
$DIMBLK1
  1

  9
$DIMBLK2
  1

  9
$LUNITS
 70
     2
  9
$LUPREC
 70
     4
  9
$SKETCHINC
 40
0.1
  9
$FILLETRAD
 40
0.5
  9
$AUNITS
 70
     0
  9
$AUPREC
 70
     0
  9
$MENU
  1
.
  9
$ELEVATION
 40
0.0
  9
$THICKNESS
 40
0.0
  9
$LIMCHECK
 70
     0
  9
$CHAMFERA
 40
0.0
  9
$CHAMFERB
 40
0.0
  9
$SKPOLY
 70
     0
  9
$TDCREATE
 40
2459048.485137003
  9
$TDUPDATE
 40
2459048.485137176
  9
$TDINDWG
 40
0.0000000116
  9
$TDUSRTIMER
 40
0.0000000116
  9
$USRTIMER
 70
     1
  9
$ANGBASE
 50
0.0
  9
$ANGDIR
 70
     0
  9
$PDMODE
 70
     0
  9
$PDSIZE
 40
0.0
  9
$PLINEWID
 40
0.0
  9
$COORDS
 70
     1
  9
$SPLFRAME
 70
     0
  9
$SPLINETYPE
 70
     6
  9
$SPLINESEGS
 70
     8
  9
$ATTDIA
 70
     0
  9
$ATTREQ
 70
     1
  9
$SURFTAB1
 70
     6
  9
$SURFTAB2
 70
     6
  9
$SURFTYPE
 70
     6
  9
$SURFU
 70
     6
  9
$SURFV
 70
     6
  9
$UCSNAME
  2

  9
$UCSORG
 10
0.0
 20
0.0
 30
0.0
  9
$UCSXDIR
 10
1.0
 20
0.0
 30
0.0
  9
$UCSYDIR
 10
0.0
 20
1.0
 30
0.0
  9
$USERI1
 70
     0
  9
$USERI2
 70
     0
  9
$USERI3
 70
     0
  9
$USERI4
 70
     0
  9
$USERI5
 70
     0
  9
$USERR1
 40
0.0
  9
$USERR2
 40
0.0
  9
$USERR3
 40
0.0
  9
$USERR4
 40
0.0
  9
$USERR5
 40
0.0
  9
$WORLDVIEW
 70
     1
  0
ENDSEC
  0
SECTION
  2
TABLES
  0
TABLE
  2
LTYPE
 70
     2
  0
LTYPE
  2
CONTINUOUS
 70
     0
  3
Solid line
 72
    65
 73
     0
 40
0.0
  0
LTYPE
  2
CENTER
 70
     0
  3

 72
    65
 73
     0
 40
0.0
  0
ENDTAB
  0
TABLE
  2
LAYER
 70
     2
  0
LAYER
  2
0
 70
     0
 62
     7
  6
CONTINUOUS
  0
LAYER
  2
1
 70
     0
 62
     7
  6
CONTINUOUS
  0
ENDTAB
  0
TABLE
  2
STYLE
 70
     2
  0
STYLE
  2
STANDARD
 70
     0
 40
0.0
 41
1.0
 50
0.0
 71
     0
 42
0.2
  3
txt
  4

  0
STYLE
  2
ＭＳ_ゴシック
 70
     0
 40
0.0
 41
1.0
 50
0.0
 71
     0
 42
0.2
  3
ＭＳ ゴシック.shx
  4

  0
ENDTAB
  0
TABLE
  2
VIEW
 70
     0
  0
ENDTAB
  0
ENDSEC
  0
SECTION
  2
BLOCKS
  0
ENDSEC
  0
SECTION
  2
ENTITIES
  0
TEXT
  8
1
  6
CONTINUOUS
 62
     7
 10
-60.78604983012816
 20
23.59056590909091
 40
3.5
  1
ＦＰＶＥ－２２Ｆ
 41
0.996136
 51
15.0
  0
LINE
  8
1
  6
CONTINUOUS
 62
     7
 10
-161.0165130987
 20
74.72427330469999
 11
-150.0165130987
 21
74.72427330469999
  0
LINE
  8
1
  6
CONTINUOUS
 62
     7
 10
-161.0165130987
 20
54.27881875919998
 11
-150.0165130987
 21
54.27881875919998
  0
LINE
  8
1
  6
CONTINUOUS
 62
     7
 10
-135.2165130558
 20
75.7379096683
 11
-120.2165130558
 21
75.7379096683
  0
LINE
  8
1
  6
CONTINUOUS
 62
     7
 10
-135.2165130558
 20
53.8175994515
 11
-120.2165130558
 21
53.8175994515
  0
LINE
  8
1
  6
CONTINUOUS
 62
     7
 10
-120.2165130558
 20
75.2379096683
 11
-81.2165130558
 21
75.2379096683
  0
LINE
  8
1
  6
CONTINUOUS
 62
     7
 10
-135.2165130558
 20
66.6582198851
 11
-120.2165130558
 21
66.6582198851
  0
LINE
  8
1
  6
CONTINUOUS
 62
     7
 10
-161.0165130987
 20
38.54397027440003
 11
-150.0165130987
 21
38.54397027440003
  0
LINE
  8
1
  6
CONTINUOUS
 62
     7
 10
-120.2165130558
 20
45.2379096683
 11
-81.2165130558
 21
45.2379096683
  0
LINE
  8
1
  6
CONTINUOUS
 62
     7
 10
-135.2165130558
 20
44.7379096683
 11
-120.2165130558
 21
44.7379096683
  0
LINE
  8
1
  6
CONTINUOUS
 62
     7
 10
-81.2165130558
 20
45.2379096683
 11
-81.2165130558
 21
75.2379096683
  0
LINE
  8
1
  6
CONTINUOUS
 62
     7
 10
-120.2165130558
 20
75.7379096683
 11
-120.2165130558
 21
44.7379096683
  0
LINE
  8
1
  6
CONTINUOUS
 62
     7
 10
-161.0165130987
 20
78.88639451679998
 11
-150.0165130987
 21
78.88639451679998
  0
LINE
  8
1
  6
CONTINUOUS
 62
     7
 10
-150.0165130987
 20
50.82730360770004
 11
-161.0165130987
 21
50.82730360770004
  0
LINE
  8
1
  6
CONTINUOUS
 62
     7
 10
-161.0165130987
 20
73.10003088040001
 11
-150.0165130987
 21
73.10003088040001
  0
LINE
  8
1
  6
CONTINUOUS
 62
     7
 10
-161.0165130987
 20
67.41518239560001
 11
-150.0165130987
 21
67.41518239560001
  0
LINE
  8
1
  6
CONTINUOUS
 62
     7
 10
-150.0165130987
 20
58.27881875919999
 11
-161.0165130987
 21
58.27881875919999
  0
LINE
  8
1
  6
CONTINUOUS
 62
     7
 10
-161.0165130987
 20
39.7621520925
 11
-150.0165130987
 21
39.7621520925
  0
LINE
  8
1
  6
CONTINUOUS
 62
     7
 10
-150.0165130987
 20
69.64851572890002
 11
-161.0165130987
 21
69.64851572890002
  0
LINE
  8
1
  6
CENTER
 62
     7
 10
-246.2519181454
 20
60.2379096683
 11
-190.1804514806
 21
60.2379096683
  0
LINE
  8
1
  6
CONTINUOUS
 62
     7
 10
-150.0165130987
 20
49.8121520925
 11
-161.0165130987
 21
49.8121520925
  0
LINE
  8
1
  6
CONTINUOUS
 62
     7
 10
-161.0165130987
 20
76.34851572889997
 11
-150.0165130987
 21
76.34851572889997
  0
LINE
  8
1
  6
CONTINUOUS
 62
     7
 10
-161.0165130987
 20
44.1273036077
 11
-150.0165130987
 21
44.1273036077
  0
LINE
  8
1
  6
CONTINUOUS
 62
     7
 10
-161.0165130987
 20
43.41669754710003
 11
-150.0165130987
 21
43.41669754710003
  0
LINE
  8
1
  6
CONTINUOUS
 62
     7
 10
-161.0165130987
 20
42.19851572889998
 11
-150.0165130987
 21
42.19851572889998
  0
LINE
  8
1
  6
CONTINUOUS
 62
     7
 10
-161.0165130987
 20
41.58942481980004
 11
-150.0165130987
 21
41.58942481980004
  0
CIRCLE
  8
1
  6
CONTINUOUS
 62
     7
 10
-216.1464876622
 20
60.2379096683
 40
14.5
  0
LINE
  8
1
  6
CONTINUOUS
 62
     7
 10
-161.0165130987
 20
48.18790966829999
 11
-150.0165130987
 21
48.18790966829999
  0
LINE
  8
1
  6
CONTINUOUS
 62
     7
 10
-161.0165130987
 20
68.63336421380001
 11
-150.0165130987
 21
68.63336421380001
  0
LINE
  8
1
  6
CONTINUOUS
 62
     7
 10
-161.0165130987
 20
75.53639451679997
 11
-150.0165130987
 21
75.53639451679997
  0
LINE
  8
1
  6
CONTINUOUS
 62
     7
 10
-161.0165130987
 20
46.56366724409999
 11
-150.0165130987
 21
46.56366724409999
  0
LINE
  8
1
  6
CENTER
 62
     7
 10
-216.1464876622
 20
85.9829217169
 11
-216.1464876622
 21
33.832536637
  0
LINE
  8
1
  6
CONTINUOUS
 62
     7
 10
-161.0165130987
 20
47.37578845619999
 11
-150.0165130987
 21
47.37578845619999
  0
LINE
  8
1
  6
CENTER
 62
     7
 10
-184.5781992074
 20
60.2379096683
 11
-74.4465582466
 21
60.2379096683
  0
LINE
  8
1
  6
CONTINUOUS
 62
     7
 10
-161.0165130987
 20
44.9394248198
 11
-150.0165130987
 21
44.9394248198
  0
LINE
  8
1
  6
CONTINUOUS
 62
     7
 10
-150.0165130987
 20
42.80760663799997
 11
-161.0165130987
 21
42.80760663799997
  0
LINE
  8
1
  6
CONTINUOUS
 62
     7
 10
-161.0165130987
 20
60.69700057740001
 11
-150.0165130987
 21
60.69700057740001
  0
CIRCLE
  8
1
  6
CONTINUOUS
 62
     7
 10
-216.1464876622
 20
60.2379096683
 40
21.9279661017
  0
LINE
  8
1
  6
CONTINUOUS
 62
     7
 10
-161.0165130987
 20
81.9318490622
 11
-150.0165130987
 21
81.9318490622
  0
LINE
  8
1
  6
CENTER
 62
     7
 10
-70.9565932497
 20
60.2379096683
 11
-13.3735573502
 21
60.2379096683
  0
LINE
  8
1
  6
CONTINUOUS
 62
     7
 10
-161.0165130987
 20
77.0591217895
 11
-150.0165130987
 21
77.0591217895
  0
LINE
  8
1
  6
CONTINUOUS
 62
     7
 10
-150.0165130987
 20
63.59700057739997
 11
-161.0165130987
 21
63.59700057739997
  0
CIRCLE
  8
1
  6
CONTINUOUS
 62
     7
 10
-216.1464876622
 20
60.2379096683
 40
10.5133928571
  0
CIRCLE
  8
1
  6
CONTINUOUS
 62
     7
 10
-216.1464876622
 20
60.2379096683
 40
15.75
  0
LINE
  8
1
  6
CONTINUOUS
 62
     7
 10
-161.0165130987
 20
72.28790966829995
 11
-150.0165130987
 21
72.28790966829995
  0
LINE
  8
1
  6
CENTER
 62
     7
 10
-42.0125023537
 20
88.0649946702
 11
-42.0125023537
 21
30.48195877070001
  0
LINE
  8
1
  6
CONTINUOUS
 62
     7
 10
-161.0165130987
 20
40.37124300159999
 11
-150.0165130987
 21
40.37124300159999
  0
LINE
  8
1
  6
CONTINUOUS
 62
     7
 10
-161.0165130987
 20
45.75154603190001
 11
-150.0165130987
 21
45.75154603190001
  0
LINE
  8
1
  6
CONTINUOUS
 62
     7
 10
-161.0165130987
 20
78.27730360769999
 11
-150.0165130987
 21
78.27730360769999
  0
LINE
  8
1
  6
CONTINUOUS
 62
     7
 10
-161.0165130987
 20
73.91215209250001
 11
-150.0165130987
 21
73.91215209250001
  0
LINE
  8
1
  6
CONTINUOUS
 62
     7
 10
-48.4328125705
 20
75.7379096683
 11
-57.5125023537
 21
66.6582198851
  0
LINE
  8
1
  6
CONTINUOUS
 62
     7
 10
-57.5125023537
 20
66.6582198851
 11
-57.5125023537
 21
53.8175994515
  0
LINE
  8
1
  6
CONTINUOUS
 62
     7
 10
-57.5125023537
 20
53.8175994515
 11
-48.4328125705
 21
44.7379096683
  0
LINE
  8
1
  6
CONTINUOUS
 62
     7
 10
-48.4328125705
 20
44.7379096683
 11
-35.5921921369
 21
44.7379096683
  0
LINE
  8
1
  6
CONTINUOUS
 62
     7
 10
-35.5921921369
 20
44.7379096683
 11
-26.5125023537
 21
53.8175994515
  0
LINE
  8
1
  6
CONTINUOUS
 62
     7
 10
-26.5125023537
 20
53.8175994515
 11
-26.5125023537
 21
66.6582198851
  0
LINE
  8
1
  6
CONTINUOUS
 62
     7
 10
-26.5125023537
 20
66.6582198851
 11
-35.5921921369
 21
75.7379096683
  0
CIRCLE
  8
1
  6
CONTINUOUS
 62
     7
 10
-42.0125023537
 20
60.2379096683
 40
12.775
  0
LINE
  8
1
  6
CONTINUOUS
 62
     7
 10
-35.5921921369
 20
75.7379096683
 11
-48.4328125705
 21
75.7379096683
  0
CIRCLE
  8
1
  6
CONTINUOUS
 62
     7
 10
-42.0125023537
 20
60.2379096683
 40
11.0
  0
CIRCLE
  8
1
  6
CONTINUOUS
 62
     7
 10
-42.0125023537
 20
60.2379096683
 40
21.9279661017
  0
CIRCLE
  8
1
  6
CONTINUOUS
 62
     7
 10
-42.0125023537
 20
60.2379096683
 40
15.0
  0
LINE
  8
1
  6
CONTINUOUS
 62
     7
 10
-137.2165130987
 20
82.23790966829999
 11
-137.2165130987
 21
38.23790966830004
  0
LINE
  8
1
  6
CONTINUOUS
 62
     7
 10
-161.0165130987
 20
38.23790966830003
 11
-147.0165130987
 21
38.23790966830003
  0
LINE
  8
1
  6
CONTINUOUS
 62
     7
 10
-135.2165130558
 20
82.23790966829999
 11
-135.2165130558
 21
38.23790966830004
  0
LINE
  8
1
  6
CONTINUOUS
 62
     7
 10
-147.0165130987
 20
82.23790966829999
 11
-161.0165130987
 21
82.23790966829999
  0
LINE
  8
1
  6
CONTINUOUS
 62
     7
 10
-150.0165130987
 20
82.23790966829999
 11
-150.0165130987
 21
38.23790966830003
  0
LINE
  8
1
  6
CONTINUOUS
 62
     7
 10
-161.0165130987
 20
81.32275815319997
 11
-150.0165130987
 21
81.32275815319997
  0
LINE
  8
1
  6
CONTINUOUS
 62
     7
 10
-150.0165130987
 20
62.19700057740001
 11
-161.0165130987
 21
62.19700057740001
  0
LINE
  8
1
  6
CONTINUOUS
 62
     7
 10
-150.0165130987
 20
70.6636672441
 11
-161.0165130987
 21
70.6636672441
  0
LINE
  8
1
  6
CONTINUOUS
 62
     7
 10
-150.0165130987
 20
56.87881875920002
 11
-161.0165130987
 21
56.87881875920002
  0
LINE
  8
1
  6
CONTINUOUS
 62
     7
 10
-147.0165130987
 20
82.23790966829999
 11
-147.0165130987
 21
38.23790966830001
  0
LINE
  8
1
  6
CONTINUOUS
 62
     7
 10
-161.0165130987
 20
49.0000308804
 11
-150.0165130987
 21
49.0000308804
  0
LINE
  8
1
  6
CONTINUOUS
 62
     7
 10
-161.0165130987
 20
80.71366724409998
 11
-150.0165130987
 21
80.71366724409998
  0
LINE
  8
1
  6
CONTINUOUS
 62
     7
 10
-161.0165130987
 20
79.49548542589999
 11
-150.0165130987
 21
79.49548542589999
  0
LINE
  8
1
  6
CONTINUOUS
 62
     7
 10
-161.0165130987
 20
51.8424551228
 11
-150.0165130987
 21
51.8424551228
  0
LINE
  8
1
  6
CONTINUOUS
 62
     7
 10
-161.0165130987
 20
40.98033391069999
 11
-150.0165130987
 21
40.98033391069999
  0
LINE
  8
1
  6
CONTINUOUS
 62
     7
 10
-161.0165130987
 20
80.10457633499998
 11
-150.0165130987
 21
80.10457633499998
  0
LINE
  8
1
  6
CONTINUOUS
 62
     7
 10
-161.0165130987
 20
82.23790966829999
 11
-179.1767907054257
 21
79.28910157871307
  0
ARC
  8
1
  6
CONTINUOUS
 62
     7
 10
-179.0165130987
 20
78.30202960120472
 40
1.000000000000001
 50
99.2230098697463
 51
180.0
  0
LINE
  8
1
  6
CONTINUOUS
 62
     7
 10
-180.0165130987
 20
78.30202960120472
 11
-180.0165130987
 21
42.17378973539543
  0
ARC
  8
1
  6
CONTINUOUS
 62
     7
 10
-179.0165130987
 20
42.17378973539542
 40
1.000000000000001
 50
180.0
 51
260.7769901302538
  0
LINE
  8
1
  6
CONTINUOUS
 62
     7
 10
-179.1767907054257
 20
41.18671775788701
 11
-161.0165130987
 21
38.23790966830003
  0
LINE
  8
1
  6
CONTINUOUS
 62
     7
 10
-150.0165130987
 20
64.99700057740004
 11
-161.0165130987
 21
64.99700057740004
  0
LINE
  8
1
  6
CONTINUOUS
 62
     7
 10
-161.0165130987
 20
82.23790966829999
 11
-161.0165130987
 21
38.23790966830004
  0
LINE
  8
1
  6
CONTINUOUS
 62
     7
 10
-150.0165130987
 20
77.66821269859994
 11
-161.0165130987
 21
77.66821269859994
  0
LINE
  8
1
  6
CONTINUOUS
 62
     7
 10
-161.0165130987
 20
66.19700057740002
 11
-150.0165130987
 21
66.19700057740002
  0
LINE
  8
1
  6
CONTINUOUS
 62
     7
 10
-150.0165130987
 20
55.47881875920001
 11
-161.0165130987
 21
55.47881875920001
  0
LINE
  8
1
  6
CONTINUOUS
 62
     7
 10
-161.0165130987
 20
59.77881875919999
 11
-150.0165130987
 21
59.77881875919999
  0
LINE
  8
1
  6
CONTINUOUS
 62
     7
 10
-147.0165130987
 20
50.2302335224
 11
-139.0165130987
 21
50.2302335224
  0
LINE
  8
1
  6
CONTINUOUS
 62
     7
 10
-135.2165130987
 20
82.23790966829999
 11
-147.0165130987
 21
82.23790966829999
  0
LINE
  8
1
  6
CONTINUOUS
 62
     7
 10
-161.0165130987
 20
53.06063694099998
 11
-150.0165130987
 21
53.06063694099998
  0
LINE
  8
1
  6
CONTINUOUS
 62
     7
 10
-161.0165130987
 20
71.47578845620001
 11
-150.0165130987
 21
71.47578845620001
  0
LINE
  8
1
  6
CONTINUOUS
 62
     7
 10
-161.0165130987
 20
39.1530611834
 11
-150.0165130987
 21
39.1530611834
  0
LINE
  8
1
  6
CONTINUOUS
 62
     7
 10
-135.2165130987
 20
38.23790966830003
 11
-147.0165130987
 21
38.23790966830003
  0
LINE
  8
1
  6
CONTINUOUS
 62
     7
 10
-147.0165130987
 20
70.2455858142
 11
-139.0165130987
 21
70.2455858142
  0
LINE
  8
1
  6
CONTINUOUS
 62
     7
 10
-139.0165130987
 20
50.2302335224
 11
-139.0165130987
 21
70.2455858142
  0
ENDSEC
  0
EOF
