  0
SECTION
  2
HEADER
  9
$ACADVER
  1
AC1004
  9
$INSBASE
 10
0.0
 20
0.0
  9
$EXTMIN
 10
-541.4930605368002
 20
227.6970679090909
  9
$EXTMAX
 10
-294.4759386565
 20
291.7176278103
  9
$LIMMIN
 10
0.0
 20
0.0
  9
$LIMMAX
 10
12.0
 20
9.0
  9
$ORTHOMODE
 70
     0
  9
$REGENMODE
 70
     1
  9
$FILLMODE
 70
     1
  9
$QTEXTMODE
 70
     0
  9
$DRAGMODE
 70
     2
  9
$LTSCALE
 40
1.0
  9
$OSMODE
 70
    37
  9
$ATTMODE
 70
     1
  9
$TEXTSIZE
 40
0.2
  9
$TRACEWID
 40
0.05
  9
$TEXTSTYLE
  7
STANDARD
  9
$CLAYER
  8
0
  9
$CELTYPE
  6
BYLAYER
  9
$CECOLOR
 62
   256
  9
$DIMSCALE
 40
1.0
  9
$DIMASZ
 40
3.0
  9
$DIMEXO
 40
0.0625
  9
$DIMDLI
 40
0.38
  9
$DIMRND
 40
0.0
  9
$DIMDLE
 40
0.0
  9
$DIMEXE
 40
1.5
  9
$DIMTP
 40
0.0
  9
$DIMTM
 40
0.0
  9
$DIMTXT
 40
3.5
  9
$DIMCEN
 40
0.09
  9
$DIMTSZ
 40
0.0
  9
$DIMTOL
 70
     0
  9
$DIMLIM
 70
     0
  9
$DIMTIH
 70
     1
  9
$DIMTOH
 70
     1
  9
$DIMSE1
 70
     0
  9
$DIMSE2
 70
     0
  9
$DIMTAD
 70
     1
  9
$DIMZIN
 70
     0
  9
$DIMBLK
  1

  9
$DIMASO
 70
     1
  9
$DIMSHO
 70
     1
  9
$DIMPOST
  1

  9
$DIMAPOST
  1

  9
$DIMALT
 70
     0
  9
$DIMALTD
 70
     2
  9
$DIMALTF
 40
25.4
  9
$DIMLFAC
 40
1.0
  9
$DIMTOFL
 70
     0
  9
$DIMTVP
 40
0.0
  9
$DIMTIX
 70
     0
  9
$DIMSOXD
 70
     0
  9
$DIMSAH
 70
     0
  9
$DIMBLK1
  1

  9
$DIMBLK2
  1

  9
$LUNITS
 70
     2
  9
$LUPREC
 70
     4
  9
$SKETCHINC
 40
0.1
  9
$FILLETRAD
 40
0.5
  9
$AUNITS
 70
     0
  9
$AUPREC
 70
     0
  9
$MENU
  1
.
  9
$ELEVATION
 40
0.0
  9
$THICKNESS
 40
0.0
  9
$LIMCHECK
 70
     0
  9
$CHAMFERA
 40
0.0
  9
$CHAMFERB
 40
0.0
  9
$SKPOLY
 70
     0
  9
$TDCREATE
 40
2460780.632531204
  9
$TDUPDATE
 40
2460780.632531296
  9
$TDINDWG
 40
0.0000000116
  9
$TDUSRTIMER
 40
0.0000000116
  9
$USRTIMER
 70
     1
  9
$ANGBASE
 50
0.0
  9
$ANGDIR
 70
     0
  9
$PDMODE
 70
     0
  9
$PDSIZE
 40
0.0
  9
$PLINEWID
 40
0.0
  9
$COORDS
 70
     1
  9
$SPLFRAME
 70
     0
  9
$SPLINETYPE
 70
     6
  9
$SPLINESEGS
 70
     8
  9
$ATTDIA
 70
     0
  9
$ATTREQ
 70
     1
  9
$SURFTAB1
 70
     6
  9
$SURFTAB2
 70
     6
  9
$SURFTYPE
 70
     6
  9
$SURFU
 70
     6
  9
$SURFV
 70
     6
  9
$UCSNAME
  2

  9
$UCSORG
 10
0.0
 20
0.0
 30
0.0
  9
$UCSXDIR
 10
1.0
 20
0.0
 30
0.0
  9
$UCSYDIR
 10
0.0
 20
1.0
 30
0.0
  9
$USERI1
 70
     0
  9
$USERI2
 70
     0
  9
$USERI3
 70
     0
  9
$USERI4
 70
     0
  9
$USERI5
 70
     0
  9
$USERR1
 40
0.0
  9
$USERR2
 40
0.0
  9
$USERR3
 40
0.0
  9
$USERR4
 40
0.0
  9
$USERR5
 40
0.0
  9
$WORLDVIEW
 70
     1
  0
ENDSEC
  0
SECTION
  2
TABLES
  0
TABLE
  2
LTYPE
 70
     2
  0
LTYPE
  2
CONTINUOUS
 70
     0
  3
Solid line
 72
    65
 73
     0
 40
0.0
  0
LTYPE
  2
CENTER
 70
     0
  3

 72
    65
 73
     0
 40
0.0
  0
ENDTAB
  0
TABLE
  2
LAYER
 70
     2
  0
LAYER
  2
0
 70
     0
 62
     7
  6
CONTINUOUS
  0
LAYER
  2
1
 70
     0
 62
     7
  6
CONTINUOUS
  0
ENDTAB
  0
TABLE
  2
STYLE
 70
     2
  0
STYLE
  2
STANDARD
 70
     0
 40
0.0
 41
1.0
 50
0.0
 71
     0
 42
0.2
  3
txt
  4

  0
STYLE
  2
ＭＳ_ゴシック
 70
     0
 40
0.0
 41
1.0
 50
0.0
 71
     0
 42
0.2
  3
ＭＳ ゴシック.shx
  4

  0
ENDTAB
  0
TABLE
  2
VIEW
 70
     0
  0
ENDTAB
  0
ENDSEC
  0
SECTION
  2
BLOCKS
  0
ENDSEC
  0
SECTION
  2
ENTITIES
  0
LINE
  8
1
  6
CONTINUOUS
 62
     7
 10
-418.4178716407
 20
275.2168874669
 11
-422.4178716406
 21
275.2168874669
  0
ARC
  8
1
  6
CONTINUOUS
 62
     7
 10
-418.4178716406
 20
251.4757274339
 40
1.0
 50
270.0
 51
0.0
  0
LINE
  8
1
  6
CONTINUOUS
 62
     7
 10
-417.4178716406
 20
246.7176278076
 11
-417.4178716406
 21
247.4729857863
  0
LINE
  8
1
  6
CENTER
 62
     5
 10
-376.9178716406
 20
264.9676278103
 11
-481.4178716406
 21
264.9676278103
  0
LINE
  8
1
  6
CONTINUOUS
 62
     7
 10
-397.4178716406
 20
243.2176278076
 11
-386.9178716406
 21
243.2176278076
  0
LINE
  8
1
  6
CONTINUOUS
 62
     7
 10
-417.4178716406
 20
283.2176278076
 11
-417.4178716406
 21
282.4622698409
  0
LINE
  8
1
  6
CENTER
 62
     5
 10
-499.2430605368
 20
264.9676278103
 11
-540.2430605368
 21
264.9676278103
  0
LINE
  8
1
  6
CONTINUOUS
 62
     7
 10
-535.2430605368
 20
271.3879380271
 11
-526.1633707536
 21
280.4676278103
  0
LINE
  8
1
  6
CONTINUOUS
 62
     7
 10
-422.4178716406
 20
284.2176278076
 11
-422.4178716406
 21
245.7176278076
  0
LINE
  8
1
  6
CONTINUOUS
 62
     7
 10
-417.4178716406
 20
262.9676278072
 11
-417.4178716406
 21
266.9676278072
  0
LINE
  8
1
  6
CONTINUOUS
 62
     7
 10
-422.4178716406
 20
247.4729857863
 11
-417.4178716406
 21
247.4729857863
  0
LINE
  8
1
  6
CONTINUOUS
 62
     7
 10
-417.4178716406
 20
278.4595281587
 11
-417.4178716406
 21
276.2168874669
  0
CIRCLE
  8
1
  6
CONTINUOUS
 62
     7
 10
-519.7430605368
 20
264.9676278103
 40
15.0
  0
LINE
  8
1
  6
CONTINUOUS
 62
     7
 10
-535.2430605368
 20
258.5473175935
 11
-535.2430605368
 21
271.3879380271
  0
LINE
  8
1
  6
CONTINUOUS
 62
     7
 10
-397.4178716406
 20
286.7176278076
 11
-386.9178716406
 21
286.7176278076
  0
ARC
  8
1
  6
CONTINUOUS
 62
     7
 10
-418.4178716406
 20
283.2176278076
 40
1.0
 50
0.0
 51
90.0
  0
ARC
  8
1
  6
CONTINUOUS
 62
     7
 10
-418.4178716407
 20
276.2168874669
 40
1.0
 50
270.0
 51
0.0
  0
LINE
  8
1
  6
CONTINUOUS
 62
     7
 10
-418.4178716406
 20
254.7183681348
 11
-422.4178716406
 21
254.7183681348
  0
CIRCLE
  8
1
  6
CONTINUOUS
 62
     7
 10
-519.7430605368
 20
264.9676278103
 40
11.0
  0
LINE
  8
1
  6
CONTINUOUS
 62
     7
 10
-513.32275032
 20
280.4676278103
 11
-504.2430605368
 21
271.3879380271
  0
LINE
  8
1
  6
CONTINUOUS
 62
     7
 10
-418.4178716406
 20
284.2176278076
 11
-422.4178716406
 21
284.2176278076
  0
LINE
  8
1
  6
CONTINUOUS
 62
     7
 10
-417.4178716406
 20
282.4622698409
 11
-422.4178716406
 21
282.4622698409
  0
LINE
  8
1
  6
CONTINUOUS
 62
     7
 10
-398.9178716406
 20
244.7176278076
 11
-398.9178716406
 21
285.2176278076
  0
LINE
  8
1
  6
CONTINUOUS
 62
     7
 10
-504.2430605368
 20
271.3879380271
 11
-504.2430605368
 21
258.5473175935
  0
LINE
  8
1
  6
CONTINUOUS
 62
     7
 10
-418.4178716406
 20
261.9676278072
 11
-422.4178716406
 21
261.9676278072
  0
LINE
  8
1
  6
CONTINUOUS
 62
     7
 10
-384.9178716406
 20
284.7176278077
 11
-384.9178716406
 21
245.2176278077
  0
ARC
  8
1
  6
CONTINUOUS
 62
     7
 10
-418.4178716406
 20
253.7183681348
 40
1.0
 50
0.0
 51
90.0
  0
ARC
  8
1
  6
CONTINUOUS
 62
     7
 10
-418.4178716406
 20
246.7176278076
 40
1.0
 50
270.0
 51
0.0
  0
LINE
  8
1
  6
CONTINUOUS
 62
     7
 10
-400.4178716406
 20
247.2176278076
 11
-417.4178716406
 21
247.2176278076
  0
LINE
  8
1
  6
CONTINUOUS
 62
     7
 10
-400.4178716406
 20
282.7176278076
 11
-417.4178716406
 21
282.7176278076
  0
CIRCLE
  8
1
  6
CONTINUOUS
 62
     7
 10
-519.7430605368
 20
264.9676278103
 40
12.775
  0
ARC
  8
1
  6
CONTINUOUS
 62
     7
 10
-418.4178716406
 20
266.9676278072
 40
1.0
 50
0.0
 51
90.0
  0
LINE
  8
1
  6
CENTER
 62
     5
 10
-519.7430605368
 20
285.4676278103
 11
-519.7430605368
 21
244.4676278103
  0
LINE
  8
1
  6
CONTINUOUS
 62
     7
 10
-396.9178716406
 20
286.7176278076
 11
-396.9178716406
 21
243.2176278076
  0
LINE
  8
1
  6
CONTINUOUS
 62
     7
 10
-418.4178716406
 20
245.7176278076
 11
-422.4178716406
 21
245.7176278076
  0
LINE
  8
1
  6
CONTINUOUS
 62
     7
 10
-526.1633707536
 20
249.4676278103
 11
-535.2430605368
 21
258.5473175935
  0
LINE
  8
1
  6
CONTINUOUS
 62
     7
 10
-504.2430605368
 20
258.5473175935
 11
-513.32275032
 21
249.4676278103
  0
LINE
  8
1
  6
CONTINUOUS
 62
     7
 10
-418.4178716406
 20
250.4757274339
 11
-422.4178716406
 21
250.4757274339
  0
LINE
  8
1
  6
CONTINUOUS
 62
     7
 10
-386.9178716406
 20
266.3333218077
 11
-396.9178716406
 21
266.3333218077
  0
LINE
  8
1
  6
CONTINUOUS
 62
     7
 10
-386.9178716406
 20
243.2176278077
 11
-386.9178716406
 21
286.7176278077
  0
ARC
  8
1
  6
CONTINUOUS
 62
     7
 10
-400.4178716406
 20
245.7176278076
 40
1.5
 50
0.0
 51
90.0
  0
LINE
  8
1
  6
CONTINUOUS
 62
     7
 10
-418.4178716406
 20
267.9676278072
 11
-422.4178716406
 21
267.9676278072
  0
LINE
  8
1
  6
CONTINUOUS
 62
     7
 10
-526.1633707536
 20
280.4676278103
 11
-513.32275032
 21
280.4676278103
  0
ARC
  8
1
  6
CONTINUOUS
 62
     7
 10
-397.4178716406
 20
285.2176278076
 40
1.5
 50
90.0
 51
180.0
  0
LINE
  8
1
  6
CONTINUOUS
 62
     7
 10
-417.4178716406
 20
253.7183681348
 11
-417.4178716406
 21
251.4757274339
  0
LINE
  8
1
  6
CONTINUOUS
 62
     7
 10
-386.9178716406
 20
263.6019338077
 11
-396.9178716406
 21
263.6019338077
  0
LINE
  8
1
  6
CONTINUOUS
 62
     7
 10
-386.9178716406
 20
267.6936258077
 11
-396.9178716406
 21
267.6936258077
  0
LINE
  8
1
  6
CONTINUOUS
 62
     7
 10
-386.9178716406
 20
250.0787278077
 11
-396.9178716406
 21
250.0787278077
  0
LINE
  8
1
  6
CONTINUOUS
 62
     7
 10
-386.9178716406
 20
255.7069278077
 11
-396.9178716406
 21
255.7069278077
  0
LINE
  8
1
  6
CONTINUOUS
 62
     7
 10
-383.4178716406
 20
246.9676278077
 11
-381.9178716406
 21
246.9676278077
  0
LINE
  8
1
  6
CONTINUOUS
 62
     7
 10
-386.9178716406
 20
244.2821488077
 11
-396.9178716406
 21
244.2821488077
  0
ARC
  8
1
  6
CONTINUOUS
 62
     7
 10
-383.4178716406
 20
245.4676278077
 40
1.5
 50
90.0
 51
180.0
  0
LINE
  8
1
  6
CONTINUOUS
 62
     7
 10
-386.9178716406
 20
244.7449888077
 11
-396.9178716406
 21
244.7449888077
  0
LINE
  8
1
  6
CONTINUOUS
 62
     7
 10
-386.9178716406
 20
283.3317598077
 11
-396.9178716406
 21
283.3317598077
  0
LINE
  8
1
  6
CONTINUOUS
 62
     7
 10
-386.9178716406
 20
243.3891328077
 11
-396.9178716406
 21
243.3891328077
  0
LINE
  8
1
  6
CONTINUOUS
 62
     7
 10
-381.9178716406
 20
282.9676278077
 11
-383.4178716406
 21
282.9676278077
  0
LINE
  8
1
  6
CONTINUOUS
 62
     7
 10
-386.9178716406
 20
253.3133948077
 11
-396.9178716406
 21
253.3133948077
  0
LINE
  8
1
  6
CONTINUOUS
 62
     7
 10
-386.9178716406
 20
275.4457698077
 11
-396.9178716406
 21
275.4457698077
  0
LINE
  8
1
  6
CONTINUOUS
 62
     7
 10
-386.9178716406
 20
254.4894858077
 11
-396.9178716406
 21
254.4894858077
  0
CIRCLE
  8
1
  6
CONTINUOUS
 62
     7
 10
-321.2259386565
 20
264.9676278103
 40
11.0
  0
CIRCLE
  8
1
  6
CONTINUOUS
 62
     7
 10
-321.2259386565
 20
264.9676278103
 40
15.1
  0
LINE
  8
1
  6
CONTINUOUS
 62
     7
 10
-386.9178716406
 20
280.8226958077
 11
-396.9178716406
 21
280.8226958077
  0
LINE
  8
1
  6
CONTINUOUS
 62
     7
 10
-386.9178716406
 20
246.6034958077
 11
-396.9178716406
 21
246.6034958077
  0
LINE
  8
1
  6
CONTINUOUS
 62
     7
 10
-386.9178716406
 20
243.6028798077
 11
-396.9178716406
 21
243.6028798077
  0
LINE
  8
1
  6
CONTINUOUS
 62
     7
 10
-381.9178716406
 20
246.9676278077
 11
-381.9178716406
 21
282.9676278077
  0
CIRCLE
  8
1
  6
CONTINUOUS
 62
     7
 10
-321.2259386565
 20
264.9676278103
 40
18.0
  0
LINE
  8
1
  6
CENTER
 62
     5
 10
-321.2259386565
 20
291.7176278103
 11
-321.2259386565
 21
238.2176278103
  0
LINE
  8
1
  6
CONTINUOUS
 62
     7
 10
-386.9178716406
 20
272.9743368077
 11
-396.9178716406
 21
272.9743368077
  0
LINE
  8
1
  6
CONTINUOUS
 62
     7
 10
-386.9178716406
 20
252.1832988077
 11
-396.9178716406
 21
252.1832988077
  0
LINE
  8
1
  6
CONTINUOUS
 62
     7
 10
-386.9178716406
 20
260.8920838077
 11
-396.9178716406
 21
260.8920838077
  0
ARC
  8
1
  6
CONTINUOUS
 62
     7
 10
-386.9178716406
 20
245.2176278077
 40
2.0
 50
270.0
 51
0.0
  0
LINE
  8
1
  6
CONTINUOUS
 62
     7
 10
-386.9178716406
 20
278.8315998077
 11
-396.9178716406
 21
278.8315998077
  0
LINE
  8
1
  6
CONTINUOUS
 62
     7
 10
-386.9178716406
 20
249.1125598077
 11
-396.9178716406
 21
249.1125598077
  0
LINE
  8
1
  6
CONTINUOUS
 62
     7
 10
-386.9178716406
 20
258.2465078077
 11
-396.9178716406
 21
258.2465078077
  0
CIRCLE
  8
1
  6
CONTINUOUS
 62
     7
 10
-519.7430605368
 20
264.9676278103
 40
21.75
  0
LINE
  8
1
  6
CONTINUOUS
 62
     7
 10
-386.9178716406
 20
279.8565278077
 11
-396.9178716406
 21
279.8565278077
  0
LINE
  8
1
  6
CONTINUOUS
 62
     7
 10
-386.9178716406
 20
271.6887478077
 11
-396.9178716406
 21
271.6887478077
  0
LINE
  8
1
  6
CONTINUOUS
 62
     7
 10
-386.9178716406
 20
259.5586228077
 11
-396.9178716406
 21
259.5586228077
  0
LINE
  8
1
  6
CONTINUOUS
 62
     7
 10
-386.9178716406
 20
245.9079578077
 11
-396.9178716406
 21
245.9079578077
  0
LINE
  8
1
  6
CONTINUOUS
 62
     7
 10
-386.9178716406
 20
269.0431718077
 11
-396.9178716406
 21
269.0431718077
  0
CIRCLE
  8
1
  6
CONTINUOUS
 62
     7
 10
-321.2259386565
 20
264.9676278103
 40
21.75
  0
LINE
  8
1
  6
CONTINUOUS
 62
     7
 10
-386.9178716406
 20
270.3766328077
 11
-396.9178716406
 21
270.3766328077
  0
LINE
  8
1
  6
CONTINUOUS
 62
     7
 10
-386.9178716406
 20
245.2876398077
 11
-396.9178716406
 21
245.2876398077
  0
LINE
  8
1
  6
CONTINUOUS
 62
     7
 10
-386.9178716406
 20
282.5637478077
 11
-396.9178716406
 21
282.5637478077
  0
LINE
  8
1
  6
CONTINUOUS
 62
     7
 10
-386.9178716406
 20
281.7262908077
 11
-396.9178716406
 21
281.7262908077
  0
LINE
  8
1
  6
CONTINUOUS
 62
     7
 10
-386.9178716406
 20
285.1902668077
 11
-396.9178716406
 21
285.1902668077
  0
LINE
  8
1
  6
CONTINUOUS
 62
     7
 10
-386.9178716406
 20
276.6218608077
 11
-396.9178716406
 21
276.6218608077
  0
LINE
  8
1
  6
CONTINUOUS
 62
     7
 10
-386.9178716406
 20
285.6531068077
 11
-396.9178716406
 21
285.6531068077
  0
LINE
  8
1
  6
CONTINUOUS
 62
     7
 10
-386.9178716406
 20
286.3323758077
 11
-396.9178716406
 21
286.3323758077
  0
LINE
  8
1
  6
CONTINUOUS
 62
     7
 10
-386.9178716406
 20
243.2605468077
 11
-396.9178716406
 21
243.2605468077
  0
LINE
  8
1
  6
CONTINUOUS
 62
     7
 10
-386.9178716406
 20
286.0343118077
 11
-396.9178716406
 21
286.0343118077
  0
LINE
  8
1
  6
CONTINUOUS
 62
     7
 10
-386.9178716406
 20
286.6747088077
 11
-396.9178716406
 21
286.6747088077
  0
ARC
  8
1
  6
CONTINUOUS
 62
     7
 10
-386.9178716406
 20
284.7176278077
 40
2.0
 50
0.0
 51
90.0
  0
LINE
  8
1
  6
CONTINUOUS
 62
     7
 10
-386.9178716406
 20
277.7519568077
 11
-396.9178716406
 21
277.7519568077
  0
LINE
  8
1
  6
CONTINUOUS
 62
     7
 10
-386.9178716406
 20
243.9009438077
 11
-396.9178716406
 21
243.9009438077
  0
LINE
  8
1
  6
CONTINUOUS
 62
     7
 10
-383.4178716406
 20
282.9676278077
 11
-383.4178716406
 21
246.9676278077
  0
LINE
  8
1
  6
CONTINUOUS
 62
     7
 10
-386.9178716406
 20
274.2283278077
 11
-396.9178716406
 21
274.2283278077
  0
LINE
  8
1
  6
CONTINUOUS
 62
     7
 10
-386.9178716406
 20
256.9609188077
 11
-396.9178716406
 21
256.9609188077
  0
LINE
  8
1
  6
CONTINUOUS
 62
     7
 10
-386.9178716406
 20
247.3715078077
 11
-396.9178716406
 21
247.3715078077
  0
ARC
  8
1
  6
CONTINUOUS
 62
     7
 10
-383.4178716406
 20
284.4676278077
 40
1.5
 50
180.0
 51
270.0
  0
LINE
  8
1
  6
CONTINUOUS
 62
     7
 10
-386.9178716406
 20
248.2089648077
 11
-396.9178716406
 21
248.2089648077
  0
LINE
  8
1
  6
CONTINUOUS
 62
     7
 10
-386.9178716406
 20
262.2416298077
 11
-396.9178716406
 21
262.2416298077
  0
LINE
  8
1
  6
CENTER
 62
     5
 10
-347.9759386565
 20
264.9676278103
 11
-294.4759386565
 21
264.9676278103
  0
CIRCLE
  8
1
  6
CONTINUOUS
 62
     7
 10
-321.2259386565
 20
264.9676278103
 40
15.75
  0
LINE
  8
1
  6
CONTINUOUS
 62
     7
 10
-386.9178716406
 20
284.0272978077
 11
-396.9178716406
 21
284.0272978077
  0
LINE
  8
1
  6
CONTINUOUS
 62
     7
 10
-386.9178716406
 20
284.6476158077
 11
-396.9178716406
 21
284.6476158077
  0
LINE
  8
1
  6
CONTINUOUS
 62
     7
 10
-386.9178716406
 20
286.5461228077
 11
-396.9178716406
 21
286.5461228077
  0
LINE
  8
1
  6
CONTINUOUS
 62
     7
 10
-386.9178716406
 20
251.1036558077
 11
-396.9178716406
 21
251.1036558077
  0
ARC
  8
1
  6
CONTINUOUS
 62
     7
 10
-418.4178716406
 20
262.9676278072
 40
1.0
 50
270.0
 51
0.0
  0
ARC
  8
1
  6
CONTINUOUS
 62
     7
 10
-418.4178716406
 20
278.4595281587
 40
1.0
 50
0.0
 51
90.0
  0
LINE
  8
1
  6
CONTINUOUS
 62
     7
 10
-513.32275032
 20
249.4676278103
 11
-526.1633707536
 21
249.4676278103
  0
LINE
  8
1
  6
CONTINUOUS
 62
     7
 10
-418.4178716406
 20
279.4595281587
 11
-422.4178716406
 21
279.4595281587
  0
ARC
  8
1
  6
CONTINUOUS
 62
     7
 10
-397.4178716406
 20
244.7176278076
 40
1.5
 50
180.0
 51
270.0
  0
ARC
  8
1
  6
CONTINUOUS
 62
     7
 10
-400.4178716406
 20
284.2176278076
 40
1.5
 50
270.0
 51
0.0
  0
POINT
  8
0
 62
     7
 10
-519.7430605368
 20
264.9676278103
 30
0.0
  0
POINT
  8
0
 62
     7
 10
-519.7430605368
 20
264.9676278103
 30
0.0
  0
POINT
  8
0
 62
     7
 10
-519.7430605368
 20
264.9676278103
 30
0.0
  0
POINT
  8
0
 62
     7
 10
-519.7430605368
 20
264.9676278103
 30
0.0
  0
POINT
  8
0
 62
     7
 10
-519.7430605368
 20
264.9676278103
 30
0.0
  0
POINT
  8
0
 62
     7
 10
-519.7430605368
 20
264.9676278103
 30
0.0
  0
POINT
  8
0
 62
     7
 10
-519.7430605368
 20
264.9676278103
 30
0.0
  0
TEXT
  8
1
  6
CONTINUOUS
 62
     7
 10
-337.2157701218602
 20
227.4021738272341
 40
3.5
  1
ＦＰＶＥ－２２ＹP
 41
0.996045
 51
15.0
  0
ARC
  8
0
  6
CONTINUOUS
 62
     7
 10
-519.7430605368
 20
264.9676278103
 40
16.5
 50
159.9500242758482
 51
200.0499757241518
  0
ARC
  8
0
  6
CONTINUOUS
 62
     7
 10
-519.7430605368
 20
264.9676278103
 40
16.5
 50
249.9500242758482
 51
290.0499757241518
  0
ARC
  8
0
  6
CONTINUOUS
 62
     7
 10
-519.7430605368
 20
264.9676278103
 40
16.5
 50
339.9500242758492
 51
20.04997572415078
  0
ARC
  8
0
  6
CONTINUOUS
 62
     7
 10
-519.7430605368
 20
264.9676278103
 40
16.5
 50
294.9500242759712
 51
335.0499757240293
  0
ARC
  8
0
  6
CONTINUOUS
 62
     7
 10
-519.7430605368
 20
264.9676278103
 40
16.5
 50
204.9500242759697
 51
245.0499757240309
  0
LINE
  8
1
  6
CONTINUOUS
 62
     7
 10
-439.4178716406
 20
279.9676278103
 11
-478.4178716406
 21
279.9676278103
  0
LINE
  8
1
  6
CONTINUOUS
 62
     7
 10
-478.4178716406
 20
279.9676278103
 11
-478.4178716406
 21
249.9676278103
  0
LINE
  8
1
  6
CONTINUOUS
 62
     7
 10
-439.4178716406
 20
249.4676278103
 11
-439.4178716406
 21
280.4676278103
  0
LINE
  8
1
  6
CONTINUOUS
 62
     7
 10
-439.4178716406
 20
280.4676278103
 11
-424.4178716406
 21
280.4676278103
  0
LINE
  8
1
  6
CONTINUOUS
 62
     7
 10
-439.4178716408001
 20
258.5473175935
 11
-424.4178716406
 21
258.5473175935
  0
LINE
  8
1
  6
CONTINUOUS
 62
     7
 10
-478.4178716406
 20
249.9676278103
 11
-439.4178716408001
 21
249.9676278103
  0
LINE
  8
1
  6
CONTINUOUS
 62
     7
 10
-424.4178716406
 20
249.4676278103
 11
-439.4178716406
 21
249.4676278103
  0
LINE
  8
1
  6
CONTINUOUS
 62
     7
 10
-439.4178716408001
 20
271.3879380271
 11
-424.4178716406
 21
271.3879380271
  0
LINE
  8
0
  6
CONTINUOUS
 62
     7
 10
-424.4178716406
 20
281.4676278103
 11
-424.4178716406
 21
248.4676278102999
  0
LINE
  8
0
  6
CONTINUOUS
 62
     7
 10
-422.4178716406
 20
281.4676278103
 11
-424.4178716406
 21
281.4676278103
  0
LINE
  8
0
  6
CONTINUOUS
 62
     7
 10
-422.4178716406
 20
248.4676278102999
 11
-424.4178716406
 21
248.4676278102999
  0
ARC
  8
0
  6
CONTINUOUS
 62
     7
 10
-519.7430605368
 20
264.9676278103
 40
16.5
 50
114.9500242759704
 51
155.0499757240297
  0
ARC
  8
0
  6
CONTINUOUS
 62
     7
 10
-519.7430605368
 20
264.9676278103
 40
16.5
 50
69.95002427584859
 51
110.0499757241514
  0
ARC
  8
0
  6
CONTINUOUS
 62
     7
 10
-519.7430605368
 20
264.9676278103
 40
16.5
 50
24.95002427597122
 51
65.04997572402843
  0
ENDSEC
  0
EOF
