  0
SECTION
  2
HEADER
  9
$ACADVER
  1
AC1004
  9
$INSBASE
 10
0.0
 20
0.0
  9
$EXTMIN
 10
-559.8246201080999
 20
138.6957939090909
  9
$EXTMAX
 10
-289.7259386565
 20
210.466354032
  9
$LIMMIN
 10
0.0
 20
0.0
  9
$LIMMAX
 10
12.0
 20
9.0
  9
$ORTHOMODE
 70
     0
  9
$REGENMODE
 70
     1
  9
$FILLMODE
 70
     1
  9
$QTEXTMODE
 70
     0
  9
$DRAGMODE
 70
     2
  9
$LTSCALE
 40
1.0
  9
$OSMODE
 70
    37
  9
$ATTMODE
 70
     1
  9
$TEXTSIZE
 40
0.2
  9
$TRACEWID
 40
0.05
  9
$TEXTSTYLE
  7
STANDARD
  9
$CLAYER
  8
0
  9
$CELTYPE
  6
BYLAYER
  9
$CECOLOR
 62
   256
  9
$DIMSCALE
 40
1.0
  9
$DIMASZ
 40
3.0
  9
$DIMEXO
 40
0.0625
  9
$DIMDLI
 40
0.38
  9
$DIMRND
 40
0.0
  9
$DIMDLE
 40
0.0
  9
$DIMEXE
 40
1.5
  9
$DIMTP
 40
0.0
  9
$DIMTM
 40
0.0
  9
$DIMTXT
 40
3.5
  9
$DIMCEN
 40
0.09
  9
$DIMTSZ
 40
0.0
  9
$DIMTOL
 70
     0
  9
$DIMLIM
 70
     0
  9
$DIMTIH
 70
     1
  9
$DIMTOH
 70
     1
  9
$DIMSE1
 70
     0
  9
$DIMSE2
 70
     0
  9
$DIMTAD
 70
     1
  9
$DIMZIN
 70
     0
  9
$DIMBLK
  1

  9
$DIMASO
 70
     1
  9
$DIMSHO
 70
     1
  9
$DIMPOST
  1

  9
$DIMAPOST
  1

  9
$DIMALT
 70
     0
  9
$DIMALTD
 70
     2
  9
$DIMALTF
 40
25.4
  9
$DIMLFAC
 40
1.0
  9
$DIMTOFL
 70
     0
  9
$DIMTVP
 40
0.0
  9
$DIMTIX
 70
     0
  9
$DIMSOXD
 70
     0
  9
$DIMSAH
 70
     0
  9
$DIMBLK1
  1

  9
$DIMBLK2
  1

  9
$LUNITS
 70
     2
  9
$LUPREC
 70
     4
  9
$SKETCHINC
 40
0.1
  9
$FILLETRAD
 40
0.5
  9
$AUNITS
 70
     0
  9
$AUPREC
 70
     0
  9
$MENU
  1
.
  9
$ELEVATION
 40
0.0
  9
$THICKNESS
 40
0.0
  9
$LIMCHECK
 70
     0
  9
$CHAMFERA
 40
0.0
  9
$CHAMFERB
 40
0.0
  9
$SKPOLY
 70
     0
  9
$TDCREATE
 40
2460780.63571228
  9
$TDUPDATE
 40
2460780.635712349
  9
$TDINDWG
 40
0.0000000116
  9
$TDUSRTIMER
 40
0.0000000116
  9
$USRTIMER
 70
     1
  9
$ANGBASE
 50
0.0
  9
$ANGDIR
 70
     0
  9
$PDMODE
 70
     0
  9
$PDSIZE
 40
0.0
  9
$PLINEWID
 40
0.0
  9
$COORDS
 70
     1
  9
$SPLFRAME
 70
     0
  9
$SPLINETYPE
 70
     6
  9
$SPLINESEGS
 70
     8
  9
$ATTDIA
 70
     0
  9
$ATTREQ
 70
     1
  9
$SURFTAB1
 70
     6
  9
$SURFTAB2
 70
     6
  9
$SURFTYPE
 70
     6
  9
$SURFU
 70
     6
  9
$SURFV
 70
     6
  9
$UCSNAME
  2

  9
$UCSORG
 10
0.0
 20
0.0
 30
0.0
  9
$UCSXDIR
 10
1.0
 20
0.0
 30
0.0
  9
$UCSYDIR
 10
0.0
 20
1.0
 30
0.0
  9
$USERI1
 70
     0
  9
$USERI2
 70
     0
  9
$USERI3
 70
     0
  9
$USERI4
 70
     0
  9
$USERI5
 70
     0
  9
$USERR1
 40
0.0
  9
$USERR2
 40
0.0
  9
$USERR3
 40
0.0
  9
$USERR4
 40
0.0
  9
$USERR5
 40
0.0
  9
$WORLDVIEW
 70
     1
  0
ENDSEC
  0
SECTION
  2
TABLES
  0
TABLE
  2
LTYPE
 70
     2
  0
LTYPE
  2
CONTINUOUS
 70
     0
  3
Solid line
 72
    65
 73
     0
 40
0.0
  0
LTYPE
  2
CENTER
 70
     0
  3

 72
    65
 73
     0
 40
0.0
  0
ENDTAB
  0
TABLE
  2
LAYER
 70
     2
  0
LAYER
  2
0
 70
     0
 62
     7
  6
CONTINUOUS
  0
LAYER
  2
1
 70
     0
 62
     7
  6
CONTINUOUS
  0
ENDTAB
  0
TABLE
  2
STYLE
 70
     2
  0
STYLE
  2
STANDARD
 70
     0
 40
0.0
 41
1.0
 50
0.0
 71
     0
 42
0.2
  3
txt
  4

  0
STYLE
  2
ＭＳ_ゴシック
 70
     0
 40
0.0
 41
1.0
 50
0.0
 71
     0
 42
0.2
  3
ＭＳ ゴシック.shx
  4

  0
ENDTAB
  0
TABLE
  2
VIEW
 70
     0
  0
ENDTAB
  0
ENDSEC
  0
SECTION
  2
BLOCKS
  0
ENDSEC
  0
SECTION
  2
ENTITIES
  0
LINE
  8
1
  6
CONTINUOUS
 62
     7
 10
-541.8159981367
 20
199.466354032
 11
-524.8332420794
 21
199.466354032
  0
LINE
  8
1
  6
CONTINUOUS
 62
     7
 10
-417.4178716406
 20
202.2163540339
 11
-422.4178716406
 21
202.2163540339
  0
LINE
  8
1
  6
CONTINUOUS
 62
     7
 10
-512.824620108
 20
187.4577320607
 11
-512.824620108
 21
170.4749760034
  0
LINE
  8
1
  6
CONTINUOUS
 62
     7
 10
-416.4178716406
 20
156.7163540339
 11
-416.4178716406
 21
158.0065710874
  0
LINE
  8
1
  6
CONTINUOUS
 62
     7
 10
-417.4178716406
 20
175.4663539018
 11
-422.4178716406
 21
175.4663539018
  0
LINE
  8
1
  6
CONTINUOUS
 62
     7
 10
-417.4178716406
 20
191.3122847685
 11
-422.4178716406
 21
191.3122847685
  0
LINE
  8
1
  6
CONTINUOUS
 62
     7
 10
-512.824620108
 20
170.4749760034
 11
-524.8332420794
 21
158.466354032
  0
LINE
  8
1
  6
CONTINUOUS
 62
     7
 10
-524.8332420794
 20
158.466354032
 11
-541.8159981367
 21
158.466354032
  0
LINE
  8
1
  6
CENTER
 62
     5
 10
-533.3246201081
 20
204.466354032
 11
-533.3246201081
 21
153.466354032
  0
LINE
  8
1
  6
CONTINUOUS
 62
     7
 10
-553.824620108
 20
170.4749760034
 11
-553.824620108
 21
187.4577320607
  0
LINE
  8
1
  6
CONTINUOUS
 62
     7
 10
-416.4178716406
 20
192.3122847685
 11
-416.4178716406
 21
195.2620322931
  0
ARC
  8
1
  6
CONTINUOUS
 62
     7
 10
-391.9178716406
 20
154.4663540339
 40
2.0
 50
180.0
 51
270.0
  0
LINE
  8
1
  6
CONTINUOUS
 62
     7
 10
-378.4178716406
 20
162.0746180338
 11
-391.4178716406
 21
162.0746180338
  0
LINE
  8
1
  6
CONTINUOUS
 62
     7
 10
-416.4178716406
 20
176.4663539018
 11
-416.4178716406
 21
181.4663540572
  0
LINE
  8
1
  6
CONTINUOUS
 62
     7
 10
-417.4178716406
 20
155.7163540339
 11
-422.4178716406
 21
155.7163540339
  0
LINE
  8
1
  6
CONTINUOUS
 62
     7
 10
-393.9178716406
 20
154.4663540339
 11
-393.9178716406
 21
203.4663540339
  0
ARC
  8
1
  6
CONTINUOUS
 62
     7
 10
-417.4178716406
 20
156.7163540339
 40
1.0
 50
270.0
 51
0.0
  0
ARC
  8
1
  6
CONTINUOUS
 62
     7
 10
-417.4178716406
 20
165.6204229762
 40
1.0
 50
0.0
 51
90.0
  0
LINE
  8
1
  6
CONTINUOUS
 62
     7
 10
-416.4178716406
 20
162.6706755495
 11
-416.4178716406
 21
165.6204229762
  0
LINE
  8
1
  6
CONTINUOUS
 62
     7
 10
-541.8159981367
 20
158.466354032
 11
-553.824620108
 21
170.4749760034
  0
LINE
  8
1
  6
CONTINUOUS
 62
     7
 10
-417.4178716406
 20
161.6706755495
 11
-422.4178716406
 21
161.6706755495
  0
CIRCLE
  8
1
  6
CONTINUOUS
 62
     7
 10
-533.324620108
 20
178.966354032
 40
20.0
  0
ARC
  8
1
  6
CONTINUOUS
 62
     7
 10
-417.4178716406
 20
195.2620322931
 40
1.0
 50
0.0
 51
90.0
  0
LINE
  8
1
  6
CONTINUOUS
 62
     7
 10
-553.824620108
 20
187.4577320607
 11
-541.8159981367
 21
199.466354032
  0
LINE
  8
1
  6
CONTINUOUS
 62
     7
 10
-417.4178716406
 20
166.6204229762
 11
-422.4178716406
 21
166.6204229762
  0
LINE
  8
1
  6
CONTINUOUS
 62
     7
 10
-378.4178716406
 20
202.1884810338
 11
-391.4178716406
 21
202.1884810338
  0
CIRCLE
  8
1
  6
CONTINUOUS
 62
     7
 10
-533.324620108
 20
178.966354032
 40
16.725
  0
ARC
  8
1
  6
CONTINUOUS
 62
     7
 10
-378.4178716406
 20
202.9663540338
 40
2.5
 50
0.0
 51
90.0
  0
LINE
  8
1
  6
CONTINUOUS
 62
     7
 10
-378.4178716406
 20
198.2840230338
 11
-391.4178716406
 21
198.2840230338
  0
LINE
  8
1
  6
CONTINUOUS
 62
     7
 10
-395.9178716406
 20
200.2163540339
 11
-416.4178716406
 21
200.2163540339
  0
ARC
  8
1
  6
CONTINUOUS
 62
     7
 10
-417.4178716406
 20
176.4663539018
 40
1.0
 50
270.0
 51
0.0
  0
LINE
  8
1
  6
CENTER
 62
     5
 10
-491.4178716406
 20
178.966354032
 11
-366.4178716406
 21
178.966354032
  0
LINE
  8
1
  6
CONTINUOUS
 62
     7
 10
-416.4178716406
 20
201.2163540339
 11
-416.4178716406
 21
199.9261369427
  0
ARC
  8
1
  6
CONTINUOUS
 62
     7
 10
-417.4178716406
 20
162.6706755495
 40
1.0
 50
270.0
 51
0.0
  0
LINE
  8
1
  6
CONTINUOUS
 62
     7
 10
-391.4178716406
 20
205.4663540339
 11
-391.4178716406
 21
152.4663540339
  0
LINE
  8
1
  6
CONTINUOUS
 62
     7
 10
-524.8332420794
 20
199.466354032
 11
-512.824620108
 21
187.4577320607
  0
ARC
  8
1
  6
CONTINUOUS
 62
     7
 10
-391.9178716406
 20
203.4663540339
 40
2.0
 50
90.0
 51
180.0
  0
ARC
  8
1
  6
CONTINUOUS
 62
     7
 10
-417.4178716406
 20
201.2163540339
 40
1.0
 50
0.0
 51
90.0
  0
LINE
  8
1
  6
CONTINUOUS
 62
     7
 10
-416.4178716406
 20
199.9261369427
 11
-422.4178716406
 21
199.9261369427
  0
ARC
  8
1
  6
CONTINUOUS
 62
     7
 10
-395.9178716406
 20
155.7163540339
 40
2.0
 50
0.0
 51
90.0
  0
LINE
  8
1
  6
CONTINUOUS
 62
     7
 10
-391.9178716406
 20
205.4663540339
 11
-378.4178716406
 21
205.4663540339
  0
LINE
  8
1
  6
CONTINUOUS
 62
     7
 10
-422.4178716406
 20
202.2163540339
 11
-422.4178716406
 21
155.7163540339
  0
LINE
  8
1
  6
CONTINUOUS
 62
     7
 10
-417.4178716406
 20
196.2620322931
 11
-422.4178716406
 21
196.2620322931
  0
CIRCLE
  8
1
  6
CONTINUOUS
 62
     7
 10
-533.324620108
 20
178.966354032
 40
14.0
  0
ARC
  8
1
  6
CONTINUOUS
 62
     7
 10
-417.4178716406
 20
181.4663540572
 40
1.0
 50
0.0
 51
90.0
  0
LINE
  8
1
  6
CONTINUOUS
 62
     7
 10
-422.4178716406
 20
158.0065710874
 11
-416.4178716406
 21
158.0065710874
  0
LINE
  8
1
  6
CONTINUOUS
 62
     7
 10
-395.9178716406
 20
157.7163540339
 11
-416.4178716406
 21
157.7163540339
  0
LINE
  8
1
  6
CONTINUOUS
 62
     7
 10
-417.4178716406
 20
182.4663540572
 11
-422.4178716406
 21
182.4663540572
  0
ARC
  8
1
  6
CONTINUOUS
 62
     7
 10
-417.4178716406
 20
192.3122847685
 40
1.0
 50
270.0
 51
0.0
  0
LINE
  8
1
  6
CONTINUOUS
 62
     7
 10
-391.9178716406
 20
152.4663540339
 11
-378.4178716406
 21
152.4663540339
  0
LINE
  8
1
  6
CENTER
 62
     5
 10
-558.824620108
 20
178.966354032
 11
-507.824620108
 21
178.966354032
  0
ARC
  8
1
  6
CONTINUOUS
 62
     7
 10
-395.9178716406
 20
202.2163540339
 40
2.0
 50
270.0
 51
0.0
  0
LINE
  8
1
  6
CONTINUOUS
 62
     7
 10
-378.4178716406
 20
204.9969660338
 11
-391.4178716406
 21
204.9969660338
  0
CIRCLE
  8
1
  6
CONTINUOUS
 62
     7
 10
-321.2259386565
 20
178.966354032
 40
18.8
  0
LINE
  8
1
  6
CONTINUOUS
 62
     7
 10
-378.4178716406
 20
197.1068520338
 11
-391.4178716406
 21
197.1068520338
  0
LINE
  8
1
  6
CONTINUOUS
 62
     7
 10
-378.4178716406
 20
182.2876850338
 11
-391.4178716406
 21
182.2876850338
  0
LINE
  8
1
  6
CONTINUOUS
 62
     7
 10
-378.4178716406
 20
160.8258560338
 11
-391.4178716406
 21
160.8258560338
  0
LINE
  8
1
  6
CONTINUOUS
 62
     7
 10
-378.4178716406
 20
157.5274040338
 11
-391.4178716406
 21
157.5274040338
  0
LINE
  8
1
  6
CONTINUOUS
 62
     7
 10
-378.4178716406
 20
200.4053040338
 11
-391.4178716406
 21
200.4053040338
  0
LINE
  8
1
  6
CONTINUOUS
 62
     7
 10
-378.4178716406
 20
204.6338080338
 11
-391.4178716406
 21
204.6338080338
  0
LINE
  8
1
  6
CENTER
 62
     5
 10
-321.2259386565
 20
210.466354032
 11
-321.2259386565
 21
147.466354032
  0
LINE
  8
1
  6
CONTINUOUS
 62
     7
 10
-378.4178716406
 20
172.3760720338
 11
-391.4178716406
 21
172.3760720338
  0
LINE
  8
1
  6
CONTINUOUS
 62
     7
 10
-378.4178716406
 20
187.1553040338
 11
-391.4178716406
 21
187.1553040338
  0
LINE
  8
1
  6
CONTINUOUS
 62
     7
 10
-378.4178716406
 20
195.8580900338
 11
-391.4178716406
 21
195.8580900338
  0
LINE
  8
1
  6
CONTINUOUS
 62
     7
 10
-378.4178716406
 20
155.7442270338
 11
-391.4178716406
 21
155.7442270338
  0
CIRCLE
  8
1
  6
CONTINUOUS
 62
     7
 10
-321.2259386565
 20
178.966354032
 40
26.5
  0
LINE
  8
1
  6
CONTINUOUS
 62
     7
 10
-378.4178716406
 20
188.7216550338
 11
-391.4178716406
 21
188.7216550338
  0
LINE
  8
1
  6
CONTINUOUS
 62
     7
 10
-373.9178716406
 20
157.4663540338
 11
-373.9178716406
 21
200.4663540338
  0
LINE
  8
1
  6
CONTINUOUS
 62
     7
 10
-378.4178716406
 20
201.3410440338
 11
-391.4178716406
 21
201.3410440338
  0
LINE
  8
1
  6
CONTINUOUS
 62
     7
 10
-378.4178716406
 20
205.2573940338
 11
-391.4178716406
 21
205.2573940338
  0
LINE
  8
1
  6
CONTINUOUS
 62
     7
 10
-378.4178716406
 20
183.9319590338
 11
-391.4178716406
 21
183.9319590338
  0
CIRCLE
  8
1
  6
CONTINUOUS
 62
     7
 10
-533.3246201081
 20
178.966354032
 40
26.5
  0
CIRCLE
  8
1
  6
CONTINUOUS
 62
     7
 10
-321.2259386565
 20
178.966354032
 40
14.0
  0
LINE
  8
1
  6
CONTINUOUS
 62
     7
 10
-378.4178716406
 20
152.6753140338
 11
-391.4178716406
 21
152.6753140338
  0
LINE
  8
1
  6
CONTINUOUS
 62
     7
 10
-371.4178716406
 20
157.4663540338
 11
-373.9178716406
 21
157.4663540338
  0
LINE
  8
1
  6
CONTINUOUS
 62
     7
 10
-378.4178716406
 20
202.9442710338
 11
-391.4178716406
 21
202.9442710338
  0
LINE
  8
1
  6
CONTINUOUS
 62
     7
 10
-378.4178716406
 20
156.5916640338
 11
-391.4178716406
 21
156.5916640338
  0
LINE
  8
1
  6
CONTINUOUS
 62
     7
 10
-378.4178716406
 20
193.1657640338
 11
-391.4178716406
 21
193.1657640338
  0
LINE
  8
1
  6
CONTINUOUS
 62
     7
 10
-378.4178716406
 20
204.1693520338
 11
-391.4178716406
 21
204.1693520338
  0
ARC
  8
1
  6
CONTINUOUS
 62
     7
 10
-373.9178716406
 20
155.4663540338
 40
2.0
 50
90.0
 51
180.0
  0
LINE
  8
1
  6
CONTINUOUS
 62
     7
 10
-378.4178716406
 20
154.3272770338
 11
-391.4178716406
 21
154.3272770338
  0
LINE
  8
1
  6
CONTINUOUS
 62
     7
 10
-378.4178716406
 20
166.1998820338
 11
-391.4178716406
 21
166.1998820338
  0
LINE
  8
1
  6
CONTINUOUS
 62
     7
 10
-378.4178716406
 20
177.3024050338
 11
-391.4178716406
 21
177.3024050338
  0
LINE
  8
1
  6
CONTINUOUS
 62
     7
 10
-378.4178716406
 20
170.7774040338
 11
-391.4178716406
 21
170.7774040338
  0
LINE
  8
1
  6
CONTINUOUS
 62
     7
 10
-378.4178716406
 20
190.2495050338
 11
-391.4178716406
 21
190.2495050338
  0
LINE
  8
1
  6
CONTINUOUS
 62
     7
 10
-378.4178716406
 20
175.6450230338
 11
-391.4178716406
 21
175.6450230338
  0
LINE
  8
1
  6
CONTINUOUS
 62
     7
 10
-378.4178716406
 20
163.3900450338
 11
-391.4178716406
 21
163.3900450338
  0
LINE
  8
1
  6
CONTINUOUS
 62
     7
 10
-378.4178716406
 20
205.4663540338
 11
-378.4178716406
 21
152.4663540338
  0
LINE
  8
1
  6
CONTINUOUS
 62
     7
 10
-371.4178716406
 20
200.4663540338
 11
-371.4178716406
 21
157.4663540338
  0
ARC
  8
1
  6
CONTINUOUS
 62
     7
 10
-378.4178716406
 20
154.9663540338
 40
2.5
 50
270.0
 51
0.0
  0
LINE
  8
1
  6
CENTER
 62
     5
 10
-352.7259386565
 20
178.966354032
 11
-289.7259386565
 21
178.966354032
  0
LINE
  8
1
  6
CONTINUOUS
 62
     7
 10
-378.4178716406
 20
164.7669440338
 11
-391.4178716406
 21
164.7669440338
  0
LINE
  8
1
  6
CONTINUOUS
 62
     7
 10
-378.4178716406
 20
185.5566360338
 11
-391.4178716406
 21
185.5566360338
  0
LINE
  8
1
  6
CONTINUOUS
 62
     7
 10
-378.4178716406
 20
153.7633560338
 11
-391.4178716406
 21
153.7633560338
  0
LINE
  8
1
  6
CONTINUOUS
 62
     7
 10
-378.4178716406
 20
158.5477530338
 11
-391.4178716406
 21
158.5477530338
  0
ARC
  8
1
  6
CONTINUOUS
 62
     7
 10
-373.9178716406
 20
202.4663540338
 40
2.0
 50
180.0
 51
270.0
  0
LINE
  8
1
  6
CONTINUOUS
 62
     7
 10
-378.4178716406
 20
194.5426630338
 11
-391.4178716406
 21
194.5426630338
  0
LINE
  8
1
  6
CONTINUOUS
 62
     7
 10
-378.4178716406
 20
199.3849550338
 11
-391.4178716406
 21
199.3849550338
  0
LINE
  8
1
  6
CONTINUOUS
 62
     7
 10
-378.4178716406
 20
205.4140620338
 11
-391.4178716406
 21
205.4140620338
  0
LINE
  8
1
  6
CONTINUOUS
 62
     7
 10
-378.4178716406
 20
180.6303030338
 11
-391.4178716406
 21
180.6303030338
  0
LINE
  8
1
  6
CONTINUOUS
 62
     7
 10
-378.4178716406
 20
191.7328260338
 11
-391.4178716406
 21
191.7328260338
  0
LINE
  8
1
  6
CONTINUOUS
 62
     7
 10
-378.4178716406
 20
167.6832030338
 11
-391.4178716406
 21
167.6832030338
  0
LINE
  8
1
  6
CONTINUOUS
 62
     7
 10
-378.4178716406
 20
153.2989000338
 11
-391.4178716406
 21
153.2989000338
  0
LINE
  8
1
  6
CONTINUOUS
 62
     7
 10
-378.4178716406
 20
152.9357420338
 11
-391.4178716406
 21
152.9357420338
  0
LINE
  8
1
  6
CONTINUOUS
 62
     7
 10
-375.9178716406
 20
154.9663540338
 11
-375.9178716406
 21
202.9663540338
  0
LINE
  8
1
  6
CONTINUOUS
 62
     7
 10
-378.4178716406
 20
159.6486850338
 11
-391.4178716406
 21
159.6486850338
  0
LINE
  8
1
  6
CONTINUOUS
 62
     7
 10
-378.4178716406
 20
152.5186460338
 11
-391.4178716406
 21
152.5186460338
  0
LINE
  8
1
  6
CONTINUOUS
 62
     7
 10
-378.4178716406
 20
174.0007490338
 11
-391.4178716406
 21
174.0007490338
  0
LINE
  8
1
  6
CONTINUOUS
 62
     7
 10
-378.4178716406
 20
169.2110530338
 11
-391.4178716406
 21
169.2110530338
  0
LINE
  8
1
  6
CONTINUOUS
 62
     7
 10
-373.9178716406
 20
200.4663540338
 11
-371.4178716406
 21
200.4663540338
  0
CIRCLE
  8
1
  6
CONTINUOUS
 62
     7
 10
-321.2259386565
 20
178.966354032
 40
21.5
  0
CIRCLE
  8
1
  6
CONTINUOUS
 62
     7
 10
-321.2259386565
 20
178.966354032
 40
18.1
  0
LINE
  8
1
  6
CONTINUOUS
 62
     7
 10
-378.4178716406
 20
154.9884370338
 11
-391.4178716406
 21
154.9884370338
  0
LINE
  8
1
  6
CONTINUOUS
 62
     7
 10
-378.4178716406
 20
203.6054310338
 11
-391.4178716406
 21
203.6054310338
  0
TEXT
  8
1
  6
CONTINUOUS
 62
     7
 10
-337.2157701218602
 20
138.4008998272341
 40
3.5
  1
ＦＰＶＥ－２８ＹP
 41
0.996045
 51
15.0
  0
LINE
  8
0
  6
CONTINUOUS
 62
     7
 10
-424.4178716406
 20
198.766354032
 11
-422.4178716406
 21
198.766354032
  0
LINE
  8
1
  6
CONTINUOUS
 62
     7
 10
-446.4178716406
 20
158.966354032
 11
-488.4178716406
 21
158.966354032
  0
LINE
  8
1
  6
CONTINUOUS
 62
     7
 10
-424.4178716406
 20
170.4749760034
 11
-446.4178716406
 21
170.4749760034
  0
LINE
  8
1
  6
CONTINUOUS
 62
     7
 10
-424.4178716406
 20
158.466354032
 11
-446.4178716406
 21
158.466354032
  0
LINE
  8
0
  6
CONTINUOUS
 62
     7
 10
-424.4178716406
 20
199.466354032
 11
-424.4178716406
 21
158.466354032
  0
LINE
  8
0
  6
CONTINUOUS
 62
     7
 10
-424.4178716406
 20
159.166354032
 11
-422.4178716406
 21
159.166354032
  0
LINE
  8
1
  6
CONTINUOUS
 62
     7
 10
-488.4178716406
 20
198.966354032
 11
-446.4178716406
 21
198.966354032
  0
LINE
  8
1
  6
CONTINUOUS
 62
     7
 10
-446.4178716406
 20
199.466354032
 11
-424.4178716406
 21
199.466354032
  0
LINE
  8
1
  6
CONTINUOUS
 62
     7
 10
-446.4178716406
 20
158.466354032
 11
-446.4178716406
 21
199.466354032
  0
LINE
  8
1
  6
CONTINUOUS
 62
     7
 10
-424.4178716406
 20
187.4577320607
 11
-446.4178716406
 21
187.4577320607
  0
LINE
  8
1
  6
CONTINUOUS
 62
     7
 10
-488.4178716406
 20
158.966354032
 11
-488.4178716406
 21
198.966354032
  0
ENDSEC
  0
EOF
