  0
SECTION
  2
HEADER
  9
$ACADVER
  1
AC1004
  9
$INSBASE
 10
0.0
 20
0.0
  9
$EXTMIN
 10
-578.324620108
 20
24.53633290909091
  9
$EXTMAX
 10
-287.2259386565
 20
102.5568930142
  9
$LIMMIN
 10
0.0
 20
0.0
  9
$LIMMAX
 10
12.0
 20
9.0
  9
$ORTHOMODE
 70
     0
  9
$REGENMODE
 70
     1
  9
$FILLMODE
 70
     1
  9
$QTEXTMODE
 70
     0
  9
$DRAGMODE
 70
     2
  9
$LTSCALE
 40
1.0
  9
$OSMODE
 70
    37
  9
$ATTMODE
 70
     1
  9
$TEXTSIZE
 40
0.2
  9
$TRACEWID
 40
0.05
  9
$TEXTSTYLE
  7
STANDARD
  9
$CLAYER
  8
0
  9
$CELTYPE
  6
BYLAYER
  9
$CECOLOR
 62
   256
  9
$DIMSCALE
 40
1.0
  9
$DIMASZ
 40
3.0
  9
$DIMEXO
 40
0.0625
  9
$DIMDLI
 40
0.38
  9
$DIMRND
 40
0.0
  9
$DIMDLE
 40
0.0
  9
$DIMEXE
 40
1.5
  9
$DIMTP
 40
0.0
  9
$DIMTM
 40
0.0
  9
$DIMTXT
 40
3.5
  9
$DIMCEN
 40
0.09
  9
$DIMTSZ
 40
0.0
  9
$DIMTOL
 70
     0
  9
$DIMLIM
 70
     0
  9
$DIMTIH
 70
     1
  9
$DIMTOH
 70
     1
  9
$DIMSE1
 70
     0
  9
$DIMSE2
 70
     0
  9
$DIMTAD
 70
     1
  9
$DIMZIN
 70
     0
  9
$DIMBLK
  1

  9
$DIMASO
 70
     1
  9
$DIMSHO
 70
     1
  9
$DIMPOST
  1

  9
$DIMAPOST
  1

  9
$DIMALT
 70
     0
  9
$DIMALTD
 70
     2
  9
$DIMALTF
 40
25.4
  9
$DIMLFAC
 40
1.0
  9
$DIMTOFL
 70
     0
  9
$DIMTVP
 40
0.0
  9
$DIMTIX
 70
     0
  9
$DIMSOXD
 70
     0
  9
$DIMSAH
 70
     0
  9
$DIMBLK1
  1

  9
$DIMBLK2
  1

  9
$LUNITS
 70
     2
  9
$LUPREC
 70
     4
  9
$SKETCHINC
 40
0.1
  9
$FILLETRAD
 40
0.5
  9
$AUNITS
 70
     0
  9
$AUPREC
 70
     0
  9
$MENU
  1
.
  9
$ELEVATION
 40
0.0
  9
$THICKNESS
 40
0.0
  9
$LIMCHECK
 70
     0
  9
$CHAMFERA
 40
0.0
  9
$CHAMFERB
 40
0.0
  9
$SKPOLY
 70
     0
  9
$TDCREATE
 40
2460781.550854421
  9
$TDUPDATE
 40
2460781.550854537
  9
$TDINDWG
 40
0.0000000116
  9
$TDUSRTIMER
 40
0.0000000116
  9
$USRTIMER
 70
     1
  9
$ANGBASE
 50
0.0
  9
$ANGDIR
 70
     0
  9
$PDMODE
 70
     0
  9
$PDSIZE
 40
0.0
  9
$PLINEWID
 40
0.0
  9
$COORDS
 70
     1
  9
$SPLFRAME
 70
     0
  9
$SPLINETYPE
 70
     6
  9
$SPLINESEGS
 70
     8
  9
$ATTDIA
 70
     0
  9
$ATTREQ
 70
     1
  9
$SURFTAB1
 70
     6
  9
$SURFTAB2
 70
     6
  9
$SURFTYPE
 70
     6
  9
$SURFU
 70
     6
  9
$SURFV
 70
     6
  9
$UCSNAME
  2

  9
$UCSORG
 10
0.0
 20
0.0
 30
0.0
  9
$UCSXDIR
 10
1.0
 20
0.0
 30
0.0
  9
$UCSYDIR
 10
0.0
 20
1.0
 30
0.0
  9
$USERI1
 70
     0
  9
$USERI2
 70
     0
  9
$USERI3
 70
     0
  9
$USERI4
 70
     0
  9
$USERI5
 70
     0
  9
$USERR1
 40
0.0
  9
$USERR2
 40
0.0
  9
$USERR3
 40
0.0
  9
$USERR4
 40
0.0
  9
$USERR5
 40
0.0
  9
$WORLDVIEW
 70
     1
  0
ENDSEC
  0
SECTION
  2
TABLES
  0
TABLE
  2
LTYPE
 70
     2
  0
LTYPE
  2
CONTINUOUS
 70
     0
  3
Solid line
 72
    65
 73
     0
 40
0.0
  0
LTYPE
  2
CENTER
 70
     0
  3

 72
    65
 73
     0
 40
0.0
  0
ENDTAB
  0
TABLE
  2
LAYER
 70
     2
  0
LAYER
  2
0
 70
     0
 62
     7
  6
CONTINUOUS
  0
LAYER
  2
1
 70
     0
 62
     7
  6
CONTINUOUS
  0
ENDTAB
  0
TABLE
  2
STYLE
 70
     2
  0
STYLE
  2
STANDARD
 70
     0
 40
0.0
 41
1.0
 50
0.0
 71
     0
 42
0.2
  3
txt
  4

  0
STYLE
  2
ＭＳ_ゴシック
 70
     0
 40
0.0
 41
1.0
 50
0.0
 71
     0
 42
0.2
  3
ＭＳ ゴシック.shx
  4

  0
ENDTAB
  0
TABLE
  2
VIEW
 70
     0
  0
ENDTAB
  0
ENDSEC
  0
SECTION
  2
BLOCKS
  0
ENDSEC
  0
SECTION
  2
ENTITIES
  0
ARC
  8
1
  6
CONTINUOUS
 62
     7
 10
-417.7662586406
 20
41.5568930142
 40
0.5
 50
90.0
 51
165.0
  0
LINE
  8
1
  6
CONTINUOUS
 62
     7
 10
-380.9178716406
 20
98.9516993388
 11
-367.9178716406
 21
98.9516993388
  0
LINE
  8
1
  6
CENTER
 62
     7
 10
-496.4178716406
 20
68.5568930142
 11
-357.9178716406
 21
68.5568930142
  0
LINE
  8
1
  6
CONTINUOUS
 62
     7
 10
-380.9178716406
 20
40.0871957334
 11
-367.9178716406
 21
40.0871957334
  0
LINE
  8
1
  6
CONTINUOUS
 62
     7
 10
-380.9178716406
 20
99.5513859381
 11
-367.9178716406
 21
99.5513859381
  0
LINE
  8
1
  6
CONTINUOUS
 62
     7
 10
-557.6799591673
 20
93.5568930142
 11
-536.9692810487
 21
93.5568930142
  0
LINE
  8
1
  6
CONTINUOUS
 62
     7
 10
-380.9178716406
 20
96.2441091072
 11
-367.9178716406
 21
96.2441091072
  0
CIRCLE
  8
1
  6
CONTINUOUS
 62
     7
 10
-547.324620108
 20
68.5568930142
 40
18.0
  0
LINE
  8
1
  6
CONTINUOUS
 62
     7
 10
-383.4178716406
 20
39.5568930142
 11
-383.4178716406
 21
97.5568930142
  0
ARC
  8
1
  6
CONTINUOUS
 62
     7
 10
-418.8015346406
 20
95.5568930142
 40
0.5
 50
15.0
 51
90.0
  0
LINE
  8
1
  6
CONTINUOUS
 62
     7
 10
-380.9178716406
 20
98.5339391349
 11
-367.9178716406
 21
98.5339391349
  0
LINE
  8
1
  6
CENTER
 62
     7
 10
-547.324620108
 20
98.5568930142
 11
-547.324620108
 21
38.55689301420001
  0
LINE
  8
1
  6
CONTINUOUS
 62
     7
 10
-418.3185726406
 20
41.4274830142
 11
-418.2492216406
 21
41.6863030142
  0
ARC
  8
1
  6
CONTINUOUS
 62
     7
 10
-339.2181225921
 20
81.8570716709
 40
0.464176
 50
245.640558
 51
291.963786
  0
LINE
  8
1
  6
CONTINUOUS
 62
     7
 10
-380.9178716406
 20
39.1043814221
 11
-367.9178716406
 21
39.1043814221
  0
LINE
  8
1
  6
CONTINUOUS
 62
     7
 10
-344.0953634427
 20
72.9784282632
 11
-343.0751986256
 21
72.9249632328
  0
LINE
  8
1
  6
CONTINUOUS
 62
     7
 10
-380.9178716406
 20
99.2611972108
 11
-367.9178716406
 21
99.2611972108
  0
LINE
  8
1
  6
CONTINUOUS
 62
     7
 10
-380.9178716406
 20
99.3749880952
 11
-367.9178716406
 21
99.3749880952
  0
LINE
  8
1
  6
CONTINUOUS
 62
     7
 10
-522.324620108
 20
58.2015539549
 11
-536.9692810487
 21
43.5568930142
  0
ARC
  8
1
  6
CONTINUOUS
 62
     7
 10
-303.2337547208
 20
81.8570716709
 40
0.464176
 50
248.036214
 51
294.359442
  0
LINE
  8
1
  6
CONTINUOUS
 62
     7
 10
-340.3197973844
 20
81.8979995233
 11
-339.4095766367
 21
81.4342183746
  0
LINE
  8
1
  6
CONTINUOUS
 62
     7
 10
-572.324620108
 20
78.9122320735
 11
-557.6799591673
 21
93.5568930142
  0
LINE
  8
1
  6
CONTINUOUS
 62
     7
 10
-380.9178716406
 20
99.46133036
 11
-367.9178716406
 21
99.46133036
  0
ARC
  8
1
  6
CONTINUOUS
 62
     7
 10
-385.4178716406
 20
97.0568930142
 40
2.0
 50
270.0
 51
0.0
  0
LINE
  8
1
  6
CONTINUOUS
 62
     7
 10
-418.8015346406
 20
96.0568930142
 11
-422.4178716406
 21
96.0568930142
  0
CIRCLE
  8
1
  6
CONTINUOUS
 62
     7
 10
-547.324620108
 20
68.5568930142
 40
25.0
  0
CIRCLE
  8
1
  6
CONTINUOUS
 62
     7
 10
-321.2259386565
 20
68.5568930142
 40
26.0
  0
LINE
  8
1
  6
CONTINUOUS
 62
     7
 10
-522.324620108
 20
78.9122320735
 11
-522.324620108
 21
58.2015539549
  0
CIRCLE
  8
1
  6
CONTINUOUS
 62
     7
 10
-321.2259386565
 20
68.5568930142
 40
23.3
  0
LINE
  8
1
  6
CONTINUOUS
 62
     7
 10
-380.9178716406
 20
98.7562680103
 11
-367.9178716406
 21
98.7562680103
  0
LINE
  8
1
  6
CONTINUOUS
 62
     7
 10
-380.9178716406
 20
97.7076661382
 11
-367.9178716406
 21
97.7076661382
  0
LINE
  8
1
  6
CONTINUOUS
 62
     7
 10
-339.8144117717
 20
54.5201828849
 11
-339.0920560083
 21
55.2425380016
  0
ARC
  8
1
  6
CONTINUOUS
 62
     7
 10
-343.7909973998
 20
74.0969535054
 40
1.472904
 50
315.6032
 51
347.57288
  0
LINE
  8
1
  6
CONTINUOUS
 62
     7
 10
-557.6799591673
 20
43.5568930142
 11
-572.324620108
 21
58.2015539549
  0
LINE
  8
1
  6
CONTINUOUS
 62
     7
 10
-380.9178716406
 20
98.0094046064
 11
-367.9178716406
 21
98.0094046064
  0
LINE
  8
1
  6
CONTINUOUS
 62
     7
 10
-380.9178716406
 20
99.5568930142
 11
-380.9178716406
 21
37.5568930142
  0
LINE
  8
1
  6
CONTINUOUS
 62
     7
 10
-342.6763227717
 20
59.4771581436
 11
-341.6895670083
 21
59.7415590269
  0
LINE
  8
1
  6
CONTINUOUS
 62
     7
 10
-572.324620108
 20
58.2015539549
 11
-572.324620108
 21
78.9122320735
  0
LINE
  8
1
  6
CONTINUOUS
 62
     7
 10
-380.9178716406
 20
77.6721430964
 11
-367.9178716406
 21
77.6721430964
  0
LINE
  8
1
  6
CONTINUOUS
 62
     7
 10
-380.9178716406
 20
97.0265902951
 11
-367.9178716406
 21
97.0265902951
  0
LINE
  8
1
  6
CONTINUOUS
 62
     7
 10
-380.9178716406
 20
96.6478595311
 11
-367.9178716406
 21
96.6478595311
  0
LINE
  8
1
  6
CONTINUOUS
 62
     7
 10
-318.3640276565
 20
91.6733380142
 11
-318.6284276565
 21
90.6865820142
  0
ARC
  8
1
  6
CONTINUOUS
 62
     7
 10
-417.7662586406
 20
95.5568930142
 40
0.5
 50
195.0
 51
270.0
  0
LINE
  8
1
  6
CONTINUOUS
 62
     7
 10
-380.9178716406
 20
97.3799640768
 11
-367.9178716406
 21
97.3799640768
  0
ARC
  8
1
  6
CONTINUOUS
 62
     7
 10
-385.4178716406
 20
40.0568930142
 40
2.0
 50
0.0
 51
90.0
  0
LINE
  8
1
  6
CENTER
 62
     7
 10
-517.324620108
 20
68.5568930142
 11
-577.324620108
 21
68.5568930142
  0
LINE
  8
1
  6
CONTINUOUS
 62
     7
 10
-380.9178716406
 20
99.5201471029
 11
-367.9178716406
 21
99.5201471029
  0
LINE
  8
1
  6
CONTINUOUS
 62
     7
 10
-418.2492216406
 20
95.4274830142
 11
-418.3185726406
 21
95.6863030142
  0
LINE
  8
1
  6
CONTINUOUS
 62
     7
 10
-536.9692810487
 20
93.5568930142
 11
-522.324620108
 21
78.9122320735
  0
CIRCLE
  8
1
  6
CONTINUOUS
 62
     7
 10
-547.324620108
 20
68.5568930142
 40
20.725
  0
ARC
  8
1
  6
CONTINUOUS
 62
     7
 10
-381.4178716406
 20
97.5568930142
 40
2.0
 50
90.0
 51
180.0
  0
LINE
  8
1
  6
CONTINUOUS
 62
     7
 10
-380.9178716406
 20
99.1200590564
 11
-367.9178716406
 21
99.1200590564
  0
LINE
  8
1
  6
CONTINUOUS
 62
     7
 10
-380.9178716406
 20
98.2849107332
 11
-367.9178716406
 21
98.2849107332
  0
ARC
  8
1
  6
CONTINUOUS
 62
     7
 10
-418.8015346406
 20
41.5568930142
 40
0.5
 50
270.0
 51
345.0
  0
ARC
  8
1
  6
CONTINUOUS
 62
     7
 10
-381.4178716406
 20
39.5568930142
 40
2.0
 50
180.0
 51
270.0
  0
CIRCLE
  8
1
  6
CONTINUOUS
 62
     7
 10
-547.324620108
 20
68.5568930142
 40
31.0
  0
LINE
  8
1
  6
CONTINUOUS
 62
     7
 10
-417.7662586406
 20
42.0568930142
 11
-385.4178716406
 21
42.0568930142
  0
ARC
  8
1
  6
CONTINUOUS
 62
     7
 10
-319.0707766565
 20
90.8272480142
 40
0.464176
 50
296.036214
 51
342.359442
  0
LINE
  8
1
  6
CONTINUOUS
 62
     7
 10
-422.4178716406
 20
41.0568930142
 11
-418.8015346406
 21
41.0568930142
  0
ARC
  8
1
  6
CONTINUOUS
 62
     7
 10
-319.5218626565
 20
91.7295120142
 40
1.472904
 50
264.42712
 51
296.3967999999999
  0
LINE
  8
1
  6
CONTINUOUS
 62
     7
 10
-536.9692810487
 20
43.5568930142
 11
-557.6799591673
 21
43.5568930142
  0
LINE
  8
1
  6
CONTINUOUS
 62
     7
 10
-385.4178716406
 20
95.0568930142
 11
-417.7662586406
 21
95.0568930142
  0
ARC
  8
1
  6
CONTINUOUS
 62
     7
 10
-344.0934911794
 20
64.4399538669
 40
1.472904
 50
339.6032
 51
11.57288
  0
LINE
  8
1
  6
CONTINUOUS
 62
     7
 10
-309.2091476231
 20
88.5107722679
 11
-309.8520388651
 21
87.7168669747
  0
ARC
  8
1
  6
CONTINUOUS
 62
     7
 10
-321.2259386565
 20
68.5568930142
 40
21.762736
 50
37.886645
 51
46.11335499999999
  0
LINE
  8
1
  6
CONTINUOUS
 62
     7
 10
-342.3266051719
 20
78.4221064744
 11
-341.4698485415
 21
77.8657227582
  0
LINE
  8
1
  6
CONTINUOUS
 62
     7
 10
-343.9165981932
 20
63.2943333901
 11
-342.9628850715
 21
63.6604290675
  0
ARC
  8
1
  6
CONTINUOUS
 62
     7
 10
-321.2259386565
 20
68.5568930142
 40
21.762736
 50
133.886645
 51
142.113355
  0
LINE
  8
1
  6
CONTINUOUS
 62
     7
 10
-344.5149005109
 20
68.9867996943
 11
-343.5059127378
 21
68.8269921934
  0
ARC
  8
1
  6
CONTINUOUS
 62
     7
 10
-343.5995700936
 20
68.3723628267
 40
0.464176
 50
32.036214
 51
78.359442
  0
ARC
  8
1
  6
CONTINUOUS
 62
     7
 10
-322.9300146565
 20
91.7295120142
 40
1.472904
 50
243.6032
 51
275.57288
  0
LINE
  8
1
  6
CONTINUOUS
 62
     7
 10
-302.1320799285
 20
81.8979995233
 11
-303.0423006763
 21
81.4342183746
  0
CIRCLE
  8
1
  6
CONTINUOUS
 62
     7
 10
-321.2259386565
 20
68.5568930142
 40
31.0
  0
ARC
  8
1
  6
CONTINUOUS
 62
     7
 10
-310.1989307681
 20
88.0252913074
 40
0.464176
 50
272.036214
 51
318.359442
  0
LINE
  8
1
  6
CENTER
 62
     7
 10
-355.2259386565
 20
68.5568930142
 11
-287.2259386565
 21
68.5568930142
  0
ARC
  8
1
  6
CONTINUOUS
 62
     7
 10
-323.3811006565
 20
90.8272480142
 40
0.464176
 50
197.640558
 51
243.9637860000001
  0
ARC
  8
1
  6
CONTINUOUS
 62
     7
 10
-340.4419773827
 20
55.4948104083
 40
1.472904
 50
3.603199999999999
 51
35.57288
  0
ARC
  8
1
  6
CONTINUOUS
 62
     7
 10
-333.467835918
 20
48.8082196975
 40
1.472904
 50
27.6032
 51
59.57288
  0
LINE
  8
1
  6
CENTER
 62
     7
 10
-321.2259386565
 20
34.5568930142
 11
-321.2259386565
 21
102.5568930142
  0
ARC
  8
1
  6
CONTINUOUS
 62
     7
 10
-298.6608799132
 20
74.0969535054
 40
1.472904
 50
192.42712
 51
224.3968
  0
ARC
  8
1
  6
CONTINUOUS
 62
     7
 10
-321.2259386565
 20
68.5568930142
 40
21.762736
 50
181.886645
 51
190.113355
  0
ARC
  8
1
  6
CONTINUOUS
 62
     7
 10
-299.3795907299
 20
73.3891303162
 40
0.464176
 50
224.036214
 51
270.359442
  0
ARC
  8
1
  6
CONTINUOUS
 62
     7
 10
-336.0596875724
 20
51.8065697884
 40
0.464176
 50
80.036214
 51
126.359442
  0
ARC
  8
1
  6
CONTINUOUS
 62
     7
 10
-310.2440345039
 20
89.0330236916
 40
1.472904
 50
240.42712
 51
272.3967999999999
  0
ARC
  8
1
  6
CONTINUOUS
 62
     7
 10
-336.2250888054
 20
50.8114811807
 40
1.472904
 50
48.42712
 51
80.3968
  0
ARC
  8
1
  6
CONTINUOUS
 62
     7
 10
-342.7378205124
 20
77.3382986735
 40
1.472904
 50
336.42712
 51
8.396799999999985
  0
CIRCLE
  8
1
  6
CONTINUOUS
 62
     7
 10
-321.2259386565
 20
68.5568930142
 40
17.75
  0
LINE
  8
1
  6
CONTINUOUS
 62
     7
 10
-336.4898128989
 20
86.1516282246
 11
-335.9334284158
 21
85.2948720921
  0
ARC
  8
1
  6
CONTINUOUS
 62
     7
 10
-321.2259386565
 20
68.5568930142
 40
21.762736
 50
61.88664499999998
 51
70.113355
  0
ARC
  8
1
  6
CONTINUOUS
 62
     7
 10
-313.3575362824
 20
90.4192439952
 40
1.472904
 50
219.6032
 51
251.57288
  0
ARC
  8
1
  6
CONTINUOUS
 62
     7
 10
-344.4497400706
 20
67.8294356537
 40
1.472904
 50
0.4271200000000001
 51
32.39679999999999
  0
LINE
  8
1
  6
CONTINUOUS
 62
     7
 10
-328.0137581014
 20
90.8388604138
 11
-327.8539496974
 21
89.8298727837
  0
ARC
  8
1
  6
CONTINUOUS
 62
     7
 10
-329.0943410305
 20
90.4192439952
 40
1.472904
 50
288.42712
 51
320.3968
  0
ARC
  8
1
  6
CONTINUOUS
 62
     7
 10
-342.1460533827
 20
58.4463566202
 40
1.472904
 50
24.42712
 51
56.39679999999999
  0
ARC
  8
1
  6
CONTINUOUS
 62
     7
 10
-302.8650773467
 20
82.796026355
 40
1.472904
 50
216.42712
 51
248.3968
  0
ARC
  8
1
  6
CONTINUOUS
 62
     7
 10
-332.2078428091
 20
89.0330236916
 40
1.472904
 50
267.6032
 51
299.57288
  0
ARC
  8
1
  6
CONTINUOUS
 62
     7
 10
-321.2259386565
 20
68.5568930142
 40
21.762736
 50
85.886645
 51
94.113355
  0
LINE
  8
1
  6
CONTINUOUS
 62
     7
 10
-337.1287787483
 20
51.5374852389
 11
-336.3348740306
 21
52.1803771915
  0
ARC
  8
1
  6
CONTINUOUS
 62
     7
 10
-321.2259386565
 20
68.5568930142
 40
21.762736
 50
13.886645
 51
22.113355
  0
ARC
  8
1
  6
CONTINUOUS
 62
     7
 10
-306.1179244326
 20
85.0602666476
 40
0.464176
 50
149.640558
 51
195.963786
  0
LINE
  8
1
  6
CONTINUOUS
 62
     7
 10
-300.1252721411
 20
78.4221064744
 11
-300.9820287715
 21
77.8657227582
  0
ARC
  8
1
  6
CONTINUOUS
 62
     7
 10
-314.1366076793
 20
89.7784580218
 40
0.464176
 50
173.640558
 51
219.9637860000001
  0
ARC
  8
1
  6
CONTINUOUS
 62
     7
 10
-321.2259386565
 20
68.5568930142
 40
21.762736
 50
205.886645
 51
214.113355
  0
ARC
  8
1
  6
CONTINUOUS
 62
     7
 10
-321.2259386565
 20
68.5568930142
 40
21.762736
 50
229.886645
 51
238.113355
  0
ARC
  8
1
  6
CONTINUOUS
 62
     7
 10
-339.4350508378
 20
55.555290473
 40
0.464176
 50
317.640558
 51
3.963786000000028
  0
LINE
  8
1
  6
CONTINUOUS
 62
     7
 10
-333.2427296899
 20
88.5107722679
 11
-332.5998384479
 21
87.7168669747
  0
ARC
  8
1
  6
CONTINUOUS
 62
     7
 10
-332.2529465449
 20
88.0252913074
 40
0.464176
 50
221.6405580000001
 51
267.963786
  0
ARC
  8
1
  6
CONTINUOUS
 62
     7
 10
-321.2259386565
 20
68.5568930142
 40
21.762736
 50
157.886645
 51
166.113355
  0
ARC
  8
1
  6
CONTINUOUS
 62
     7
 10
-341.5902128378
 20
59.2881405555
 40
0.464176
 50
56.036214
 51
102.359442
  0
ARC
  8
1
  6
CONTINUOUS
 62
     7
 10
-337.3063011519
 20
85.3287768783
 40
1.472904
 50
312.42712
 51
344.3968
  0
LINE
  8
1
  6
CONTINUOUS
 62
     7
 10
-332.4981094775
 20
48.1731070805
 11
-332.1320129464
 21
49.1268198745
  0
ARC
  8
1
  6
CONTINUOUS
 62
     7
 10
-336.3339528804
 20
85.0602666476
 40
0.464176
 50
344.036214
 51
30.359442
  0
ARC
  8
1
  6
CONTINUOUS
 62
     7
 10
-341.7403232158
 20
77.4884920438
 40
0.464176
 50
8.036213999999998
 51
54.359442
  0
ARC
  8
1
  6
CONTINUOUS
 62
     7
 10
-332.5725622052
 20
49.2730249086
 40
0.464176
 50
341.640558
 51
27.96378600000002
  0
ARC
  8
1
  6
CONTINUOUS
 62
     7
 10
-321.2259386565
 20
68.5568930142
 40
21.762736
 50
109.886645
 51
118.113355
  0
LINE
  8
1
  6
CONTINUOUS
 62
     7
 10
-305.9620644141
 20
86.1516282246
 11
-306.5184488972
 21
85.2948720921
  0
ARC
  8
1
  6
CONTINUOUS
 62
     7
 10
-328.3152696337
 20
89.7784580218
 40
0.464176
 50
320.036214
 51
6.359442000000001
  0
LINE
  8
1
  6
CONTINUOUS
 62
     7
 10
-324.0878496565
 20
91.6733380142
 11
-323.8234496565
 21
90.6865820142
  0
ARC
  8
1
  6
CONTINUOUS
 62
     7
 10
-343.1490185497
 20
64.0856512326
 40
0.464176
 50
293.6405580000001
 51
339.963786
  0
LINE
  8
1
  6
CONTINUOUS
 62
     7
 10
-314.4381192116
 20
90.8388604138
 11
-314.5979276155
 21
89.8298727837
  0
ARC
  8
1
  6
CONTINUOUS
 62
     7
 10
-305.145576161
 20
85.3287768783
 40
1.472904
 50
195.6032
 51
227.57288
  0
ARC
  8
1
  6
CONTINUOUS
 62
     7
 10
-339.5867999663
 20
82.796026355
 40
1.472904
 50
291.6032
 51
323.5728799999999
  0
ARC
  8
1
  6
CONTINUOUS
 62
     7
 10
-343.0722865831
 20
73.3891303162
 40
0.464176
 50
269.640558
 51
315.963786
  0
LINE
  8
1
  6
CONTINUOUS
 62
     7
 10
-298.3565138703
 20
72.9784282632
 11
-299.3766786874
 21
72.9249632328
  0
TEXT
  8
1
  6
CONTINUOUS
 62
     7
 10
-337.2157701218602
 20
24.24143882723407
 40
3.5
  1
ＦＰＶＥ－３６ＹP
 41
0.996045
 51
15.0
  0
CIRCLE
  8
0
  6
CONTINUOUS
 62
     7
 10
-547.324620108
 20
68.5568930142
 40
28.5
  0
LINE
  8
1
  6
CONTINUOUS
 62
     7
 10
-297.9369768021
 20
68.9867996943
 11
-298.9459645751
 21
68.8269921934
  0
LINE
  8
1
  6
CONTINUOUS
 62
     7
 10
-309.9537678354
 20
48.1731070805
 11
-310.3198643665
 21
49.1268198745
  0
LINE
  8
1
  6
CONTINUOUS
 62
     7
 10
-380.9178716406
 20
54.309917335
 11
-367.9178716406
 21
54.309917335
  0
LINE
  8
1
  6
CONTINUOUS
 62
     7
 10
-298.5352791198
 20
63.2943333901
 11
-299.4889922415
 21
63.6604290675
  0
ARC
  8
1
  6
CONTINUOUS
 62
     7
 10
-309.8793151078
 20
49.2730249086
 40
0.464176
 50
152.036214
 51
198.359442
  0
LINE
  8
1
  6
CONTINUOUS
 62
     7
 10
-380.9178716406
 20
56.8288019033
 11
-367.9178716406
 21
56.8288019033
  0
LINE
  8
1
  6
CONTINUOUS
 62
     7
 10
-302.6374655413
 20
54.5201828849
 11
-303.3598213046
 21
55.2425380016
  0
ARC
  8
1
  6
CONTINUOUS
 62
     7
 10
-298.0021372424
 20
67.8294356537
 40
1.472904
 50
147.6032
 51
179.5728800000001
  0
LINE
  8
1
  6
CONTINUOUS
 62
     7
 10
-380.9178716406
 20
61.2254241065
 11
-367.9178716406
 21
61.2254241065
  0
ARC
  8
1
  6
CONTINUOUS
 62
     7
 10
-314.4876049538
 20
47.2212820789
 40
0.464176
 50
29.640558
 51
75.963786
  0
ARC
  8
1
  6
CONTINUOUS
 62
     7
 10
-299.3028587633
 20
64.0856512326
 40
0.464176
 50
200.036214
 51
246.359442
  0
ARC
  8
1
  6
CONTINUOUS
 62
     7
 10
-327.9642723591
 20
47.2212820789
 40
0.464176
 50
104.036214
 51
150.359442
  0
LINE
  8
1
  6
CONTINUOUS
 62
     7
 10
-380.9178716406
 20
63.9480475634
 11
-367.9178716406
 21
63.9480475634
  0
ARC
  8
1
  6
CONTINUOUS
 62
     7
 10
-321.2259386565
 20
68.5568930142
 40
21.762736
 50
349.8866449999999
 51
358.113355
  0
LINE
  8
1
  6
CONTINUOUS
 62
     7
 10
-380.9178716406
 20
55.9777205266
 11
-367.9178716406
 21
55.9777205266
  0
ARC
  8
1
  6
CONTINUOUS
 62
     7
 10
-302.0098999303
 20
55.4948104083
 40
1.472904
 50
144.42712
 51
176.3968
  0
LINE
  8
1
  6
CONTINUOUS
 62
     7
 10
-380.9178716406
 20
60.3298697556
 11
-367.9178716406
 21
60.3298697556
  0
LINE
  8
1
  6
CONTINUOUS
 62
     7
 10
-380.9178716406
 20
58.5615347489
 11
-367.9178716406
 21
58.5615347489
  0
LINE
  8
1
  6
CONTINUOUS
 62
     7
 10
-380.9178716406
 20
52.6928600107
 11
-367.9178716406
 21
52.6928600107
  0
ARC
  8
1
  6
CONTINUOUS
 62
     7
 10
-324.3769592026
 20
45.5363540142
 40
1.472904
 50
51.60319999999999
 51
83.57288
  0
ARC
  8
1
  6
CONTINUOUS
 62
     7
 10
-327.7106349043
 20
46.2449486591
 40
1.472904
 50
72.42712
 51
104.3968
  0
ARC
  8
1
  6
CONTINUOUS
 62
     7
 10
-303.0168264752
 20
55.555290473
 40
0.464176
 50
176.036214
 51
222.359442
  0
ARC
  8
1
  6
CONTINUOUS
 62
     7
 10
-318.0749181104
 20
45.5363540142
 40
1.472904
 50
96.42712000000002
 51
128.3968
  0
LINE
  8
1
  6
CONTINUOUS
 62
     7
 10
-380.9178716406
 20
65.7850028875
 11
-367.9178716406
 21
65.7850028875
  0
LINE
  8
1
  6
CONTINUOUS
 62
     7
 10
-380.9178716406
 20
51.905168596
 11
-367.9178716406
 21
51.905168596
  0
LINE
  8
1
  6
CONTINUOUS
 62
     7
 10
-380.9178716406
 20
51.1323083008
 11
-367.9178716406
 21
51.1323083008
  0
ARC
  8
1
  6
CONTINUOUS
 62
     7
 10
-321.2259386565
 20
68.5568930142
 40
21.762736
 50
277.886645
 51
286.113355
  0
ARC
  8
1
  6
CONTINUOUS
 62
     7
 10
-306.2267885076
 20
50.8114811807
 40
1.472904
 50
99.6032
 51
131.57288
  0
LINE
  8
1
  6
CONTINUOUS
 62
     7
 10
-380.9178716406
 20
64.8648810513
 11
-367.9178716406
 21
64.8648810513
  0
ARC
  8
1
  6
CONTINUOUS
 62
     7
 10
-299.7140568006
 20
77.3382986735
 40
1.472904
 50
171.6032
 51
203.5728799999999
  0
ARC
  8
1
  6
CONTINUOUS
 62
     7
 10
-298.3583861335
 20
64.4399538669
 40
1.472904
 50
168.42712
 51
200.3968
  0
LINE
  8
1
  6
CONTINUOUS
 62
     7
 10
-299.7755545413
 20
59.4771581436
 11
-300.7623103046
 21
59.7415590269
  0
LINE
  8
1
  6
CONTINUOUS
 62
     7
 10
-380.9178716406
 20
67.6318313223
 11
-367.9178716406
 21
67.6318313223
  0
LINE
  8
1
  6
CONTINUOUS
 62
     7
 10
-380.9178716406
 20
63.0353190161
 11
-367.9178716406
 21
63.0353190161
  0
ARC
  8
1
  6
CONTINUOUS
 62
     7
 10
-321.2259386565
 20
68.5568930142
 40
21.762736
 50
253.886645
 51
262.113355
  0
ARC
  8
1
  6
CONTINUOUS
 62
     7
 10
-323.7481392802
 20
46.3251153281
 40
0.464176
 50
5.640558
 51
51.963786
  0
LINE
  8
1
  6
CONTINUOUS
 62
     7
 10
-380.9178716406
 20
37.6524556685
 11
-367.9178716406
 21
37.6524556685
  0
LINE
  8
1
  6
CONTINUOUS
 62
     7
 10
-380.9178716406
 20
74.9862776834
 11
-367.9178716406
 21
74.9862776834
  0
LINE
  8
1
  6
CONTINUOUS
 62
     7
 10
-380.9178716406
 20
40.4659264974
 11
-367.9178716406
 21
40.4659264974
  0
LINE
  8
1
  6
CONTINUOUS
 62
     7
 10
-380.9178716406
 20
92.1610735222
 11
-367.9178716406
 21
92.1610735222
  0
LINE
  8
1
  6
CONTINUOUS
 62
     7
 10
-380.9178716406
 20
82.8038686935
 11
-367.9178716406
 21
82.8038686935
  0
LINE
  8
1
  6
CONTINUOUS
 62
     7
 10
-380.9178716406
 20
37.9937269721
 11
-367.9178716406
 21
37.9937269721
  0
LINE
  8
1
  6
CONTINUOUS
 62
     7
 10
-380.9178716406
 20
83.6191050533
 11
-367.9178716406
 21
83.6191050533
  0
LINE
  8
1
  6
CONTINUOUS
 62
     7
 10
-380.9178716406
 20
88.9110514426
 11
-367.9178716406
 21
88.9110514426
  0
LINE
  8
1
  6
CONTINUOUS
 62
     7
 10
-380.9178716406
 20
93.3178495812
 11
-367.9178716406
 21
93.3178495812
  0
LINE
  8
1
  6
CONTINUOUS
 62
     7
 10
-380.9178716406
 20
92.7502356417
 11
-367.9178716406
 21
92.7502356417
  0
LINE
  8
1
  6
CONTINUOUS
 62
     7
 10
-380.9178716406
 20
42.7273556828
 11
-367.9178716406
 21
42.7273556828
  0
LINE
  8
1
  6
CONTINUOUS
 62
     7
 10
-380.9178716406
 20
39.4061198903
 11
-367.9178716406
 21
39.4061198903
  0
ARC
  8
1
  6
CONTINUOUS
 62
     7
 10
-318.7037380328
 20
46.3251153281
 40
0.464176
 50
128.036214
 51
174.359442
  0
LINE
  8
1
  6
CONTINUOUS
 62
     7
 10
-380.9178716406
 20
81.1360655019
 11
-367.9178716406
 21
81.1360655019
  0
LINE
  8
1
  6
CONTINUOUS
 62
     7
 10
-380.9178716406
 20
86.7388185432
 11
-367.9178716406
 21
86.7388185432
  0
ARC
  8
1
  6
CONTINUOUS
 62
     7
 10
-306.3921897405
 20
51.8065697884
 40
0.464176
 50
53.64055800000001
 51
99.96378600000001
  0
LINE
  8
1
  6
CONTINUOUS
 62
     7
 10
-380.9178716406
 20
38.8288752953
 11
-367.9178716406
 21
38.8288752953
  0
LINE
  8
1
  6
CONTINUOUS
 62
     7
 10
-380.9178716406
 20
94.3864303457
 11
-367.9178716406
 21
94.3864303457
  0
LINE
  8
1
  6
CONTINUOUS
 62
     7
 10
-380.9178716406
 20
37.7387979332
 11
-367.9178716406
 21
37.7387979332
  0
LINE
  8
1
  6
CONTINUOUS
 62
     7
 10
-380.9178716406
 20
38.3575180182
 11
-367.9178716406
 21
38.3575180182
  0
LINE
  8
1
  6
CONTINUOUS
 62
     7
 10
-380.9178716406
 20
84.4209260178
 11
-367.9178716406
 21
84.4209260178
  0
LINE
  8
1
  6
CONTINUOUS
 62
     7
 10
-380.9178716406
 20
70.4061924773
 11
-367.9178716406
 21
70.4061924773
  0
LINE
  8
1
  6
CONTINUOUS
 62
     7
 10
-380.9178716406
 20
94.8864454224
 11
-367.9178716406
 21
94.8864454224
  0
LINE
  8
1
  6
CONTINUOUS
 62
     7
 10
-380.9178716406
 20
95.8156986302
 11
-367.9178716406
 21
95.8156986302
  0
LINE
  8
1
  6
CONTINUOUS
 62
     7
 10
-380.9178716406
 20
85.9814777277
 11
-367.9178716406
 21
85.9814777277
  0
LINE
  8
1
  6
CONTINUOUS
 62
     7
 10
-380.9178716406
 20
41.7507763581
 11
-367.9178716406
 21
41.7507763581
  0
LINE
  8
1
  6
CONTINUOUS
 62
     7
 10
-380.9178716406
 20
37.5936389256
 11
-367.9178716406
 21
37.5936389256
  0
LINE
  8
1
  6
CONTINUOUS
 62
     7
 10
-380.9178716406
 20
38.5798468936
 11
-367.9178716406
 21
38.5798468936
  0
LINE
  8
1
  6
CONTINUOUS
 62
     7
 10
-380.9178716406
 20
90.2696386885
 11
-367.9178716406
 21
90.2696386885
  0
LINE
  8
1
  6
CONTINUOUS
 62
     7
 10
-380.9178716406
 20
75.888361922
 11
-367.9178716406
 21
75.888361922
  0
ARC
  8
1
  6
CONTINUOUS
 62
     7
 10
-314.7412424087
 20
46.2449486591
 40
1.472904
 50
75.6032
 51
107.57288
  0
LINE
  8
1
  6
CONTINUOUS
 62
     7
 10
-380.9178716406
 20
42.2273406061
 11
-367.9178716406
 21
42.2273406061
  0
LINE
  8
1
  6
CONTINUOUS
 62
     7
 10
-380.9178716406
 20
40.8696769213
 11
-367.9178716406
 21
40.8696769213
  0
LINE
  8
1
  6
CONTINUOUS
 62
     7
 10
-323.232746444
 20
45.350573045
 11
-323.2862105612
 21
46.37073791
  0
LINE
  8
1
  6
CONTINUOUS
 62
     7
 10
-380.9178716406
 20
44.3635503868
 11
-367.9178716406
 21
44.3635503868
  0
LINE
  8
1
  6
CONTINUOUS
 62
     7
 10
-380.9178716406
 20
43.7959364473
 11
-367.9178716406
 21
43.7959364473
  0
LINE
  8
1
  6
CONTINUOUS
 62
     7
 10
-380.9178716406
 20
46.84414734
 11
-367.9178716406
 21
46.84414734
  0
LINE
  8
1
  6
CONTINUOUS
 62
     7
 10
-380.9178716406
 20
80.2849841252
 11
-367.9178716406
 21
80.2849841252
  0
LINE
  8
1
  6
CONTINUOUS
 62
     7
 10
-380.9178716406
 20
88.204258009
 11
-367.9178716406
 21
88.204258009
  0
LINE
  8
1
  6
CONTINUOUS
 62
     7
 10
-380.9178716406
 20
38.1620866897
 11
-367.9178716406
 21
38.1620866897
  0
LINE
  8
1
  6
CONTINUOUS
 62
     7
 10
-380.9178716406
 20
79.4234569402
 11
-367.9178716406
 21
79.4234569402
  0
LINE
  8
1
  6
CONTINUOUS
 62
     7
 10
-380.9178716406
 20
46.1935635746
 11
-367.9178716406
 21
46.1935635746
  0
LINE
  8
1
  6
CONTINUOUS
 62
     7
 10
-380.9178716406
 20
76.7839162729
 11
-367.9178716406
 21
76.7839162729
  0
LINE
  8
1
  6
CONTINUOUS
 62
     7
 10
-380.9178716406
 20
93.8634097865
 11
-367.9178716406
 21
93.8634097865
  0
LINE
  8
1
  6
CONTINUOUS
 62
     7
 10
-380.9178716406
 20
87.4799653417
 11
-367.9178716406
 21
87.4799653417
  0
LINE
  8
1
  6
CONTINUOUS
 62
     7
 10
-380.9178716406
 20
85.2086174325
 11
-367.9178716406
 21
85.2086174325
  0
LINE
  8
1
  6
CONTINUOUS
 62
     7
 10
-380.9178716406
 20
81.9759430414
 11
-367.9178716406
 21
81.9759430414
  0
LINE
  8
1
  6
CONTINUOUS
 62
     7
 10
-380.9178716406
 20
41.2980873983
 11
-367.9178716406
 21
41.2980873983
  0
LINE
  8
1
  6
CONTINUOUS
 62
     7
 10
-380.9178716406
 20
43.250376242
 11
-367.9178716406
 21
43.250376242
  0
LINE
  8
1
  6
CONTINUOUS
 62
     7
 10
-380.9178716406
 20
69.4819547061
 11
-367.9178716406
 21
69.4819547061
  0
LINE
  8
1
  6
CONTINUOUS
 62
     7
 10
-380.9178716406
 20
95.3630096704
 11
-367.9178716406
 21
95.3630096704
  0
LINE
  8
1
  6
CONTINUOUS
 62
     7
 10
-380.9178716406
 20
89.5997161258
 11
-367.9178716406
 21
89.5997161258
  0
LINE
  8
1
  6
CONTINUOUS
 62
     7
 10
-380.9178716406
 20
37.5624000904
 11
-367.9178716406
 21
37.5624000904
  0
LINE
  8
1
  6
CONTINUOUS
 62
     7
 10
-380.9178716406
 20
78.5522512796
 11
-367.9178716406
 21
78.5522512796
  0
LINE
  8
1
  6
CONTINUOUS
 62
     7
 10
-380.9178716406
 20
71.328783141
 11
-367.9178716406
 21
71.328783141
  0
LINE
  8
1
  6
CONTINUOUS
 62
     7
 10
-380.9178716406
 20
72.2489049772
 11
-367.9178716406
 21
72.2489049772
  0
LINE
  8
1
  6
CONTINUOUS
 62
     7
 10
-380.9178716406
 20
44.9527125063
 11
-367.9178716406
 21
44.9527125063
  0
LINE
  8
1
  6
CONTINUOUS
 62
     7
 10
-380.9178716406
 20
91.5508879691
 11
-367.9178716406
 21
91.5508879691
  0
ARC
  8
1
  6
CONTINUOUS
 62
     7
 10
-300.7115540972
 20
77.4884920438
 40
0.464176
 50
125.640558
 51
171.963786
  0
LINE
  8
1
  6
CONTINUOUS
 62
     7
 10
-380.9178716406
 20
73.1657384651
 11
-367.9178716406
 21
73.1657384651
  0
LINE
  8
1
  6
CONTINUOUS
 62
     7
 10
-380.9178716406
 20
45.5628980593
 11
-367.9178716406
 21
45.5628980593
  0
LINE
  8
1
  6
CONTINUOUS
 62
     7
 10
-380.9178716406
 20
90.9202224539
 11
-367.9178716406
 21
90.9202224539
  0
LINE
  8
1
  6
CONTINUOUS
 62
     7
 10
-380.9178716406
 20
37.8525888177
 11
-367.9178716406
 21
37.8525888177
  0
LINE
  8
1
  6
CONTINUOUS
 62
     7
 10
-380.9178716406
 20
74.0784670124
 11
-367.9178716406
 21
74.0784670124
  0
LINE
  8
1
  6
CONTINUOUS
 62
     7
 10
-380.9178716406
 20
39.7338219517
 11
-367.9178716406
 21
39.7338219517
  0
LINE
  8
1
  6
CONTINUOUS
 62
     7
 10
-328.8314892003
 20
46.540622555
 11
-328.3677088663
 21
47.4508437178
  0
LINE
  8
1
  6
CONTINUOUS
 62
     7
 10
-380.9178716406
 20
48.9095280195
 11
-367.9178716406
 21
48.9095280195
  0
LINE
  8
1
  6
CONTINUOUS
 62
     7
 10
-319.219130869
 20
45.350573045
 11
-319.1656667518
 21
46.37073791
  0
LINE
  8
1
  6
CONTINUOUS
 62
     7
 10
-380.9178716406
 20
53.4946809752
 11
-367.9178716406
 21
53.4946809752
  0
LINE
  8
1
  6
CONTINUOUS
 62
     7
 10
-313.6203881127
 20
46.540622555
 11
-314.0841684467
 21
47.4508437178
  0
LINE
  8
1
  6
CONTINUOUS
 62
     7
 10
-380.9178716406
 20
59.441642932
 11
-367.9178716406
 21
59.441642932
  0
LINE
  8
1
  6
CONTINUOUS
 62
     7
 10
-380.9178716406
 20
62.1275083451
 11
-367.9178716406
 21
62.1275083451
  0
LINE
  8
1
  6
CONTINUOUS
 62
     7
 10
-380.9178716406
 20
49.6338206868
 11
-367.9178716406
 21
49.6338206868
  0
LINE
  8
1
  6
CONTINUOUS
 62
     7
 10
-380.9178716406
 20
55.1378429871
 11
-367.9178716406
 21
55.1378429871
  0
LINE
  8
1
  6
CONTINUOUS
 62
     7
 10
-380.9178716406
 20
66.7075935512
 11
-367.9178716406
 21
66.7075935512
  0
ARC
  8
1
  6
CONTINUOUS
 62
     7
 10
-300.3058239303
 20
58.4463566202
 40
1.472904
 50
123.6032
 51
155.57288
  0
LINE
  8
1
  6
CONTINUOUS
 62
     7
 10
-367.9178716406
 20
99.5568930142
 11
-367.9178716406
 21
37.5568930142
  0
LINE
  8
1
  6
CONTINUOUS
 62
     7
 10
-380.9178716406
 20
48.2027345859
 11
-367.9178716406
 21
48.2027345859
  0
LINE
  8
1
  6
CONTINUOUS
 62
     7
 10
-380.9178716406
 20
47.5140699027
 11
-367.9178716406
 21
47.5140699027
  0
ARC
  8
1
  6
CONTINUOUS
 62
     7
 10
-321.2259386565
 20
68.5568930142
 40
21.762736
 50
301.886645
 51
310.113355
  0
LINE
  8
1
  6
CONTINUOUS
 62
     7
 10
-380.9178716406
 20
57.6903290883
 11
-367.9178716406
 21
57.6903290883
  0
ARC
  8
1
  6
CONTINUOUS
 62
     7
 10
-298.8523072194
 20
68.3723628267
 40
0.464176
 50
101.640558
 51
147.963786
  0
LINE
  8
1
  6
CONTINUOUS
 62
     7
 10
-380.9178716406
 20
50.3749674853
 11
-367.9178716406
 21
50.3749674853
  0
ARC
  8
1
  6
CONTINUOUS
 62
     7
 10
-300.8616644752
 20
59.2881405555
 40
0.464176
 50
77.640558
 51
123.963786
  0
LINE
  8
1
  6
CONTINUOUS
 62
     7
 10
-418.2492215538
 20
95.4274834917
 11
-418.2492215538
 21
41.6863025368
  0
LINE
  8
1
  6
CONTINUOUS
 62
     7
 10
-305.3230985647
 20
51.5374852389
 11
-306.1170032824
 21
52.1803771915
  0
ARC
  8
1
  6
CONTINUOUS
 62
     7
 10
-321.2259386565
 20
68.5568930142
 40
21.762736
 50
325.886645
 51
334.113355
  0
ARC
  8
1
  6
CONTINUOUS
 62
     7
 10
-308.984041395
 20
48.8082196975
 40
1.472904
 50
120.42712
 51
152.3968
  0
LINE
  8
1
  6
CONTINUOUS
 62
     7
 10
-364.9178716406
 20
97.0568930142
 11
-364.9178716406
 21
40.0568930142
  0
LINE
  8
1
  6
CONTINUOUS
 62
     7
 10
-493.4178716406
 20
43.5568930142
 11
-493.4178716406
 21
93.5568930142
  0
LINE
  8
1
  6
CONTINUOUS
 62
     7
 10
-422.4178716406
 20
40.0568930142
 11
-422.4178716406
 21
97.05689301419997
  0
LINE
  8
1
  6
CONTINUOUS
 62
     7
 10
-360.4178716406
 20
94.5568930142
 11
-360.4178716406
 21
42.5568930142
  0
LINE
  8
1
  6
CONTINUOUS
 62
     7
 10
-381.4178716406
 20
37.5568930142
 11
-367.4178716406
 21
37.5568930142
  0
ARC
  8
1
  6
CONTINUOUS
 62
     7
 10
-362.9178716406
 20
96.5568930142
 40
2.000000000000002
 50
180.0
 51
270.0
  0
LINE
  8
1
  6
CONTINUOUS
 62
     7
 10
-360.4178716406
 20
94.5568930142
 11
-362.9178716406
 21
94.5568930142
  0
LINE
  8
1
  6
CONTINUOUS
 62
     7
 10
-447.4178716406
 20
93.5568930142
 11
-447.4178716406
 21
43.5568930142
  0
ARC
  8
1
  6
CONTINUOUS
 62
     7
 10
-367.4178716406
 20
97.0568930142
 40
2.500000000000002
 50
0.0
 51
90.0
  0
LINE
  8
1
  6
CONTINUOUS
 62
     7
 10
-447.4178716406
 20
58.2015539549
 11
-424.4178716406
 21
58.2015539549
  0
ARC
  8
1
  6
CONTINUOUS
 62
     7
 10
-367.4178716406
 20
40.0568930142
 40
2.500000000000002
 50
270.0
 51
0.0
  0
LINE
  8
1
  6
CONTINUOUS
 62
     7
 10
-362.9178716406
 20
42.5568930142
 11
-360.4178716406
 21
42.5568930142
  0
LINE
  8
1
  6
CONTINUOUS
 62
     7
 10
-367.4178716406
 20
99.5568930142
 11
-381.4178716406
 21
99.5568930142
  0
LINE
  8
1
  6
CONTINUOUS
 62
     7
 10
-424.4178716406
 20
43.5568930142
 11
-493.4178716406
 21
43.5568930142
  0
ARC
  8
1
  6
CONTINUOUS
 62
     7
 10
-362.9178716406
 20
40.5568930142
 40
2.000000000000002
 50
90.0
 51
180.0
  0
LINE
  8
1
  6
CONTINUOUS
 62
     7
 10
-493.4178716406
 20
93.5568930142
 11
-424.4178716406
 21
93.5568930142
  0
LINE
  8
1
  6
CONTINUOUS
 62
     7
 10
-447.4178716406
 20
78.9122320735
 11
-424.4178716406
 21
78.9122320735
  0
LINE
  8
0
  6
CONTINUOUS
 62
     7
 10
-424.4178716406
 20
40.0568930142
 11
-424.4178716406
 21
97.05689301419999
  0
LINE
  8
0
  6
CONTINUOUS
 62
     7
 10
-424.4178716406
 20
40.0568930142
 11
-422.4178716406
 21
40.0568930142
  0
LINE
  8
0
  6
CONTINUOUS
 62
     7
 10
-424.4178716406
 20
97.05689301419999
 11
-422.4178716406
 21
97.05689301419999
  0
ENDSEC
  0
EOF
