  0
SECTION
  2
HEADER
  9
$ACADVER
  1
AC1004
  9
$INSBASE
 10
0.0
 20
0.0
  9
$EXTMIN
 10
-102.0
 20
114.8068181818182
  9
$EXTMAX
 10
307.0
 20
212.0
  9
$LIMMIN
 10
0.0
 20
0.0
  9
$LIMMAX
 10
12.0
 20
9.0
  9
$ORTHOMODE
 70
     0
  9
$REGENMODE
 70
     1
  9
$FILLMODE
 70
     1
  9
$QTEXTMODE
 70
     0
  9
$DRAGMODE
 70
     2
  9
$LTSCALE
 40
1.0
  9
$OSMODE
 70
    37
  9
$ATTMODE
 70
     1
  9
$TEXTSIZE
 40
0.2
  9
$TRACEWID
 40
0.05
  9
$TEXTSTYLE
  7
STANDARD
  9
$CLAYER
  8
0
  9
$CELTYPE
  6
BYLAYER
  9
$CECOLOR
 62
   256
  9
$DIMSCALE
 40
1.0
  9
$DIMASZ
 40
3.0
  9
$DIMEXO
 40
0.0625
  9
$DIMDLI
 40
0.38
  9
$DIMRND
 40
0.0
  9
$DIMDLE
 40
0.0
  9
$DIMEXE
 40
1.5
  9
$DIMTP
 40
0.0
  9
$DIMTM
 40
0.0
  9
$DIMTXT
 40
3.0
  9
$DIMCEN
 40
0.09
  9
$DIMTSZ
 40
0.0
  9
$DIMTOL
 70
     0
  9
$DIMLIM
 70
     0
  9
$DIMTIH
 70
     1
  9
$DIMTOH
 70
     1
  9
$DIMSE1
 70
     0
  9
$DIMSE2
 70
     0
  9
$DIMTAD
 70
     1
  9
$DIMZIN
 70
     0
  9
$DIMBLK
  1

  9
$DIMASO
 70
     1
  9
$DIMSHO
 70
     1
  9
$DIMPOST
  1

  9
$DIMAPOST
  1

  9
$DIMALT
 70
     0
  9
$DIMALTD
 70
     2
  9
$DIMALTF
 40
25.4
  9
$DIMLFAC
 40
1.0
  9
$DIMTOFL
 70
     0
  9
$DIMTVP
 40
0.0
  9
$DIMTIX
 70
     0
  9
$DIMSOXD
 70
     0
  9
$DIMSAH
 70
     0
  9
$DIMBLK1
  1

  9
$DIMBLK2
  1

  9
$LUNITS
 70
     2
  9
$LUPREC
 70
     4
  9
$SKETCHINC
 40
0.1
  9
$FILLETRAD
 40
0.5
  9
$AUNITS
 70
     0
  9
$AUPREC
 70
     0
  9
$MENU
  1
.
  9
$ELEVATION
 40
0.0
  9
$THICKNESS
 40
0.0
  9
$LIMCHECK
 70
     0
  9
$CHAMFERA
 40
0.0
  9
$CHAMFERB
 40
0.0
  9
$SKPOLY
 70
     0
  9
$TDCREATE
 40
2460118.417787349
  9
$TDUPDATE
 40
2460118.417787616
  9
$TDINDWG
 40
0.0000000116
  9
$TDUSRTIMER
 40
0.0000000116
  9
$USRTIMER
 70
     1
  9
$ANGBASE
 50
0.0
  9
$ANGDIR
 70
     0
  9
$PDMODE
 70
     0
  9
$PDSIZE
 40
0.0
  9
$PLINEWID
 40
0.0
  9
$COORDS
 70
     1
  9
$SPLFRAME
 70
     0
  9
$SPLINETYPE
 70
     6
  9
$SPLINESEGS
 70
     8
  9
$ATTDIA
 70
     0
  9
$ATTREQ
 70
     1
  9
$SURFTAB1
 70
     6
  9
$SURFTAB2
 70
     6
  9
$SURFTYPE
 70
     6
  9
$SURFU
 70
     6
  9
$SURFV
 70
     6
  9
$UCSNAME
  2

  9
$UCSORG
 10
0.0
 20
0.0
 30
0.0
  9
$UCSXDIR
 10
1.0
 20
0.0
 30
0.0
  9
$UCSYDIR
 10
0.0
 20
1.0
 30
0.0
  9
$USERI1
 70
     0
  9
$USERI2
 70
     0
  9
$USERI3
 70
     0
  9
$USERI4
 70
     0
  9
$USERI5
 70
     0
  9
$USERR1
 40
0.0
  9
$USERR2
 40
0.0
  9
$USERR3
 40
0.0
  9
$USERR4
 40
0.0
  9
$USERR5
 40
0.0
  9
$WORLDVIEW
 70
     1
  0
ENDSEC
  0
SECTION
  2
TABLES
  0
TABLE
  2
LTYPE
 70
     2
  0
LTYPE
  2
CONTINUOUS
 70
     0
  3
Solid line
 72
    65
 73
     0
 40
0.0
  0
LTYPE
  2
CENTER
 70
     0
  3

 72
    65
 73
     0
 40
0.0
  0
ENDTAB
  0
TABLE
  2
LAYER
 70
     1
  0
LAYER
  2
0
 70
     0
 62
     7
  6
CONTINUOUS
  0
ENDTAB
  0
TABLE
  2
STYLE
 70
     2
  0
STYLE
  2
STANDARD
 70
     0
 40
0.0
 41
1.0
 50
0.0
 71
     0
 42
0.2
  3
txt
  4

  0
STYLE
  2
ＭＳ_ゴシック
 70
     0
 40
0.0
 41
1.0
 50
0.0
 71
     0
 42
0.2
  3
ＭＳ ゴシック.shx
  4

  0
ENDTAB
  0
TABLE
  2
VIEW
 70
     0
  0
ENDTAB
  0
ENDSEC
  0
SECTION
  2
BLOCKS
  0
BLOCK
  8
0
  2
D_FRAME_VIEW_1819
 70
     0
 10
0.0
 20
0.0
  0
ENDBLK
  8
0
  0
BLOCK
  8
0
  2
D_FRAME_VIEW_1652
 70
     0
 10
0.0
 20
0.0
  0
ENDBLK
  8
0
  0
BLOCK
  8
0
  2
D_FRAME_VIEW_1734
 70
     0
 10
0.0
 20
0.0
  0
ENDBLK
  8
0
  0
ENDSEC
  0
SECTION
  2
ENTITIES
  0
LINE
  8
0
 62
     7
 10
174.450005
 20
204.5
 11
187.4501222049286
 21
204.5
  0
LINE
  8
0
 62
     7
 10
174.450005
 20
203.0
 11
189.739736604869
 21
203.0
  0
LINE
  8
0
 62
     7
 10
174.450005
 20
201.5
 11
189.949995
 21
201.5
  0
LINE
  8
0
 62
     7
 10
174.450005
 20
200.0
 11
189.949995
 21
200.0
  0
LINE
  8
0
 62
     7
 10
174.450005
 20
198.5
 11
189.949995
 21
198.5
  0
LINE
  8
0
 62
     7
 10
174.450005
 20
197.0
 11
189.949995
 21
197.0
  0
LINE
  8
0
 62
     7
 10
174.450005
 20
195.5
 11
189.949995
 21
195.5
  0
LINE
  8
0
 62
     7
 10
174.450005
 20
194.0
 11
189.949995
 21
194.0
  0
LINE
  8
0
 62
     7
 10
174.450005
 20
192.5
 11
189.949995
 21
192.5
  0
LINE
  8
0
 62
     7
 10
174.450005
 20
191.0
 11
189.949995
 21
191.0
  0
LINE
  8
0
 62
     7
 10
174.450005
 20
189.5
 11
189.949995
 21
189.5
  0
LINE
  8
0
 62
     7
 10
174.450005
 20
188.0
 11
189.949995
 21
188.0
  0
LINE
  8
0
 62
     7
 10
174.450005
 20
186.5
 11
189.949995
 21
186.5
  0
LINE
  8
0
 62
     7
 10
174.450005
 20
185.0
 11
189.949995
 21
185.0
  0
LINE
  8
0
 62
     7
 10
174.450005
 20
183.5
 11
189.949995
 21
183.5
  0
LINE
  8
0
 62
     7
 10
174.450005
 20
182.0
 11
189.949995
 21
182.0
  0
LINE
  8
0
 62
     7
 10
174.450005
 20
180.5
 11
189.949995
 21
180.5
  0
LINE
  8
0
 62
     7
 10
174.450005
 20
179.0
 11
189.949995
 21
179.0
  0
LINE
  8
0
 62
     7
 10
174.450005
 20
177.5
 11
189.949995
 21
177.5
  0
LINE
  8
0
 62
     7
 10
174.450005
 20
176.0
 11
189.949995
 21
176.0
  0
LINE
  8
0
 62
     7
 10
174.450005
 20
174.5
 11
189.949995
 21
174.5
  0
LINE
  8
0
 62
     7
 10
174.450005
 20
173.0
 11
189.949995
 21
173.0
  0
LINE
  8
0
 62
     7
 10
174.450005
 20
171.5
 11
189.949995
 21
171.5
  0
LINE
  8
0
 62
     7
 10
174.450005
 20
170.0
 11
189.949995
 21
170.0
  0
LINE
  8
0
 62
     7
 10
174.450005
 20
168.5
 11
189.949995
 21
168.5
  0
LINE
  8
0
 62
     7
 10
174.450005
 20
167.0
 11
189.949995
 21
167.0
  0
LINE
  8
0
 62
     7
 10
174.450005
 20
165.5
 11
189.949995
 21
165.5
  0
LINE
  8
0
 62
     7
 10
174.450005
 20
164.0
 11
189.949995
 21
164.0
  0
LINE
  8
0
 62
     7
 10
174.450005
 20
162.5
 11
189.949995
 21
162.5
  0
LINE
  8
0
 62
     7
 10
174.450005
 20
161.0
 11
189.949995
 21
161.0
  0
LINE
  8
0
 62
     7
 10
174.450005
 20
159.5
 11
189.949995
 21
159.5
  0
LINE
  8
0
 62
     7
 10
174.450005
 20
158.0
 11
189.949995
 21
158.0
  0
LINE
  8
0
 62
     7
 10
174.450005
 20
156.5
 11
189.949995
 21
156.5
  0
LINE
  8
0
 62
     7
 10
174.450005
 20
155.0
 11
189.949995
 21
155.0
  0
LINE
  8
0
 62
     7
 10
174.450005
 20
153.5
 11
189.949995
 21
153.5
  0
LINE
  8
0
 62
     7
 10
174.450005
 20
152.0
 11
189.949995
 21
152.0
  0
LINE
  8
0
 62
     7
 10
174.450005
 20
150.5
 11
189.949995
 21
150.5
  0
LINE
  8
0
 62
     7
 10
174.450005
 20
149.0
 11
189.949995
 21
149.0
  0
LINE
  8
0
 62
     7
 10
174.450005
 20
147.5
 11
189.949995
 21
147.5
  0
LINE
  8
0
 62
     7
 10
174.450005
 20
146.0
 11
189.949995
 21
146.0
  0
LINE
  8
0
 62
     7
 10
174.450005
 20
144.5
 11
189.949995
 21
144.5
  0
LINE
  8
0
 62
     7
 10
174.450005
 20
143.0
 11
189.949995
 21
143.0
  0
LINE
  8
0
 62
     7
 10
174.450005
 20
141.5
 11
189.949995
 21
141.5
  0
LINE
  8
0
 62
     7
 10
174.450005
 20
140.0
 11
189.949995
 21
140.0
  0
LINE
  8
0
 62
     7
 10
174.450005
 20
138.5
 11
189.949995
 21
138.5
  0
LINE
  8
0
 62
     7
 10
174.450005
 20
137.0
 11
189.739736604869
 21
137.0
  0
INSERT
  8
0
  6
CONTINUOUS
 62
     7
  2
D_FRAME_VIEW_1819
 10
0.0
 20
0.0
 30
0.0
  0
INSERT
  8
0
  6
CONTINUOUS
 62
     7
  2
D_FRAME_VIEW_1652
 10
0.0
 20
0.0
 30
0.0
  0
INSERT
  8
0
  6
CONTINUOUS
 62
     7
  2
D_FRAME_VIEW_1734
 10
0.0
 20
0.0
 30
0.0
  0
TEXT
  8
0
  6
CONTINUOUS
 62
     7
 10
87.96822558459424
 20
114.4795454545455
 40
3.0
  1
ＦＰＶＥ－４２Ｙ
  0
LINE
  8
0
  6
CENTER
 62
     1
 10
-60.0
 20
134.0
 11
-60.0
 21
206.0
  0
CIRCLE
  8
0
  6
CONTINUOUS
 62
     7
 10
265.0
 20
170.0
 40
34.50000000000003
  0
LINE
  8
0
  6
CONTINUOUS
 62
     7
 10
-48.19491347236679
 20
198.5
 11
-31.49999999999999
 21
181.8050865276332
  0
LINE
  8
0
  6
CONTINUOUS
 62
     7
 10
123.9788254347276
 20
143.0
 11
123.9788254347276
 21
197.0
  0
LINE
  8
0
  6
CONTINUOUS
 62
     7
 10
15.54999999999998
 20
141.5
 11
15.54999999999998
 21
198.5
  0
LINE
  8
0
  6
CONTINUOUS
 62
     7
 10
171.05
 20
137.5
 11
171.05
 21
202.5
  0
LINE
  8
0
  6
CONTINUOUS
 62
     7
 10
-71.8050865276332
 20
198.5
 11
-48.19491347236681
 21
198.5
  0
LINE
  8
0
  6
CONTINUOUS
 62
     7
 10
-31.5
 20
158.1949134723668
 11
-48.19491347236681
 21
141.5
  0
LINE
  8
0
  6
CONTINUOUS
 62
     7
 10
-88.5
 20
158.1949134723668
 11
-88.5
 21
181.8050865276332
  0
ARC
  8
0
  6
CONTINUOUS
 62
     7
 10
265.0
 20
170.0
 40
25.16890603642029
 50
296.3436856524999
 51
303.6563143474999
  0
LINE
  8
0
  6
CENTER
 62
     1
 10
223.0
 20
170.0
 11
307.0
 21
170.0
  0
LINE
  8
0
  6
CONTINUOUS
 62
     7
 10
275.7150912838272
 20
145.7104520756775
 11
275.4887793063457
 21
146.5550598740002
  0
LINE
  8
0
  6
CENTER
 62
     1
 10
2.999999999999989
 20
170.0
 11
201.0
 21
170.0
  0
LINE
  8
0
  6
CENTER
 62
     1
 10
-102.0
 20
170.0
 11
-17.99999999999999
 21
170.0
  0
LINE
  8
0
  6
CONTINUOUS
 62
     7
 10
-48.19491347236681
 20
141.5
 11
-71.8050865276332
 21
141.5
  0
LINE
  8
0
  6
CONTINUOUS
 62
     7
 10
280.0595240861481
 20
149.1939806030162
 11
280.6778199069892
 21
148.5756847821751
  0
ARC
  8
0
  6
CONTINUOUS
 62
     7
 10
276.3863131450403
 20
146.5739390143216
 40
0.8977323730050106
 50
104.0206749621989
 51
181.2050081294977
  0
LINE
  8
0
  6
CONTINUOUS
 62
     7
 10
-31.49999999999999
 20
181.8050865276332
 11
-31.50000000000001
 21
158.1949134723668
  0
LINE
  8
0
  6
CONTINUOUS
 62
     7
 10
-88.49999999999997
 20
181.8050865276332
 11
-71.8050865276332
 21
198.5
  0
LINE
  8
0
  6
CONTINUOUS
 62
     7
 10
-71.8050865276332
 20
141.5
 11
-88.50000000000001
 21
158.1949134723668
  0
LINE
  8
0
  6
CONTINUOUS
 62
     7
 10
100.55
 20
198.5
 11
15.55000000000005
 21
198.5
  0
LINE
  8
0
  6
CONTINUOUS
 62
     7
 10
15.55000000000004
 20
141.5
 11
100.55
 21
141.5
  0
CIRCLE
  8
0
  6
CONTINUOUS
 62
     7
 10
265.0
 20
170.0
 40
19.99999999999999
  0
LINE
  8
0
  6
CONTINUOUS
 62
     7
 10
71.54999999999998
 20
198.5
 11
71.54999999999998
 21
141.5
  0
CIRCLE
  8
0
  6
CONTINUOUS
 62
     7
 10
-60.0
 20
170.0
 40
34.5
  0
CIRCLE
  8
0
  6
CONTINUOUS
 62
     7
 10
265.0
 20
170.0
 40
26.54999999999999
  0
LINE
  8
0
  6
CONTINUOUS
 62
     7
 10
106.7910475463501
 20
197.0
 11
106.7910475463501
 21
143.0
  0
ARC
  8
0
  6
CONTINUOUS
 62
     7
 10
265.0
 20
170.0
 40
25.1689060364203
 50
320.3436856525001
 51
327.6563143475001
  0
ARC
  8
0
  6
CONTINUOUS
 62
     7
 10
279.6042693828777
 20
148.3500661562207
 40
0.9588787401751684
 50
61.65509165416103
 51
133.1192252541401
  0
LINE
  8
0
  6
CENTER
 62
     1
 10
265.0
 20
128.0
 11
265.0
 21
212.0
  0
LINE
  8
0
  6
CONTINUOUS
 62
     7
 10
100.55
 20
202.5
 11
100.55
 21
137.5
  0
ARC
  8
0
  6
CONTINUOUS
 62
     7
 10
290.8611999355256
 20
166.3664538612463
 40
0.9588787401752292
 50
109.6550916541635
 51
181.1192252541387
  0
LINE
  8
0
  6
CONTINUOUS
 62
     7
 10
291.4118781342718
 20
172.684774293881
 11
290.538674136891
 21
172.7305369762448
  0
LINE
  8
0
  6
CONTINUOUS
 62
     7
 10
289.4413491954835
 20
177.8930449354723
 11
290.2204473810833
 21
178.2900152886903
  0
LINE
  8
0
  6
CONTINUOUS
 62
     7
 10
290.2204473810833
 20
161.7099847113097
 11
289.4413491954835
 21
162.1069550645278
  0
ARC
  8
0
  6
CONTINUOUS
 62
     7
 10
276.4472580075265
 20
193.4726352111731
 40
0.958878740175224
 50
181.6550916541651
 51
253.1192252541391
  0
LINE
  8
0
  6
CONTINUOUS
 62
     7
 10
275.4887793063457
 20
193.4449401259999
 11
275.7150912838272
 21
194.2895479243224
  0
LINE
  8
0
  6
CONTINUOUS
 62
     7
 10
249.4689781909358
 20
191.5309702789976
 11
249.8659485441539
 21
190.7518720933978
  0
LINE
  8
0
  6
CONTINUOUS
 62
     7
 10
259.5691401472256
 20
195.9865557711719
 11
259.6149028295894
 21
195.1133517737911
  0
ARC
  8
0
  6
CONTINUOUS
 62
     7
 10
258.7330570647075
 20
195.2814929659509
 40
0.897732373004954
 50
272.0206749621968
 51
349.2050081294998
  0
ARC
  8
0
  6
CONTINUOUS
 62
     7
 10
255.2099746161079
 20
145.8632259130517
 40
0.8977323730048977
 50
56.02067496219273
 51
133.2050081295023
  0
ARC
  8
0
  6
CONTINUOUS
 62
     7
 10
265.0
 20
170.0
 40
25.16890603642031
 50
248.3436856524999
 51
255.6563143475
  0
ARC
  8
0
  6
CONTINUOUS
 62
     7
 10
241.942104923348
 20
157.7387686474082
 40
0.9588787401751082
 50
325.6550916541619
 51
37.11922525414661
  0
LINE
  8
0
  6
CONTINUOUS
 62
     7
 10
270.6083471098729
 20
195.9488296900628
 11
270.2949893378609
 21
195.1325047848575
  0
ARC
  8
0
  6
CONTINUOUS
 62
     7
 10
265.0
 20
170.0
 40
25.16890603642029
 50
128.3436856525
 51
135.6563143475
  0
ARC
  8
0
  6
CONTINUOUS
 62
     7
 10
269.5358425424849
 20
144.2817097753862
 40
0.958878740175246
 50
37.65509165416538
 51
109.11922525414
  0
ARC
  8
0
  6
CONTINUOUS
 62
     7
 10
265.9097698223044
 20
196.0981655676424
 40
0.9577944021290008
 50
205.6084121724828
 51
277.1659047358221
  0
LINE
  8
0
  6
CONTINUOUS
 62
     7
 10
265.0460604475655
 20
195.6841894418359
 11
264.9092737859986
 21
196.5478264334917
  0
ARC
  8
0
  6
CONTINUOUS
 62
     7
 10
242.0187859957019
 20
182.2593745040391
 40
0.8977323730049162
 50
320.0206749621919
 51
37.20500812950161
  0
ARC
  8
0
  6
CONTINUOUS
 62
     7
 10
265.0
 20
170.0
 40
25.16890603642031
 50
344.3436856525
 51
351.6563143475001
  0
LINE
  8
0
  6
CONTINUOUS
 62
     7
 10
239.4516966075062
 20
167.3610792709839
 11
238.6070888091837
 21
167.1347672935024
  0
ARC
  8
0
  6
CONTINUOUS
 62
     7
 10
258.6831273196606
 20
144.6602794177192
 40
0.9588787401752503
 50
13.65509165416588
 51
85.11922525413793
  0
ARC
  8
0
  6
CONTINUOUS
 62
     7
 10
265.0
 20
170.0
 40
25.16890603642029
 50
152.3436856525
 51
159.6563143475001
  0
ARC
  8
0
  6
CONTINUOUS
 62
     7
 10
290.0279634160348
 20
162.786599692529
 40
0.8977934417916005
 50
152.0237852081164
 51
229.2018978835804
  0
LINE
  8
0
  6
CONTINUOUS
 62
     7
 10
280.6778199069892
 20
191.4243152178248
 11
280.0595240861481
 21
190.8060193969838
  0
LINE
  8
0
  6
CONTINUOUS
 62
     7
 10
284.1178929354901
 20
187.1518476717839
 11
284.6681721551339
 21
187.8313859154224
  0
ARC
  8
0
  6
CONTINUOUS
 62
     7
 10
265.0
 20
170.0
 40
25.16890603642031
 50
56.3436856525
 51
63.65631434750001
  0
LINE
  8
0
  6
CONTINUOUS
 62
     7
 10
287.2201303084592
 20
157.1180157613807
 11
288.0364552136646
 21
156.8046579893686
  0
ARC
  8
0
  6
CONTINUOUS
 62
     7
 10
279.5944073516808
 20
191.5738669318885
 40
0.897732373004754
 50
224.0206749621896
 51
301.2050081295092
  0
LINE
  8
0
  6
CONTINUOUS
 62
     7
 10
284.668172155134
 20
152.1686140845777
 11
284.1178929354901
 21
152.8481523282161
  0
ARC
  8
0
  6
CONTINUOUS
 62
     7
 10
284.9301520587515
 20
153.2304591816986
 40
0.8977323730048784
 50
128.0206749621927
 51
205.2050081295041
  0
LINE
  8
0
  6
CONTINUOUS
 62
     7
 10
290.538674136891
 20
167.2694630237553
 11
291.4118781342718
 21
167.3152257061191
  0
ARC
  8
0
  6
CONTINUOUS
 62
     7
 10
265.0
 20
170.0
 40
25.1689060364203
 50
80.34368565249991
 51
87.65631434750007
  0
ARC
  8
0
  6
CONTINUOUS
 62
     7
 10
287.1474853713488
 20
156.161892782119
 40
0.9588787401751814
 50
85.65509165416174
 51
157.119225254141
  0
ARC
  8
0
  6
CONTINUOUS
 62
     7
 10
246.2135945911153
 20
188.1404325047862
 40
0.9588787401751745
 50
253.6550916541628
 51
325.1192252541421
  0
ARC
  8
0
  6
CONTINUOUS
 62
     7
 10
240.5120756121751
 20
161.1247524249852
 40
0.8977323730049064
 50
8.020674962192222
 51
85.20500812950185
  0
ARC
  8
0
  6
CONTINUOUS
 62
     7
 10
238.9484726095957
 20
168.1772986326062
 40
0.958878740175252
 50
301.6550916541676
 51
13.11922525413979
  0
ARC
  8
0
  6
CONTINUOUS
 62
     7
 10
248.9919531672429
 20
190.5467977296193
 40
0.8977323730049
 50
296.020674962192
 51
13.20500812950172
  0
ARC
  8
0
  6
CONTINUOUS
 62
     7
 10
265.0
 20
170.0
 40
25.16890603642031
 50
272.3436856524999
 51
279.6563143475001
  0
LINE
  8
0
  6
CONTINUOUS
 62
     7
 10
242.7338092439753
 20
157.1977947967835
 11
242.054271000337
 21
156.6475155771397
  0
LINE
  8
0
  6
CONTINUOUS
 62
     7
 10
245.9437479749273
 20
187.2203068383189
 11
245.2104124716913
 21
187.6965404824817
  0
ARC
  8
0
  6
CONTINUOUS
 62
     7
 10
265.0
 20
170.0
 40
25.1689060364203
 50
200.3436856524999
 51
207.6563143475
  0
ARC
  8
0
  6
CONTINUOUS
 62
     7
 10
269.5577723290735
 20
195.6447883933162
 40
0.8977323730048493
 50
248.0206749621919
 51
325.2050081295063
  0
ARC
  8
0
  6
CONTINUOUS
 62
     7
 10
240.4593860523411
 20
178.9309902429487
 40
0.9588787401751904
 50
277.6550916541623
 51
349.1192252541421
  0
LINE
  8
0
  6
CONTINUOUS
 62
     7
 10
254.5953773189553
 20
193.4824090696426
 11
254.1191436747925
 21
194.2157445728785
  0
LINE
  8
0
  6
CONTINUOUS
 62
     7
 10
254.1191436747925
 20
145.7842554271215
 11
254.5953773189552
 21
146.5175909303575
  0
LINE
  8
0
  6
CONTINUOUS
 62
     7
 10
240.5871177266491
 20
177.9806571130735
 11
239.7234807349933
 21
178.1174437746405
  0
LINE
  8
0
  6
CONTINUOUS
 62
     7
 10
238.6070888091837
 20
172.8652327064976
 11
239.4516966075062
 21
172.6389207290161
  0
LINE
  8
0
  6
CONTINUOUS
 62
     7
 10
270.2949893378609
 20
144.8674952151426
 11
270.6083471098729
 21
144.0511703099371
  0
ARC
  8
0
  6
CONTINUOUS
 62
     7
 10
287.1075367571542
 20
183.7726278855093
 40
0.8977323730048496
 50
200.0206749621911
 51
277.2050081295048
  0
ARC
  8
0
  6
CONTINUOUS
 62
     7
 10
265.0
 20
170.0
 40
25.16890603642033
 50
32.34368565249994
 51
39.65631434749999
  0
ARC
  8
0
  6
CONTINUOUS
 62
     7
 10
290.7980722166492
 20
173.5899763573291
 40
0.8977323730048606
 50
176.0206749621921
 51
253.2050081295052
  0
ARC
  8
0
  6
CONTINUOUS
 62
     7
 10
265.0
 20
170.0
 40
25.16890603642032
 50
8.343685652500012
 51
15.65631434750006
  0
ARC
  8
0
  6
CONTINUOUS
 62
     7
 10
290.1032022690866
 20
177.1993022844369
 40
0.9588161225717161
 50
133.6523996561417
 51
205.1219172521625
  0
ARC
  8
0
  6
CONTINUOUS
 62
     7
 10
239.019279503279
 20
171.8521940537897
 40
0.8977323730048941
 50
344.0206749621927
 51
61.20500812950161
  0
LINE
  8
0
  6
CONTINUOUS
 62
     7
 10
264.9092737859986
 20
143.4521735665083
 11
265.0460604475655
 21
144.3158105581641
  0
ARC
  8
0
  6
CONTINUOUS
 62
     7
 10
285.004771405174
 20
186.787299981665
 40
0.9588787401751437
 50
157.6550916541624
 51
229.1192252541457
  0
ARC
  8
0
  6
CONTINUOUS
 62
     7
 10
265.0
 20
170.0
 40
25.16890603642029
 50
104.3436856525
 51
111.6563143475001
  0
LINE
  8
0
  6
CONTINUOUS
 62
     7
 10
239.7234807349933
 20
161.8825562253595
 11
240.5871177266491
 21
162.0193428869265
  0
LINE
  8
0
  6
CONTINUOUS
 62
     7
 10
288.0364552136646
 20
183.1953420106314
 11
287.2201303084592
 21
182.8819842386193
  0
ARC
  8
0
  6
CONTINUOUS
 62
     7
 10
265.0
 20
170.0
 40
25.16890603642029
 50
176.3436856525
 51
183.6563143475
  0
ARC
  8
0
  6
CONTINUOUS
 62
     7
 10
265.9035088598428
 20
143.9133117285203
 40
0.9472186060152527
 50
82.37173054409786
 51
154.8539525475974
  0
ARC
  8
0
  6
CONTINUOUS
 62
     7
 10
255.2161432942208
 20
194.2132291858904
 40
0.9588787401751455
 50
229.6550916541637
 51
301.1192252541425
  0
LINE
  8
0
  6
CONTINUOUS
 62
     7
 10
259.6149028295894
 20
144.8866482262089
 11
259.5691401472256
 21
144.0134442288282
  0
LINE
  8
0
  6
CONTINUOUS
 62
     7
 10
242.054271000337
 20
183.3524844228603
 11
242.7338092439753
 21
182.8022052032165
  0
LINE
  8
0
  6
CONTINUOUS
 62
     7
 10
174.45
 20
135.5
 11
187.45
 21
135.5
  0
ARC
  8
0
  6
CONTINUOUS
 62
     7
 10
191.95
 20
138.75
 40
2.000000000000002
 50
90.0
 51
180.0
  0
ARC
  8
0
  6
CONTINUOUS
 62
     7
 10
191.95
 20
201.25
 40
2.000000000000002
 50
180.0
 51
270.0
  0
LINE
  8
0
  6
CONTINUOUS
 62
     7
 10
194.45
 20
199.25
 11
191.95
 21
199.25
  0
LINE
  8
0
  6
CONTINUOUS
 62
     7
 10
191.95
 20
140.75
 11
194.45
 21
140.75
  0
LINE
  8
0
  6
CONTINUOUS
 62
     7
 10
71.54999999999998
 20
158.1949134723668
 11
100.55
 21
158.1949134723668
  0
LINE
  8
0
  6
CONTINUOUS
 62
     7
 10
189.95
 20
202.0
 11
189.95
 21
138.0
  0
LINE
  8
0
  6
CONTINUOUS
 62
     7
 10
174.45
 20
204.5
 11
174.45
 21
135.5
  0
LINE
  8
0
  6
CONTINUOUS
 62
     7
 10
194.45
 20
199.25
 11
194.45
 21
140.75
  0
LINE
  8
0
  6
CONTINUOUS
 62
     7
 10
71.54999999999998
 20
181.8050865276332
 11
100.55
 21
181.8050865276332
  0
ARC
  8
0
  6
CONTINUOUS
 62
     7
 10
187.45
 20
138.0
 40
2.500000000000002
 50
270.0
 51
0.0
  0
ARC
  8
0
  6
CONTINUOUS
 62
     7
 10
187.45
 20
202.0
 40
2.500000000000002
 50
0.0
 51
90.0
  0
CIRCLE
  8
0
  6
CONTINUOUS
 62
     7
 10
-60.0
 20
170.0
 40
19.99999999999999
  0
LINE
  8
0
  6
CONTINUOUS
 62
     7
 10
174.45
 20
204.5
 11
173.05
 21
204.5
  0
ARC
  8
0
  6
CONTINUOUS
 62
     7
 10
126.317326987979
 20
141.0
 40
1.000000000000004
 50
195.0000000000001
 51
269.9999999999999
  0
ARC
  8
0
  6
CONTINUOUS
 62
     7
 10
106.7910475463501
 20
198.0
 40
1.000000000000001
 50
194.9999999999999
 51
270.0
  0
CIRCLE
  8
0
  6
CONTINUOUS
 62
     7
 10
-60.0
 20
170.0
 40
28.5
  0
CIRCLE
  8
0
  6
CONTINUOUS
 62
     7
 10
265.0
 20
170.0
 40
29.25
  0
ARC
  8
0
  6
CONTINUOUS
 62
     7
 10
248.9226567702536
 20
149.4203169528632
 40
0.9588787401752727
 50
349.6550916541671
 51
61.11922525413807
  0
LINE
  8
0
  6
CONTINUOUS
 62
     7
 10
106.7910475463501
 20
143.0
 11
123.9788254347276
 21
143.0
  0
ARC
  8
0
  6
CONTINUOUS
 62
     7
 10
173.05
 20
202.5
 40
2.000000000000002
 50
90.0
 51
180.0
  0
ARC
  8
0
  6
CONTINUOUS
 62
     7
 10
103.782673012021
 20
201.5
 40
0.9999999999999972
 50
14.9999999999999
 51
90.00000000000001
  0
LINE
  8
0
  6
CONTINUOUS
 62
     7
 10
104.7485988383101
 20
138.2411809548975
 11
105.8251217200611
 21
142.2588190451026
  0
ARC
  8
0
  6
CONTINUOUS
 62
     7
 10
246.2390563135353
 20
151.9319217309938
 40
0.8977323730048967
 50
32.02067496219404
 51
109.2050081295025
  0
LINE
  8
0
  6
CONTINUOUS
 62
     7
 10
173.05
 20
135.5
 11
174.45
 21
135.5
  0
ARC
  8
0
  6
CONTINUOUS
 62
     7
 10
169.05
 20
138.0
 40
2.000000000000002
 50
0.0
 51
90.0
  0
LINE
  8
0
  6
CONTINUOUS
 62
     7
 10
126.317326987979
 20
140.0
 11
169.05
 21
140.0
  0
LINE
  8
0
  6
CONTINUOUS
 62
     7
 10
124.9447512610167
 20
142.2588190451026
 11
125.3514011616899
 21
140.7411809548975
  0
LINE
  8
0
  6
CONTINUOUS
 62
     7
 10
245.2104124716913
 20
152.3034595175184
 11
245.9437479749272
 21
152.7796931616811
  0
ARC
  8
0
  6
CONTINUOUS
 62
     7
 10
126.3173269879789
 20
199.0
 40
1.000000000000001
 50
90.0
 51
164.9999999999999
  0
ARC
  8
0
  6
CONTINUOUS
 62
     7
 10
103.782673012021
 20
138.5
 40
1.000000000000001
 50
270.0
 51
345.0
  0
LINE
  8
0
  6
CONTINUOUS
 62
     7
 10
125.3514011616899
 20
199.2588190451025
 11
124.9447512610167
 21
197.7411809548974
  0
ARC
  8
0
  6
CONTINUOUS
 62
     7
 10
173.05
 20
137.5
 40
2.000000000000002
 50
180.0
 51
270.0
  0
LINE
  8
0
  6
CONTINUOUS
 62
     7
 10
103.782673012021
 20
202.5
 11
100.55
 21
202.5
  0
ARC
  8
0
  6
CONTINUOUS
 62
     7
 10
123.9788254347276
 20
198.0
 40
1.000000000000004
 50
270.0
 51
344.9999999999997
  0
ARC
  8
0
  6
CONTINUOUS
 62
     7
 10
169.05
 20
202.0
 40
2.000000000000002
 50
270.0
 51
0.0
  0
LINE
  8
0
  6
CONTINUOUS
 62
     7
 10
123.9788254347276
 20
197.0
 11
106.7910475463501
 21
197.0
  0
LINE
  8
0
  6
CONTINUOUS
 62
     7
 10
169.05
 20
200.0
 11
126.3173269879789
 21
200.0
  0
ARC
  8
0
  6
CONTINUOUS
 62
     7
 10
106.7910475463501
 20
142.0
 40
0.9999999999999972
 50
90.0
 51
165.0000000000001
  0
CIRCLE
  8
0
  6
CONTINUOUS
 62
     7
 10
-60.0
 20
170.0
 40
32.49999999999999
  0
LINE
  8
0
  6
CONTINUOUS
 62
     7
 10
249.8659485441538
 20
149.2481279066022
 11
249.4689781909358
 21
148.4690297210025
  0
CIRCLE
  8
0
  6
CONTINUOUS
 62
     7
 10
-60.0
 20
170.0
 40
23.65
  0
ARC
  8
0
  6
CONTINUOUS
 62
     7
 10
265.0
 20
170.0
 40
25.16890603642031
 50
224.3436856525
 51
231.6563143475
  0
ARC
  8
0
  6
CONTINUOUS
 62
     7
 10
123.9788254347276
 20
142.0
 40
1.000000000000001
 50
15.00000000000034
 51
90.0
  0
CIRCLE
  8
0
  6
CONTINUOUS
 62
     7
 10
-60.0
 20
170.0
 40
20.5
  0
LINE
  8
0
  6
CONTINUOUS
 62
     7
 10
100.55
 20
137.5
 11
103.782673012021
 21
137.5
  0
LINE
  8
0
  6
CONTINUOUS
 62
     7
 10
105.8251217200611
 20
197.7411809548975
 11
104.7485988383101
 21
201.7588190451025
  0
ENDSEC
  0
EOF
