  0
SECTION
  2
HEADER
  9
$ACADVER
  1
AC1004
  9
$INSBASE
 10
0.0
 20
0.0
  9
$EXTMIN
 10
45.6
 20
405.6704545454544
  9
$EXTMAX
 10
126.65
 20
441.4940442408508
  9
$LIMMIN
 10
0.0
 20
0.0
  9
$LIMMAX
 10
12.0
 20
9.0
  9
$ORTHOMODE
 70
     0
  9
$REGENMODE
 70
     1
  9
$FILLMODE
 70
     1
  9
$QTEXTMODE
 70
     0
  9
$DRAGMODE
 70
     2
  9
$LTSCALE
 40
1.0
  9
$OSMODE
 70
    37
  9
$ATTMODE
 70
     1
  9
$TEXTSIZE
 40
0.2
  9
$TRACEWID
 40
0.05
  9
$TEXTSTYLE
  7
STANDARD
  9
$CLAYER
  8
0
  9
$CELTYPE
  6
BYLAYER
  9
$CECOLOR
 62
   256
  9
$DIMSCALE
 40
1.0
  9
$DIMASZ
 40
3.0
  9
$DIMEXO
 40
0.0625
  9
$DIMDLI
 40
0.38
  9
$DIMRND
 40
0.0
  9
$DIMDLE
 40
0.0
  9
$DIMEXE
 40
1.5
  9
$DIMTP
 40
0.0
  9
$DIMTM
 40
0.0
  9
$DIMTXT
 40
3.0
  9
$DIMCEN
 40
0.09
  9
$DIMTSZ
 40
0.0
  9
$DIMTOL
 70
     0
  9
$DIMLIM
 70
     0
  9
$DIMTIH
 70
     1
  9
$DIMTOH
 70
     1
  9
$DIMSE1
 70
     0
  9
$DIMSE2
 70
     0
  9
$DIMTAD
 70
     1
  9
$DIMZIN
 70
     0
  9
$DIMBLK
  1

  9
$DIMASO
 70
     1
  9
$DIMSHO
 70
     1
  9
$DIMPOST
  1

  9
$DIMAPOST
  1

  9
$DIMALT
 70
     0
  9
$DIMALTD
 70
     2
  9
$DIMALTF
 40
25.4
  9
$DIMLFAC
 40
1.0
  9
$DIMTOFL
 70
     0
  9
$DIMTVP
 40
0.0
  9
$DIMTIX
 70
     0
  9
$DIMSOXD
 70
     0
  9
$DIMSAH
 70
     0
  9
$DIMBLK1
  1

  9
$DIMBLK2
  1

  9
$LUNITS
 70
     2
  9
$LUPREC
 70
     4
  9
$SKETCHINC
 40
0.1
  9
$FILLETRAD
 40
0.5
  9
$AUNITS
 70
     0
  9
$AUPREC
 70
     0
  9
$MENU
  1
.
  9
$ELEVATION
 40
0.0
  9
$THICKNESS
 40
0.0
  9
$LIMCHECK
 70
     0
  9
$CHAMFERA
 40
0.0
  9
$CHAMFERB
 40
0.0
  9
$SKPOLY
 70
     0
  9
$TDCREATE
 40
2459069.39825287
  9
$TDUPDATE
 40
2459069.398253056
  9
$TDINDWG
 40
0.0000000116
  9
$TDUSRTIMER
 40
0.0000000116
  9
$USRTIMER
 70
     1
  9
$ANGBASE
 50
0.0
  9
$ANGDIR
 70
     0
  9
$PDMODE
 70
     0
  9
$PDSIZE
 40
0.0
  9
$PLINEWID
 40
0.0
  9
$COORDS
 70
     1
  9
$SPLFRAME
 70
     0
  9
$SPLINETYPE
 70
     6
  9
$SPLINESEGS
 70
     8
  9
$ATTDIA
 70
     0
  9
$ATTREQ
 70
     1
  9
$SURFTAB1
 70
     6
  9
$SURFTAB2
 70
     6
  9
$SURFTYPE
 70
     6
  9
$SURFU
 70
     6
  9
$SURFV
 70
     6
  9
$UCSNAME
  2

  9
$UCSORG
 10
0.0
 20
0.0
 30
0.0
  9
$UCSXDIR
 10
1.0
 20
0.0
 30
0.0
  9
$UCSYDIR
 10
0.0
 20
1.0
 30
0.0
  9
$USERI1
 70
     0
  9
$USERI2
 70
     0
  9
$USERI3
 70
     0
  9
$USERI4
 70
     0
  9
$USERI5
 70
     0
  9
$USERR1
 40
0.0
  9
$USERR2
 40
0.0
  9
$USERR3
 40
0.0
  9
$USERR4
 40
0.0
  9
$USERR5
 40
0.0
  9
$WORLDVIEW
 70
     1
  0
ENDSEC
  0
SECTION
  2
TABLES
  0
TABLE
  2
LTYPE
 70
     2
  0
LTYPE
  2
CONTINUOUS
 70
     0
  3
Solid line
 72
    65
 73
     0
 40
0.0
  0
LTYPE
  2
CENTER
 70
     0
  3

 72
    65
 73
     0
 40
0.0
  0
ENDTAB
  0
TABLE
  2
LAYER
 70
     2
  0
LAYER
  2
0
 70
     0
 62
     7
  6
CONTINUOUS
  0
LAYER
  2
1
 70
     0
 62
     7
  6
CONTINUOUS
  0
ENDTAB
  0
TABLE
  2
STYLE
 70
     2
  0
STYLE
  2
STANDARD
 70
     0
 40
0.0
 41
1.0
 50
0.0
 71
     0
 42
0.2
  3
txt
  4

  0
STYLE
  2
ＭＳ_ゴシック
 70
     0
 40
0.0
 41
1.0
 50
0.0
 71
     0
 42
0.2
  3
ＭＳ ゴシック.shx
  4

  0
ENDTAB
  0
TABLE
  2
VIEW
 70
     0
  0
ENDTAB
  0
ENDSEC
  0
SECTION
  2
BLOCKS
  0
BLOCK
  8
0
  2
D_FRAME_VIEW_2904
 70
     0
 10
0.0
 20
0.0
  0
ARC
  8
1
  6
CONTINUOUS
 62
     7
 10
113.9490823265153
 20
416.1218986252635
 40
2.052141800926782
 50
176.8709584466653
 51
227.1454924826688
  0
LINE
  8
1
  6
CONTINUOUS
 62
     7
 10
120.7
 20
437.1532680572118
 11
111.4
 21
437.1532680572118
  0
LINE
  8
1
  6
CONTINUOUS
 62
     7
 10
111.4
 20
437.1532680572117
 11
111.4
 21
416.2339146521247
  0
ARC
  8
1
  6
CONTINUOUS
 62
     7
 10
109.3509176734848
 20
416.1218986252635
 40
2.052141800926735
 50
312.8545075173298
 51
3.129041553334844
  0
LINE
  8
1
  6
CONTINUOUS
 62
     7
 10
99.65000025000771
 20
430.4940446575302
 11
98.1500000035465
 21
432.9940442408508
  0
LINE
  8
1
  6
CONTINUOUS
 62
     7
 10
101.15
 20
432.9940442408508
 11
99.65000025000771
 21
430.4940446575302
  0
LINE
  8
1
  6
CONTINUOUS
 62
     7
 10
97.16409910094545
 20
429.0535336797836
 11
97.11131281385715
 21
429.0595644175274
  0
POLYLINE
  8
1
  6
CONTINUOUS
 62
     7
 66
     1
  0
VERTEX
  8
1
  6
CONTINUOUS
 62
     7
 10
97.11131281385715
 20
429.0595644175274
  0
VERTEX
  8
1
  6
CONTINUOUS
 62
     7
 10
97.07498253520589
 20
429.0697328963621
  0
VERTEX
  8
1
  6
CONTINUOUS
 62
     7
 10
97.04006241300607
 20
429.0804641797255
  0
VERTEX
  8
1
  6
CONTINUOUS
 62
     7
 10
97.00631831652086
 20
429.0918183636523
  0
VERTEX
  8
1
  6
CONTINUOUS
 62
     7
 10
96.97407454249696
 20
429.1036719499656
  0
VERTEX
  8
1
  6
CONTINUOUS
 62
     7
 10
96.94263545411046
 20
429.116291749156
  0
VERTEX
  8
1
  6
CONTINUOUS
 62
     7
 10
96.91281061540602
 20
429.1293622041287
  0
VERTEX
  8
1
  6
CONTINUOUS
 62
     7
 10
96.88441601193195
 20
429.1429470791127
  0
VERTEX
  8
1
  6
CONTINUOUS
 62
     7
 10
96.8576771482428
 20
429.1569197455167
  0
VERTEX
  8
1
  6
CONTINUOUS
 62
     7
 10
96.83354371565879
 20
429.1706831762627
  0
VERTEX
  8
1
  6
CONTINUOUS
 62
     7
 10
96.81094021024376
 20
429.1847473900696
  0
VERTEX
  8
1
  6
CONTINUOUS
 62
     7
 10
96.7897515387802
 20
429.1991661596663
  0
VERTEX
  8
1
  6
CONTINUOUS
 62
     7
 10
96.77009966200572
 20
429.2138374867854
  0
VERTEX
  8
1
  6
CONTINUOUS
 62
     7
 10
96.751701570095
 20
429.2289761533855
  0
VERTEX
  8
1
  6
CONTINUOUS
 62
     7
 10
96.73487191176054
 20
429.2443269532575
  0
VERTEX
  8
1
  6
CONTINUOUS
 62
     7
 10
96.71953048672088
 20
429.2599430010018
  0
VERTEX
  8
1
  6
CONTINUOUS
 62
     7
 10
96.70575059534185
 20
429.275728571018
  0
VERTEX
  8
1
  6
CONTINUOUS
 62
     7
 10
96.69271970514339
 20
429.2927873833878
  0
VERTEX
  8
1
  6
CONTINUOUS
 62
     7
 10
96.68144904383183
 20
429.3099923621345
  0
VERTEX
  8
1
  6
CONTINUOUS
 62
     7
 10
96.6718824360861
 20
429.3274049000789
  0
VERTEX
  8
1
  6
CONTINUOUS
 62
     7
 10
96.6640638016142
 20
429.3449193156995
  0
VERTEX
  8
1
  6
CONTINUOUS
 62
     7
 10
96.6579048490163
 20
429.3627671864681
  0
VERTEX
  8
1
  6
CONTINUOUS
 62
     7
 10
96.65351615064019
 20
429.3806762182116
  0
VERTEX
  8
1
  6
CONTINUOUS
 62
     7
 10
96.65087731502553
 20
429.3987073735909
  0
VERTEX
  8
1
  6
CONTINUOUS
 62
     7
 10
96.65
 20
429.416758659556
  0
SEQEND
  8
1
  6
CONTINUOUS
 62
     7
  0
LINE
  8
1
  6
CONTINUOUS
 62
     7
 10
96.65
 20
429.416758659556
 11
96.65
 21
430.9880816434799
  0
LINE
  8
1
  6
CONTINUOUS
 62
     7
 10
96.65069013510845
 20
433.5591539292367
 11
96.65
 21
433.5636018368147
  0
LINE
  8
1
  6
CONTINUOUS
 62
     7
 10
96.65
 20
433.5636018368147
 11
96.65
 21
438.4940442408508
  0
LINE
  8
1
  6
CONTINUOUS
 62
     7
 10
98.38331784121343
 20
432.9940442408507
 11
98.15000000354648
 21
432.9940442408507
  0
LINE
  8
1
  6
CONTINUOUS
 62
     7
 10
99.65
 20
431.0293852420899
 11
98.38331784129758
 21
432.9940442408508
  0
LINE
  8
1
  6
CONTINUOUS
 62
     7
 10
99.65
 20
431.0293852420899
 11
99.65000025000771
 21
430.4940446575302
  0
LINE
  8
1
  6
CONTINUOUS
 62
     7
 10
100.9164191724092
 20
432.9940442408508
 11
99.65
 21
431.0293852420899
  0
LINE
  8
1
  6
CONTINUOUS
 62
     7
 10
101.15
 20
432.9940442408508
 11
100.9164191724092
 21
432.9940442408508
  0
LINE
  8
1
  6
CONTINUOUS
 62
     7
 10
98.38331784129758
 20
432.9940442408508
 11
100.9164191724092
 21
432.9940442408508
  0
LINE
  8
1
  6
CONTINUOUS
 62
     7
 10
111.4
 20
433.9903669748339
 11
120.7
 21
433.9903669748339
  0
LINE
  8
1
  6
CONTINUOUS
 62
     7
 10
120.2
 20
417.5133425173179
 11
120.2
 21
433.9831983343885
  0
LINE
  8
1
  6
CONTINUOUS
 62
     7
 10
96.65
 20
429.416758659556
 11
96.65
 21
417.4265584391995
  0
LINE
  8
1
  6
CONTINUOUS
 62
     7
 10
96.65
 20
431.0335797062629
 11
96.65
 21
430.9880816434799
  0
LINE
  8
1
  6
CONTINUOUS
 62
     7
 10
96.65
 20
433.3691250796408
 11
96.65
 21
431.0335797062629
  0
LINE
  8
1
  6
CONTINUOUS
 62
     7
 10
96.65
 20
433.5636018368147
 11
96.65
 21
433.3691250796408
  0
POLYLINE
  8
1
  6
CONTINUOUS
 62
     7
 66
     1
  0
VERTEX
  8
1
  6
CONTINUOUS
 62
     7
 10
98.95
 20
418.3337077413113
  0
VERTEX
  8
1
  6
CONTINUOUS
 62
     7
 10
98.94974199263497
 20
418.3240313077398
  0
VERTEX
  8
1
  6
CONTINUOUS
 62
     7
 10
98.94896967250047
 20
418.3143715248465
  0
VERTEX
  8
1
  6
CONTINUOUS
 62
     7
 10
98.94768559253743
 20
418.3047532764875
  0
VERTEX
  8
1
  6
CONTINUOUS
 62
     7
 10
98.94589230568675
 20
418.2952014465189
  0
VERTEX
  8
1
  6
CONTINUOUS
 62
     7
 10
98.94351515593004
 20
418.2854501318798
  0
VERTEX
  8
1
  6
CONTINUOUS
 62
     7
 10
98.94060253776756
 20
418.2757865342073
  0
VERTEX
  8
1
  6
CONTINUOUS
 62
     7
 10
98.9371632534212
 20
418.2662367085338
  0
VERTEX
  8
1
  6
CONTINUOUS
 62
     7
 10
98.93320610511287
 20
418.2568267098919
  0
VERTEX
  8
1
  6
CONTINUOUS
 62
     7
 10
98.92886672438966
 20
418.2478249111111
  0
VERTEX
  8
1
  6
CONTINUOUS
 62
     7
 10
98.92404589983286
 20
418.2389703360562
  0
VERTEX
  8
1
  6
CONTINUOUS
 62
     7
 10
98.91875692038882
 20
418.2302851593003
  0
VERTEX
  8
1
  6
CONTINUOUS
 62
     7
 10
98.91301307500386
 20
418.2217915554162
  0
VERTEX
  8
1
  6
CONTINUOUS
 62
     7
 10
98.90663235939529
 20
418.2132601003625
  0
VERTEX
  8
1
  6
CONTINUOUS
 62
     7
 10
98.89978174977055
 20
418.2049458045329
  0
VERTEX
  8
1
  6
CONTINUOUS
 62
     7
 10
98.89248082562295
 20
418.1968702489569
  0
VERTEX
  8
1
  6
CONTINUOUS
 62
     7
 10
98.88474916644577
 20
418.1890550146645
  0
VERTEX
  8
1
  6
CONTINUOUS
 62
     7
 10
98.87680989532127
 20
418.1816997766346
  0
VERTEX
  8
1
  6
CONTINUOUS
 62
     7
 10
98.86847613484179
 20
418.1746031175539
  0
VERTEX
  8
1
  6
CONTINUOUS
 62
     7
 10
98.85977002875529
 20
418.167782119961
  0
VERTEX
  8
1
  6
CONTINUOUS
 62
     7
 10
98.85071372080982
 20
418.1612538663941
  0
VERTEX
  8
1
  6
CONTINUOUS
 62
     7
 10
98.84103971505436
 20
418.1548499124215
  0
VERTEX
  8
1
  6
CONTINUOUS
 62
     7
 10
98.83101267463759
 20
418.1487657962642
  0
VERTEX
  8
1
  6
CONTINUOUS
 62
     7
 10
98.82066030788793
 20
418.1430166317629
  0
VERTEX
  8
1
  6
CONTINUOUS
 62
     7
 10
98.81001032313385
 20
418.1376175327579
  0
VERTEX
  8
1
  6
CONTINUOUS
 62
     7
 10
98.79931171561266
 20
418.1326791241813
  0
VERTEX
  8
1
  6
CONTINUOUS
 62
     7
 10
98.78834703745454
 20
418.1280831639661
  0
VERTEX
  8
1
  6
CONTINUOUS
 62
     7
 10
98.77714484313884
 20
418.1238403102789
  0
VERTEX
  8
1
  6
CONTINUOUS
 62
     7
 10
98.76573368714496
 20
418.1199612212865
  0
VERTEX
  8
1
  6
CONTINUOUS
 62
     7
 10
98.7537868438545
 20
418.1163543918197
  0
VERTEX
  8
1
  6
CONTINUOUS
 62
     7
 10
98.74164024609527
 20
418.1131380512663
  0
VERTEX
  8
1
  6
CONTINUOUS
 62
     7
 10
98.72932698204283
 20
418.1103198285787
  0
VERTEX
  8
1
  6
CONTINUOUS
 62
     7
 10
98.7168801398728
 20
418.1079073527092
  0
VERTEX
  8
1
  6
CONTINUOUS
 62
     7
 10
98.70346451914507
 20
418.1057849953534
  0
VERTEX
  8
1
  6
CONTINUOUS
 62
     7
 10
98.68991642160884
 20
418.1041283542193
  0
VERTEX
  8
1
  6
CONTINUOUS
 62
     7
 10
98.67627761736551
 20
418.1029408294377
  0
VERTEX
  8
1
  6
CONTINUOUS
 62
     7
 10
98.66258987651653
 20
418.1022258211395
  0
VERTEX
  8
1
  6
CONTINUOUS
 62
     7
 10
98.64889496916334
 20
418.1019867294555
  0
SEQEND
  8
1
  6
CONTINUOUS
 62
     7
  0
LINE
  8
1
  6
CONTINUOUS
 62
     7
 10
98.95
 20
429.0535336796059
 11
98.95
 21
418.3337077413113
  0
LINE
  8
1
  6
CONTINUOUS
 62
     7
 10
97.95
 20
429.0535336796059
 11
97.95
 21
418.3337077413113
  0
POLYLINE
  8
1
  6
CONTINUOUS
 62
     7
 66
     1
  0
VERTEX
  8
1
  6
CONTINUOUS
 62
     7
 10
98.25110503083668
 20
418.1019867294555
  0
VERTEX
  8
1
  6
CONTINUOUS
 62
     7
 10
98.23853752710977
 20
418.1021872238496
  0
VERTEX
  8
1
  6
CONTINUOUS
 62
     7
 10
98.22598087415118
 20
418.102787421745
  0
VERTEX
  8
1
  6
CONTINUOUS
 62
     7
 10
98.21346741959023
 20
418.1037853952115
  0
VERTEX
  8
1
  6
CONTINUOUS
 62
     7
 10
98.20102951105633
 20
418.1051792163191
  0
VERTEX
  8
1
  6
CONTINUOUS
 62
     7
 10
98.18832170616669
 20
418.1070268484119
  0
VERTEX
  8
1
  6
CONTINUOUS
 62
     7
 10
98.17571694560654
 20
418.1092912375881
  0
VERTEX
  8
1
  6
CONTINUOUS
 62
     7
 10
98.16324958782619
 20
418.1119660592954
  0
VERTEX
  8
1
  6
CONTINUOUS
 62
     7
 10
98.15095399127595
 20
418.115044988981
  0
VERTEX
  8
1
  6
CONTINUOUS
 62
     7
 10
98.13918023342944
 20
418.1184234687565
  0
VERTEX
  8
1
  6
CONTINUOUS
 62
     7
 10
98.12758972552898
 20
418.1221790740066
  0
VERTEX
  8
1
  6
CONTINUOUS
 62
     7
 10
98.1162123921366
 20
418.12630220318
  0
VERTEX
  8
1
  6
CONTINUOUS
 62
     7
 10
98.10507815781435
 20
418.1307832547256
  0
VERTEX
  8
1
  6
CONTINUOUS
 62
     7
 10
98.09388395354428
 20
418.1357666086475
  0
VERTEX
  8
1
  6
CONTINUOUS
 62
     7
 10
98.08296823563164
 20
418.1411218990231
  0
VERTEX
  8
1
  6
CONTINUOUS
 62
     7
 10
98.07236099037605
 20
418.1468346602573
  0
VERTEX
  8
1
  6
CONTINUOUS
 62
     7
 10
98.0620922040771
 20
418.1528904267552
  0
VERTEX
  8
1
  6
CONTINUOUS
 62
     7
 10
98.05247678941129
 20
418.1590809273002
  0
VERTEX
  8
1
  6
CONTINUOUS
 62
     7
 10
98.04319690102764
 20
418.1655842814012
  0
VERTEX
  8
1
  6
CONTINUOUS
 62
     7
 10
98.03427660944027
 20
418.1723839049262
  0
VERTEX
  8
1
  6
CONTINUOUS
 62
     7
 10
98.02573998516321
 20
418.1794632137432
  0
VERTEX
  8
1
  6
CONTINUOUS
 62
     7
 10
98.01736260798631
 20
418.1870380489169
  0
VERTEX
  8
1
  6
CONTINUOUS
 62
     7
 10
98.00940825851143
 20
418.1948973034247
  0
VERTEX
  8
1
  6
CONTINUOUS
 62
     7
 10
98.00189884524184
 20
418.2030194860748
  0
VERTEX
  8
1
  6
CONTINUOUS
 62
     7
 10
97.9948562766808
 20
418.2113831056757
  0
VERTEX
  8
1
  6
CONTINUOUS
 62
     7
 10
97.98850974355689
 20
418.2196783407038
  0
VERTEX
  8
1
  6
CONTINUOUS
 62
     7
 10
97.98261037300178
 20
418.2281852176607
  0
VERTEX
  8
1
  6
CONTINUOUS
 62
     7
 10
97.97717324135469
 20
418.2368818124701
  0
VERTEX
  8
1
  6
CONTINUOUS
 62
     7
 10
97.97221342495487
 20
418.245746201055
  0
VERTEX
  8
1
  6
CONTINUOUS
 62
     7
 10
97.96761293822394
 20
418.2550390838529
  0
VERTEX
  8
1
  6
CONTINUOUS
 62
     7
 10
97.96352759922125
 20
418.2644938589882
  0
VERTEX
  8
1
  6
CONTINUOUS
 62
     7
 10
97.95996817659339
 20
418.2740844424491
  0
VERTEX
  8
1
  6
CONTINUOUS
 62
     7
 10
97.956945438987
 20
418.2837847502234
  0
VERTEX
  8
1
  6
CONTINUOUS
 62
     7
 10
97.95445524765718
 20
418.293630026371
  0
VERTEX
  8
1
  6
CONTINUOUS
 62
     7
 10
97.95251179557901
 20
418.3035728983373
  0
VERTEX
  8
1
  6
CONTINUOUS
 62
     7
 10
97.95111889526706
 20
418.3135854313387
  0
VERTEX
  8
1
  6
CONTINUOUS
 62
     7
 10
97.95028035923586
 20
418.3236396905912
  0
VERTEX
  8
1
  6
CONTINUOUS
 62
     7
 10
97.95
 20
418.3337077413113
  0
SEQEND
  8
1
  6
CONTINUOUS
 62
     7
  0
LINE
  8
1
  6
CONTINUOUS
 62
     7
 10
98.25110503083668
 20
418.1019867294555
 11
98.64889496916334
 21
418.1019867294555
  0
LINE
  8
1
  6
CONTINUOUS
 62
     7
 10
120.7333351896842
 20
417.4289345524647
 11
122.4180162756769
 21
417.2567869189412
  0
LINE
  8
1
  6
CONTINUOUS
 62
     7
 10
110.7466593870101
 20
414.6175080376047
 11
110.3999721993021
 21
414.5059557595839
  0
LINE
  8
1
  6
CONTINUOUS
 62
     7
 10
103.1
 20
414.6175080376047
 11
103.1
 21
414.5059557591492
  0
LINE
  8
1
  6
CONTINUOUS
 62
     7
 10
120.2
 20
414.5059557591492
 11
120.2
 21
415.0059557591492
  0
LINE
  8
1
  6
CONTINUOUS
 62
     7
 10
112.5533406129899
 20
414.6175080376047
 11
112.9000867456978
 21
414.5059557633816
  0
LINE
  8
1
  6
CONTINUOUS
 62
     7
 10
120.2
 20
416.819368454402
 11
120.2
 21
417.5133425173179
  0
LINE
  8
1
  6
CONTINUOUS
 62
     7
 10
120.2
 20
416.819368454402
 11
120.2
 21
415.0059557591492
  0
LINE
  8
1
  6
CONTINUOUS
 62
     7
 10
96.64999999999999
 20
417.4265584391995
 11
96.64999999999999
 21
417.2564063887504
  0
LINE
  8
1
  6
CONTINUOUS
 62
     7
 10
125.65
 20
439.4940442408508
 11
97.65
 21
439.4940442408508
  0
ARC
  8
1
  6
CONTINUOUS
 62
     7
 10
125.65
 20
438.4940442408508
 40
1.000000000000001
 50
0.0
 51
90.0
  0
LINE
  8
1
  6
CONTINUOUS
 62
     7
 10
97.16410239390795
 20
429.0535336796059
 11
103.1
 21
429.0535336796059
  0
ARC
  8
1
  6
CONTINUOUS
 62
     7
 10
97.65
 20
438.4940442408508
 40
1.000000000000001
 50
90.0
 51
180.0
  0
LINE
  8
1
  6
CONTINUOUS
 62
     7
 10
103.1
 20
414.5059557591492
 11
110.3999575530955
 21
414.5059557591492
  0
LINE
  8
1
  6
CONTINUOUS
 62
     7
 10
122.4456321060386
 20
417.2564063887504
 11
126.65
 21
417.2564063887504
  0
LINE
  8
1
  6
CONTINUOUS
 62
     7
 10
112.9001367287788
 20
414.5059557591492
 11
120.2
 21
414.5059557591492
  0
LINE
  8
1
  6
CONTINUOUS
 62
     7
 10
96.64999999999999
 20
417.2564063887504
 11
100.8543678939615
 21
417.2564063887504
  0
LINE
  8
1
  6
CONTINUOUS
 62
     7
 10
120.2
 20
429.0535336796059
 11
120.7
 21
429.0535336796059
  0
ENDBLK
  8
0
  0
BLOCK
  8
0
  2
D_FRAME_VIEW_2738
 70
     0
 10
0.0
 20
0.0
  0
LINE
  8
1
  6
CONTINUOUS
 62
     7
 10
74.97542650578829
 20
429.0595644175274
 11
73.99404339145552
 21
429.416758659556
  0
LINE
  8
1
  6
CONTINUOUS
 62
     7
 10
73.38200123147645
 20
430.9880816434799
 11
73.47228608613797
 21
431.0301821626239
  0
LINE
  8
1
  6
CONTINUOUS
 62
     7
 10
73.47228608613797
 20
431.0301821626239
 11
73.5203297886659
 21
431.1637653741556
  0
ARC
  8
1
  6
CONTINUOUS
 62
     7
 10
61.6
 20
425.4940442408507
 40
13.2
 50
25.43737661054246
 51
36.57166255786292
  0
LINE
  8
1
  6
CONTINUOUS
 62
     7
 10
72.20108181725021
 20
433.3589704518185
 11
71.84310355918275
 21
433.5591539292367
  0
LINE
  8
1
  6
CONTINUOUS
 62
     7
 10
71.84310355918275
 20
433.5591539292367
 11
71.79226374292874
 21
433.5636018368147
  0
LINE
  8
1
  6
CONTINUOUS
 62
     7
 10
48.82205785685341
 20
423.1015153305972
 11
48.32017964281398
 21
423.2841840617343
  0
POLYLINE
  8
1
  6
CONTINUOUS
 62
     7
 66
     1
  0
VERTEX
  8
1
  6
CONTINUOUS
 62
     7
 10
48.32017964281398
 20
423.2841840617343
  0
VERTEX
  8
1
  6
CONTINUOUS
 62
     7
 10
48.27886364723908
 20
423.3002711603423
  0
VERTEX
  8
1
  6
CONTINUOUS
 62
     7
 10
48.23882379241655
 20
423.3179288649915
  0
VERTEX
  8
1
  6
CONTINUOUS
 62
     7
 10
48.20013213947711
 20
423.3370356544506
  0
VERTEX
  8
1
  6
CONTINUOUS
 62
     7
 10
48.16286074955151
 20
423.3574700074888
  0
VERTEX
  8
1
  6
CONTINUOUS
 62
     7
 10
48.12582289677079
 20
423.3798996590686
  0
VERTEX
  8
1
  6
CONTINUOUS
 62
     7
 10
48.09024785883077
 20
423.403592513918
  0
VERTEX
  8
1
  6
CONTINUOUS
 62
     7
 10
48.0561638765673
 20
423.4284411955873
  0
VERTEX
  8
1
  6
CONTINUOUS
 62
     7
 10
48.02359919081628
 20
423.4543383276264
  0
VERTEX
  8
1
  6
CONTINUOUS
 62
     7
 10
47.98536717001691
 20
423.4877411008793
  0
VERTEX
  8
1
  6
CONTINUOUS
 62
     7
 10
47.94935340875059
 20
423.5225593539283
  0
VERTEX
  8
1
  6
CONTINUOUS
 62
     7
 10
47.9155673135503
 20
423.5586418181019
  0
VERTEX
  8
1
  6
CONTINUOUS
 62
     7
 10
47.88401829094909
 20
423.5958372247288
  0
VERTEX
  8
1
  6
CONTINUOUS
 62
     7
 10
47.84430046372652
 20
423.6485166590418
  0
VERTEX
  8
1
  6
CONTINUOUS
 62
     7
 10
47.80859542982599
 20
423.7029566082431
  0
VERTEX
  8
1
  6
CONTINUOUS
 62
     7
 10
47.77689310369464
 20
423.7588690718102
  0
VERTEX
  8
1
  6
CONTINUOUS
 62
     7
 10
47.74901177228966
 20
423.8163398744105
  0
VERTEX
  8
1
  6
CONTINUOUS
 62
     7
 10
47.72503646271717
 20
423.874987988763
  0
VERTEX
  8
1
  6
CONTINUOUS
 62
     7
 10
47.70495975340253
 20
423.9345818161183
  0
VERTEX
  8
1
  6
CONTINUOUS
 62
     7
 10
47.68846002432761
 20
423.9962163381211
  0
VERTEX
  8
1
  6
CONTINUOUS
 62
     7
 10
47.67595609499012
 20
424.0585839945483
  0
VERTEX
  8
1
  6
CONTINUOUS
 62
     7
 10
47.66745726589824
 20
424.1214690733119
  0
VERTEX
  8
1
  6
CONTINUOUS
 62
     7
 10
47.66698438507348
 20
424.1261714857256
  0
SEQEND
  8
1
  6
CONTINUOUS
 62
     7
  0
ARC
  8
1
  6
CONTINUOUS
 62
     7
 10
61.6
 20
425.4940442408507
 40
14.0
 50
15.26433691744677
 51
185.6070407488913
  0
LINE
  8
1
  6
CONTINUOUS
 62
     7
 10
75.10610066774764
 20
429.1798609417553
 11
75.10931263507042
 21
429.14559156206
  0
LINE
  8
1
  6
CONTINUOUS
 62
     7
 10
75.10931263507041
 20
429.14559156206
 11
75.06783421863346
 21
429.072218879842
  0
LINE
  8
1
  6
CONTINUOUS
 62
     7
 10
75.06783421863346
 20
429.072218879842
 11
74.97542650578829
 21
429.0595644175274
  0
ARC
  8
1
  6
CONTINUOUS
 62
     7
 10
70.03244748437615
 20
434.7213856468701
 40
1.000000000000001
 50
227.57723048127
 51
265.0
  0
ARC
  8
1
  6
CONTINUOUS
 62
     7
 10
61.6
 20
425.4940442408507
 40
11.5
 50
47.57723048126991
 51
224.5491219412332
  0
ARC
  8
1
  6
CONTINUOUS
 62
     7
 10
53.33326847006247
 20
417.3564063887504
 40
0.1000000000000003
 50
264.9999999999999
 51
44.54912194123359
  0
LINE
  8
1
  6
CONTINUOUS
 62
     7
 10
51.35689644081726
 20
417.4289345524647
 11
53.3245528957877
 21
417.2567869189412
  0
ARC
  8
1
  6
CONTINUOUS
 62
     7
 10
51.40047431219109
 20
417.9270319015106
 40
0.5000000000000004
 50
216.5716625578626
 51
265.0
  0
ARC
  8
1
  6
CONTINUOUS
 62
     7
 10
61.6
 20
425.4940442408507
 40
13.2
 50
213.4373766105425
 51
216.5716625578627
  0
ARC
  8
1
  6
CONTINUOUS
 62
     7
 10
50.66819957135003
 20
418.2756137058821
 40
0.1000000000000014
 50
122.9999999999996
 51
213.4373766105425
  0
LINE
  8
1
  6
CONTINUOUS
 62
     7
 10
51.20082313659144
 20
418.7407398227493
 11
50.61373566784853
 21
418.3594807626766
  0
ARC
  8
1
  6
CONTINUOUS
 62
     7
 10
51.14635923308994
 20
418.8246068795439
 40
0.0999999999999991
 50
302.9999999999994
 51
32.53793225336085
  0
ARC
  8
1
  6
CONTINUOUS
 62
     7
 10
61.6
 20
425.4940442408507
 40
12.3
 50
193.7890737815472
 51
212.5379322533603
  0
ARC
  8
1
  6
CONTINUOUS
 62
     7
 10
49.16889919717533
 20
422.4431865204692
 40
0.5000000000000006
 50
13.78907378154725
 51
69.99999999999919
  0
LINE
  8
1
  6
CONTINUOUS
 62
     7
 10
71.79226374292874
 20
433.5636018368147
 11
69.94529174162848
 21
433.7251909487783
  0
LINE
  8
1
  6
CONTINUOUS
 62
     7
 10
48.82205785685341
 20
423.1015153305972
 11
49.33990926883815
 21
422.9130328308621
  0
ARC
  8
1
  6
CONTINUOUS
 62
     7
 10
61.60000000000002
 20
425.4940442408507
 40
12.3
 50
21.16391761340156
 51
24.53793225336034
  0
ARC
  8
1
  6
CONTINUOUS
 62
     7
 10
72.88011293279818
 20
430.6437094943715
 40
0.1000000000000008
 50
115.0000000000001
 51
204.5379322533604
  0
ARC
  8
1
  6
CONTINUOUS
 62
     7
 10
73.5366573021266
 20
430.1153224678771
 40
0.4999999999999997
 50
201.1639176134017
 51
250.0
  0
LINE
  8
1
  6
CONTINUOUS
 62
     7
 10
72.83785110662411
 20
430.7343402730752
 11
73.38200123147645
 21
430.9880816434799
  0
LINE
  8
1
  6
CONTINUOUS
 62
     7
 10
73.99404339145552
 20
429.416758659556
 11
73.36564723046378
 21
429.6454761574841
  0
LINE
  8
1
  6
CONTINUOUS
 62
     7
 10
62.5547433263802
 20
436.4068103970887
 11
62.60229104159807
 21
436.9502832689058
  0
LINE
  8
1
  6
CONTINUOUS
 62
     7
 10
53.20840356904505
 20
418.4526587706479
 11
52.79048890413175
 21
418.1019867294555
  0
LINE
  8
1
  6
CONTINUOUS
 62
     7
 10
68.19612901803704
 20
434.9142927501741
 11
67.88321505285789
 21
434.4674052945218
  0
LINE
  8
1
  6
CONTINUOUS
 62
     7
 10
53.4682720163547
 20
433.625772224496
 11
53.85403330758516
 21
433.2400109332656
  0
POLYLINE
  8
1
  6
CONTINUOUS
 62
     7
 66
     1
  0
VERTEX
  8
1
  6
CONTINUOUS
 62
     7
 10
53.85403330758516
 20
433.2400109332656
  0
VERTEX
  8
1
  6
CONTINUOUS
 62
     7
 10
53.88289119549198
 20
433.2099191213147
  0
VERTEX
  8
1
  6
CONTINUOUS
 62
     7
 10
53.91049394106349
 20
433.1786229925606
  0
VERTEX
  8
1
  6
CONTINUOUS
 62
     7
 10
53.93677160287854
 20
433.1462050718493
  0
VERTEX
  8
1
  6
CONTINUOUS
 62
     7
 10
53.96165423951596
 20
433.1127478840266
  0
VERTEX
  8
1
  6
CONTINUOUS
 62
     7
 10
53.98577730581561
 20
433.0772586314187
  0
VERTEX
  8
1
  6
CONTINUOUS
 62
     7
 10
54.00837741823423
 20
433.0407317768949
  0
VERTEX
  8
1
  6
CONTINUOUS
 62
     7
 10
54.02939437014356
 20
433.0032688349927
  0
VERTEX
  8
1
  6
CONTINUOUS
 62
     7
 10
54.04876795491533
 20
432.9649713202496
  0
VERTEX
  8
1
  6
CONTINUOUS
 62
     7
 10
54.06600722193756
 20
432.9269649167028
  0
VERTEX
  8
1
  6
CONTINUOUS
 62
     7
 10
54.08166042586221
 20
432.8882356365282
  0
VERTEX
  8
1
  6
CONTINUOUS
 62
     7
 10
54.09568853951212
 20
432.8488849342968
  0
VERTEX
  8
1
  6
CONTINUOUS
 62
     7
 10
54.10805253571016
 20
432.8090142645798
  0
VERTEX
  8
1
  6
CONTINUOUS
 62
     7
 10
54.11902303866562
 20
432.7674691031011
  0
VERTEX
  8
1
  6
CONTINUOUS
 62
     7
 10
54.12820796458782
 20
432.7254479809586
  0
VERTEX
  8
1
  6
CONTINUOUS
 62
     7
 10
54.13558387064457
 20
432.6830674054629
  0
VERTEX
  8
1
  6
CONTINUOUS
 62
     7
 10
54.14112731400369
 20
432.6404438839249
  0
VERTEX
  8
1
  6
CONTINUOUS
 62
     7
 10
54.14474248292309
 20
432.5989079933315
  0
VERTEX
  8
1
  6
CONTINUOUS
 62
     7
 10
54.14662487411642
 20
432.5572167661865
  0
VERTEX
  8
1
  6
CONTINUOUS
 62
     7
 10
54.14677129083473
 20
432.515478922417
  0
VERTEX
  8
1
  6
CONTINUOUS
 62
     7
 10
54.14517853632906
 20
432.4738031819506
  0
VERTEX
  8
1
  6
CONTINUOUS
 62
     7
 10
54.1417178769364
 20
432.4310096824458
  0
VERTEX
  8
1
  6
CONTINUOUS
 62
     7
 10
54.13641800533618
 20
432.3883602339181
  0
VERTEX
  8
1
  6
CONTINUOUS
 62
     7
 10
54.12929556596827
 20
432.3459726520834
  0
VERTEX
  8
1
  6
CONTINUOUS
 62
     7
 10
54.12036720327253
 20
432.303964752658
  0
VERTEX
  8
1
  6
CONTINUOUS
 62
     7
 10
54.11001564399052
 20
432.2637339572245
  0
VERTEX
  8
1
  6
CONTINUOUS
 62
     7
 10
54.09799062383102
 20
432.2239299387664
  0
VERTEX
  8
1
  6
CONTINUOUS
 62
     7
 10
54.08432511499403
 20
432.184655491836
  0
VERTEX
  8
1
  6
CONTINUOUS
 62
     7
 10
54.06905208967951
 20
432.1460134109852
  0
VERTEX
  8
1
  6
CONTINUOUS
 62
     7
 10
54.05166335477684
 20
432.1069421071259
  0
VERTEX
  8
1
  6
CONTINUOUS
 62
     7
 10
54.03260128620393
 20
432.0686125523013
  0
VERTEX
  8
1
  6
CONTINUOUS
 62
     7
 10
54.01192039442678
 20
432.0311293008124
  0
VERTEX
  8
1
  6
CONTINUOUS
 62
     7
 10
53.98967518991137
 20
431.9945969069601
  0
VERTEX
  8
1
  6
CONTINUOUS
 62
     7
 10
53.97234795633245
 20
431.9683873527665
  0
VERTEX
  8
1
  6
CONTINUOUS
 62
     7
 10
53.95420578640387
 20
431.9427345185283
  0
VERTEX
  8
1
  6
CONTINUOUS
 62
     7
 10
53.93518894146528
 20
431.9175651279174
  0
VERTEX
  8
1
  6
CONTINUOUS
 62
     7
 10
53.91538775127148
 20
431.8930077965128
  0
SEQEND
  8
1
  6
CONTINUOUS
 62
     7
  0
POLYLINE
  8
1
  6
CONTINUOUS
 62
     7
 66
     1
  0
VERTEX
  8
1
  6
CONTINUOUS
 62
     7
 10
63.37358002224722
 20
435.3355082531147
  0
VERTEX
  8
1
  6
CONTINUOUS
 62
     7
 10
63.34274917708869
 20
435.3415661320424
  0
VERTEX
  8
1
  6
CONTINUOUS
 62
     7
 10
63.31212398079693
 20
435.3485893359697
  0
VERTEX
  8
1
  6
CONTINUOUS
 62
     7
 10
63.28161393194867
 20
435.3566051836889
  0
VERTEX
  8
1
  6
CONTINUOUS
 62
     7
 10
63.25137232120902
 20
435.3655789815411
  0
VERTEX
  8
1
  6
CONTINUOUS
 62
     7
 10
63.21198987553628
 20
435.3788532023086
  0
VERTEX
  8
1
  6
CONTINUOUS
 62
     7
 10
63.17316071018135
 20
435.3937646817258
  0
VERTEX
  8
1
  6
CONTINUOUS
 62
     7
 10
63.13498488409405
 20
435.4102723341911
  0
VERTEX
  8
1
  6
CONTINUOUS
 62
     7
 10
63.0975624562242
 20
435.4283350741027
  0
VERTEX
  8
1
  6
CONTINUOUS
 62
     7
 10
63.05987129545641
 20
435.4485370467161
  0
VERTEX
  8
1
  6
CONTINUOUS
 62
     7
 10
63.02304712069323
 20
435.4703504046442
  0
VERTEX
  8
1
  6
CONTINUOUS
 62
     7
 10
62.98718965278041
 20
435.4937126522119
  0
VERTEX
  8
1
  6
CONTINUOUS
 62
     7
 10
62.95239861256367
 20
435.5185612937441
  0
VERTEX
  8
1
  6
CONTINUOUS
 62
     7
 10
62.91950501050763
 20
435.5442286404582
  0
VERTEX
  8
1
  6
CONTINUOUS
 62
     7
 10
62.88768589995137
 20
435.5712667586592
  0
VERTEX
  8
1
  6
CONTINUOUS
 62
     7
 10
62.85702259726077
 20
435.5996028974025
  0
VERTEX
  8
1
  6
CONTINUOUS
 62
     7
 10
62.82759641880173
 20
435.6291643057432
  0
VERTEX
  8
1
  6
CONTINUOUS
 62
     7
 10
62.79863019723565
 20
435.6608486969146
  0
VERTEX
  8
1
  6
CONTINUOUS
 62
     7
 10
62.77102800967153
 20
435.6937738569325
  0
VERTEX
  8
1
  6
CONTINUOUS
 62
     7
 10
62.74486362912285
 20
435.7278468950507
  0
VERTEX
  8
1
  6
CONTINUOUS
 62
     7
 10
62.72021082860304
 20
435.7629749205229
  0
VERTEX
  8
1
  6
CONTINUOUS
 62
     7
 10
62.69769602162463
 20
435.7981460107785
  0
VERTEX
  8
1
  6
CONTINUOUS
 62
     7
 10
62.67665304675288
 20
435.8342541515714
  0
VERTEX
  8
1
  6
CONTINUOUS
 62
     7
 10
62.6571343511159
 20
435.8712037954384
  0
VERTEX
  8
1
  6
CONTINUOUS
 62
     7
 10
62.63919238184184
 20
435.9088993949161
  0
VERTEX
  8
1
  6
CONTINUOUS
 62
     7
 10
62.62239306643759
 20
435.9484449531228
  0
VERTEX
  8
1
  6
CONTINUOUS
 62
     7
 10
62.60729537328461
 20
435.9887090466962
  0
VERTEX
  8
1
  6
CONTINUOUS
 62
     7
 10
62.59393808578227
 20
436.0295796685055
  0
VERTEX
  8
1
  6
CONTINUOUS
 62
     7
 10
62.58235998732984
 20
436.0709448114197
  0
VERTEX
  8
1
  6
CONTINUOUS
 62
     7
 10
62.57283555451577
 20
436.1115469667485
  0
VERTEX
  8
1
  6
CONTINUOUS
 62
     7
 10
62.56500598404192
 20
436.1525438880802
  0
VERTEX
  8
1
  6
CONTINUOUS
 62
     7
 10
62.55888908656616
 20
436.1938287611035
  0
VERTEX
  8
1
  6
CONTINUOUS
 62
     7
 10
62.55450267274639
 20
436.235294771507
  0
VERTEX
  8
1
  6
CONTINUOUS
 62
     7
 10
62.55180473770985
 20
436.278120112541
  0
VERTEX
  8
1
  6
CONTINUOUS
 62
     7
 10
62.55094573236551
 20
436.3210597678337
  0
VERTEX
  8
1
  6
CONTINUOUS
 62
     7
 10
62.55192536062008
 20
436.3639958313584
  0
VERTEX
  8
1
  6
CONTINUOUS
 62
     7
 10
62.5547433263802
 20
436.4068103970887
  0
SEQEND
  8
1
  6
CONTINUOUS
 62
     7
  0
POLYLINE
  8
1
  6
CONTINUOUS
 62
     7
 66
     1
  0
VERTEX
  8
1
  6
CONTINUOUS
 62
     7
 10
53.38692359941684
 20
419.7891887616836
  0
VERTEX
  8
1
  6
CONTINUOUS
 62
     7
 10
53.4098153192715
 20
419.7547263233825
  0
VERTEX
  8
1
  6
CONTINUOUS
 62
     7
 10
53.43128024630844
 20
419.7193163229992
  0
VERTEX
  8
1
  6
CONTINUOUS
 62
     7
 10
53.45126500982235
 20
419.6830512432491
  0
VERTEX
  8
1
  6
CONTINUOUS
 62
     7
 10
53.46971623910792
 20
419.6460235668478
  0
VERTEX
  8
1
  6
CONTINUOUS
 62
     7
 10
53.48707891266887
 20
419.6071598630517
  0
VERTEX
  8
1
  6
CONTINUOUS
 62
     7
 10
53.5027855675531
 20
419.5675582858445
  0
VERTEX
  8
1
  6
CONTINUOUS
 62
     7
 10
53.51679595899522
 20
419.5273278241933
  0
VERTEX
  8
1
  6
CONTINUOUS
 62
     7
 10
53.52906984222982
 20
419.4865774670653
  0
VERTEX
  8
1
  6
CONTINUOUS
 62
     7
 10
53.53931327113348
 20
419.4465341465421
  0
VERTEX
  8
1
  6
CONTINUOUS
 62
     7
 10
53.54789996815812
 20
419.4060701451774
  0
VERTEX
  8
1
  6
CONTINUOUS
 62
     7
 10
53.55481044787598
 20
419.365289883308
  0
VERTEX
  8
1
  6
CONTINUOUS
 62
     7
 10
53.5600252248593
 20
419.324297781271
  0
VERTEX
  8
1
  6
CONTINUOUS
 62
     7
 10
53.56361076849005
 20
419.2819407913377
  0
VERTEX
  8
1
  6
CONTINUOUS
 62
     7
 10
53.56539446777487
 20
419.2394354376895
  0
VERTEX
  8
1
  6
CONTINUOUS
 62
     7
 10
53.56537449003757
 20
419.1968970428433
  0
VERTEX
  8
1
  6
CONTINUOUS
 62
     7
 10
53.56354900260196
 20
419.1544409293157
  0
VERTEX
  8
1
  6
CONTINUOUS
 62
     7
 10
53.56003322489883
 20
419.1132152413506
  0
VERTEX
  8
1
  6
CONTINUOUS
 62
     7
 10
53.55481125299728
 20
419.0721394057122
  0
VERTEX
  8
1
  6
CONTINUOUS
 62
     7
 10
53.54789917868677
 20
419.0313183532021
  0
VERTEX
  8
1
  6
CONTINUOUS
 62
     7
 10
53.53931309375675
 20
418.9908570146218
  0
VERTEX
  8
1
  6
CONTINUOUS
 62
     7
 10
53.5287362201678
 20
418.9496455609525
  0
VERTEX
  8
1
  6
CONTINUOUS
 62
     7
 10
53.51640608719949
 20
418.9088886370644
  0
VERTEX
  8
1
  6
CONTINUOUS
 62
     7
 10
53.50235890746134
 20
418.8686956352364
  0
VERTEX
  8
1
  6
CONTINUOUS
 62
     7
 10
53.48663089356287
 20
418.8291759477474
  0
VERTEX
  8
1
  6
CONTINUOUS
 62
     7
 10
53.46966089389242
 20
418.791273557554
  0
VERTEX
  8
1
  6
CONTINUOUS
 62
     7
 10
53.45111750316197
 20
418.7540794993663
  0
VERTEX
  8
1
  6
CONTINUOUS
 62
     7
 10
53.43105079034925
 20
418.7176883368066
  0
VERTEX
  8
1
  6
CONTINUOUS
 62
     7
 10
53.40951082443201
 20
418.6821946334974
  0
VERTEX
  8
1
  6
CONTINUOUS
 62
     7
 10
53.38582614027855
 20
418.6466474174719
  0
VERTEX
  8
1
  6
CONTINUOUS
 62
     7
 10
53.36062360055211
 20
418.6121146846301
  0
VERTEX
  8
1
  6
CONTINUOUS
 62
     7
 10
53.33397399375701
 20
418.5786887567628
  0
VERTEX
  8
1
  6
CONTINUOUS
 62
     7
 10
53.30594810839754
 20
418.5464619556614
  0
VERTEX
  8
1
  6
CONTINUOUS
 62
     7
 10
53.28282046579712
 20
418.5218406924952
  0
VERTEX
  8
1
  6
CONTINUOUS
 62
     7
 10
53.2588751734364
 20
418.4980148885554
  0
VERTEX
  8
1
  6
CONTINUOUS
 62
     7
 10
53.23402395976778
 20
418.4749086072059
  0
VERTEX
  8
1
  6
CONTINUOUS
 62
     7
 10
53.20840356904505
 20
418.4526587706479
  0
SEQEND
  8
1
  6
CONTINUOUS
 62
     7
  0
POLYLINE
  8
1
  6
CONTINUOUS
 62
     7
 66
     1
  0
VERTEX
  8
1
  6
CONTINUOUS
 62
     7
 10
67.88321505285788
 20
434.4674052945218
  0
VERTEX
  8
1
  6
CONTINUOUS
 62
     7
 10
67.8633758140476
 20
434.4400668311559
  0
VERTEX
  8
1
  6
CONTINUOUS
 62
     7
 10
67.84262461305335
 20
434.413413544918
  0
VERTEX
  8
1
  6
CONTINUOUS
 62
     7
 10
67.8208833665411
 20
434.3873590435198
  0
VERTEX
  8
1
  6
CONTINUOUS
 62
     7
 10
67.79827038406158
 20
434.3620564553291
  0
VERTEX
  8
1
  6
CONTINUOUS
 62
     7
 10
67.76945964201146
 20
434.3321736020229
  0
VERTEX
  8
1
  6
CONTINUOUS
 62
     7
 10
67.73940648547637
 20
434.3034863721442
  0
VERTEX
  8
1
  6
CONTINUOUS
 62
     7
 10
67.70818951766663
 20
434.2760670853552
  0
VERTEX
  8
1
  6
CONTINUOUS
 62
     7
 10
67.67588734179247
 20
434.249988061318
  0
VERTEX
  8
1
  6
CONTINUOUS
 62
     7
 10
67.6415455506565
 20
434.2245832585616
  0
VERTEX
  8
1
  6
CONTINUOUS
 62
     7
 10
67.60611522345172
 20
434.2006448041048
  0
VERTEX
  8
1
  6
CONTINUOUS
 62
     7
 10
67.56969405657217
 20
434.1782362316115
  0
VERTEX
  8
1
  6
CONTINUOUS
 62
     7
 10
67.53237974641185
 20
434.1574210747455
  0
VERTEX
  8
1
  6
CONTINUOUS
 62
     7
 10
67.49545409286605
 20
434.1388203396127
  0
VERTEX
  8
1
  6
CONTINUOUS
 62
     7
 10
67.45775534453692
 20
434.1217458064558
  0
VERTEX
  8
1
  6
CONTINUOUS
 62
     7
 10
67.41938059477475
 20
434.1062395965394
  0
VERTEX
  8
1
  6
CONTINUOUS
 62
     7
 10
67.38042693692988
 20
434.092343831128
  0
VERTEX
  8
1
  6
CONTINUOUS
 62
     7
 10
67.33978337024924
 20
434.0797476800888
  0
VERTEX
  8
1
  6
CONTINUOUS
 62
     7
 10
67.29859894526537
 20
434.0688810330348
  0
VERTEX
  8
1
  6
CONTINUOUS
 62
     7
 10
67.25698586968697
 20
434.0597715650641
  0
VERTEX
  8
1
  6
CONTINUOUS
 62
     7
 10
67.21505635122273
 20
434.0524469512752
  0
VERTEX
  8
1
  6
CONTINUOUS
 62
     7
 10
67.17410334422975
 20
434.0470579183503
  0
VERTEX
  8
1
  6
CONTINUOUS
 62
     7
 10
67.13292321203342
 20
434.0433612760897
  0
VERTEX
  8
1
  6
CONTINUOUS
 62
     7
 10
67.09162158573706
 20
434.0413648308992
  0
VERTEX
  8
1
  6
CONTINUOUS
 62
     7
 10
67.050304096444
 20
434.0410763891842
  0
VERTEX
  8
1
  6
CONTINUOUS
 62
     7
 10
67.00781851315686
 20
434.042568414751
  0
VERTEX
  8
1
  6
CONTINUOUS
 62
     7
 10
66.9653923161202
 20
434.0458682088291
  0
VERTEX
  8
1
  6
CONTINUOUS
 62
     7
 10
66.92314064424505
 20
434.0509648211366
  0
VERTEX
  8
1
  6
CONTINUOUS
 62
     7
 10
66.88117863644246
 20
434.0578473013913
  0
VERTEX
  8
1
  6
CONTINUOUS
 62
     7
 10
66.84068023596531
 20
434.066254341583
  0
VERTEX
  8
1
  6
CONTINUOUS
 62
     7
 10
66.80052704828026
 20
434.0763382916542
  0
VERTEX
  8
1
  6
CONTINUOUS
 62
     7
 10
66.7608220293962
 20
434.088071317559
  0
VERTEX
  8
1
  6
CONTINUOUS
 62
     7
 10
66.72166813532205
 20
434.1014255852517
  0
VERTEX
  8
1
  6
CONTINUOUS
 62
     7
 10
66.68199451510696
 20
434.1168517651637
  0
VERTEX
  8
1
  6
CONTINUOUS
 62
     7
 10
66.64297659009814
 20
434.1339685350032
  0
VERTEX
  8
1
  6
CONTINUOUS
 62
     7
 10
66.60471990581823
 20
434.1527270143263
  0
VERTEX
  8
1
  6
CONTINUOUS
 62
     7
 10
66.5673300077899
 20
434.173078322689
  0
SEQEND
  8
1
  6
CONTINUOUS
 62
     7
  0
ARC
  8
1
  6
CONTINUOUS
 62
     7
 10
61.6
 20
425.4940442408507
 40
9.999999999999998
 50
180.0
 51
214.7840914295459
  0
ARC
  8
1
  6
CONTINUOUS
 62
     7
 10
61.6
 20
425.4940442408507
 40
9.999999999999998
 50
140.2159085704541
 51
180.0
  0
ARC
  8
1
  6
CONTINUOUS
 62
     7
 10
61.6
 20
425.4940442408507
 40
9.999999999999998
 50
60.21590857045412
 51
79.78409142954587
  0
LINE
  8
1
  6
CONTINUOUS
 62
     7
 10
73.65777757308807
 20
432.9940442408508
 11
73.4215904212869
 21
432.9940442408508
  0
LINE
  8
1
  6
CONTINUOUS
 62
     7
 10
74.67669683062203
 20
431.0293852420899
 11
73.65777757300242
 21
432.9940442408508
  0
LINE
  8
1
  6
CONTINUOUS
 62
     7
 10
74.67669683062203
 20
431.0293852420899
 11
74.67669667130062
 21
430.4940446575302
  0
LINE
  8
1
  6
CONTINUOUS
 62
     7
 10
69.6
 20
416.819368454402
 11
69.6
 21
415.0059557591492
  0
ARC
  8
1
  6
CONTINUOUS
 62
     7
 10
70.6
 20
416.819368454402
 40
1.000000000000001
 50
136.0544804376912
 51
180.0
  0
ARC
  8
1
  6
CONTINUOUS
 62
     7
 10
70.1
 20
415.0059557591492
 40
0.4999999999999993
 50
180.0000000000002
 51
309.0228025652325
  0
ARC
  8
1
  6
CONTINUOUS
 62
     7
 10
61.6
 20
425.4940442408507
 40
14.0
 50
309.0228025652328
 51
15.26433691744682
  0
ARC
  8
1
  6
CONTINUOUS
 62
     7
 10
61.6
 20
425.4940442408507
 40
11.5
 50
316.0544804376912
 51
47.57723048127009
  0
POLYLINE
  8
1
  6
CONTINUOUS
 62
     7
 66
     1
  0
VERTEX
  8
1
  6
CONTINUOUS
 62
     7
 10
53.6
 20
416.819368454402
  0
VERTEX
  8
1
  6
CONTINUOUS
 62
     7
 10
53.59998571422906
 20
416.8247136715337
  0
VERTEX
  8
1
  6
CONTINUOUS
 62
     7
 10
53.59828425839216
 20
416.8779221856785
  0
VERTEX
  8
1
  6
CONTINUOUS
 62
     7
 10
53.59374148592394
 20
416.9310727925191
  0
VERTEX
  8
1
  6
CONTINUOUS
 62
     7
 10
53.58632846100566
 20
416.9841597375762
  0
VERTEX
  8
1
  6
CONTINUOUS
 62
     7
 10
53.57603101063936
 20
417.0369999463164
  0
VERTEX
  8
1
  6
CONTINUOUS
 62
     7
 10
53.55986964524503
 20
417.0998151921568
  0
VERTEX
  8
1
  6
CONTINUOUS
 62
     7
 10
53.53950935660268
 20
417.1618916928243
  0
VERTEX
  8
1
  6
CONTINUOUS
 62
     7
 10
53.51476073580314
 20
417.2233647852111
  0
VERTEX
  8
1
  6
CONTINUOUS
 62
     7
 10
53.48566380029873
 20
417.2836955296845
  0
VERTEX
  8
1
  6
CONTINUOUS
 62
     7
 10
53.45150178539091
 20
417.3437205859933
  0
VERTEX
  8
1
  6
CONTINUOUS
 62
     7
 10
53.41268460422306
 20
417.402072267723
  0
VERTEX
  8
1
  6
CONTINUOUS
 62
     7
 10
53.40033384887979
 20
417.4189230643804
  0
SEQEND
  8
1
  6
CONTINUOUS
 62
     7
  0
LINE
  8
1
  6
CONTINUOUS
 62
     7
 10
53.6
 20
415.0059557591492
 11
53.6
 21
416.819368454402
  0
POLYLINE
  8
1
  6
CONTINUOUS
 62
     7
 66
     1
  0
VERTEX
  8
1
  6
CONTINUOUS
 62
     7
 10
52.78518518518518
 20
414.6175080376047
  0
VERTEX
  8
1
  6
CONTINUOUS
 62
     7
 10
52.80528601739792
 20
414.6020472631982
  0
VERTEX
  8
1
  6
CONTINUOUS
 62
     7
 10
52.82572106659605
 20
414.5879030324906
  0
VERTEX
  8
1
  6
CONTINUOUS
 62
     7
 10
52.84638483660989
 20
414.5750525303334
  0
VERTEX
  8
1
  6
CONTINUOUS
 62
     7
 10
52.86717183126976
 20
414.5634729415781
  0
VERTEX
  8
1
  6
CONTINUOUS
 62
     7
 10
52.88870661750887
 20
414.5527948755048
  0
VERTEX
  8
1
  6
CONTINUOUS
 62
     7
 10
52.91027054915653
 20
414.5433522243194
  0
VERTEX
  8
1
  6
CONTINUOUS
 62
     7
 10
52.93178955776163
 20
414.5351003909806
  0
VERTEX
  8
1
  6
CONTINUOUS
 62
     7
 10
52.95318957487309
 20
414.5279947784467
  0
VERTEX
  8
1
  6
CONTINUOUS
 62
     7
 10
52.98169380050839
 20
414.5201527539164
  0
VERTEX
  8
1
  6
CONTINUOUS
 62
     7
 10
53.0098636905494
 20
414.5141461743343
  0
VERTEX
  8
1
  6
CONTINUOUS
 62
     7
 10
53.03760184463493
 20
414.509864095119
  0
VERTEX
  8
1
  6
CONTINUOUS
 62
     7
 10
53.06481086240383
 20
414.5071955716891
  0
VERTEX
  8
1
  6
CONTINUOUS
 62
     7
 10
53.10114793368464
 20
414.5059552878274
  0
VERTEX
  8
1
  6
CONTINUOUS
 62
     7
 10
53.13636860915655
 20
414.5072786900661
  0
VERTEX
  8
1
  6
CONTINUOUS
 62
     7
 10
53.17035925434423
 20
414.5109309362079
  0
VERTEX
  8
1
  6
CONTINUOUS
 62
     7
 10
53.20831109257268
 20
414.5178221255658
  0
VERTEX
  8
1
  6
CONTINUOUS
 62
     7
 10
53.24452997599565
 20
414.5272910526248
  0
VERTEX
  8
1
  6
CONTINUOUS
 62
     7
 10
53.27895900121505
 20
414.5390747333929
  0
VERTEX
  8
1
  6
CONTINUOUS
 62
     7
 10
53.31154126483277
 20
414.5529101838779
  0
VERTEX
  8
1
  6
CONTINUOUS
 62
     7
 10
53.35317147324638
 20
414.5747844289082
  0
VERTEX
  8
1
  6
CONTINUOUS
 62
     7
 10
53.39143620550782
 20
414.599669337907
  0
VERTEX
  8
1
  6
CONTINUOUS
 62
     7
 10
53.42632459147148
 20
414.6271256375895
  0
VERTEX
  8
1
  6
CONTINUOUS
 62
     7
 10
53.46650478148707
 20
414.6658298959183
  0
VERTEX
  8
1
  6
CONTINUOUS
 62
     7
 10
53.50127624797713
 20
414.7076393015929
  0
VERTEX
  8
1
  6
CONTINUOUS
 62
     7
 10
53.53069222372955
 20
414.7519670244116
  0
VERTEX
  8
1
  6
CONTINUOUS
 62
     7
 10
53.55480594153219
 20
414.7982262341726
  0
VERTEX
  8
1
  6
CONTINUOUS
 62
     7
 10
53.57429701564735
 20
414.847702538115
  0
VERTEX
  8
1
  6
CONTINUOUS
 62
     7
 10
53.58830406277806
 20
414.8984348052252
  0
VERTEX
  8
1
  6
CONTINUOUS
 62
     7
 10
53.59685639721298
 20
414.9499745529961
  0
VERTEX
  8
1
  6
CONTINUOUS
 62
     7
 10
53.59998333324074
 20
415.00187329892
  0
VERTEX
  8
1
  6
CONTINUOUS
 62
     7
 10
53.6
 20
415.0059557591492
  0
SEQEND
  8
1
  6
CONTINUOUS
 62
     7
  0
LINE
  8
1
  6
CONTINUOUS
 62
     7
 10
52.78518518518518
 20
414.6175080376047
 11
51.09999999999999
 21
416.2339146521247
  0
ARC
  8
1
  6
CONTINUOUS
 62
     7
 10
61.6
 20
425.4940442408507
 40
14.0
 50
185.6070407488914
 51
221.4096221092707
  0
LINE
  8
1
  6
CONTINUOUS
 62
     7
 10
69.79546660295532
 20
417.4265584391995
 11
69.87978231534501
 21
417.5131166750537
  0
LINE
  8
1
  6
CONTINUOUS
 62
     7
 10
48.52330316937798
 20
431.0293852420899
 11
48.52330332869938
 21
430.4940446575302
  0
LINE
  8
1
  6
CONTINUOUS
 62
     7
 10
49.54222242677253
 20
432.9940442408508
 11
48.52330316937798
 21
431.02938524209
  0
LINE
  8
1
  6
CONTINUOUS
 62
     7
 10
49.77840958246312
 20
432.9940442408508
 11
49.54222242677253
 21
432.9940442408508
  0
LINE
  8
1
  6
CONTINUOUS
 62
     7
 10
55.31678494714212
 20
434.4674052945218
 11
55.00387098196297
 21
434.9142927501741
  0
LINE
  8
1
  6
CONTINUOUS
 62
     7
 10
69.34596669241482
 20
433.2400109332656
 11
69.7317279836453
 21
433.625772224496
  0
LINE
  8
1
  6
CONTINUOUS
 62
     7
 10
70.40951109586825
 20
418.1019867294555
 11
69.99159643095496
 21
418.4526587706479
  0
LINE
  8
1
  6
CONTINUOUS
 62
     7
 10
60.59770895840193
 20
436.9502832689058
 11
60.64525667361981
 21
436.4068103970887
  0
POLYLINE
  8
1
  6
CONTINUOUS
 62
     7
 66
     1
  0
VERTEX
  8
1
  6
CONTINUOUS
 62
     7
 10
60.64525667361981
 20
436.4068103970887
  0
VERTEX
  8
1
  6
CONTINUOUS
 62
     7
 10
60.6480204544159
 20
436.3652092389721
  0
VERTEX
  8
1
  6
CONTINUOUS
 62
     7
 10
60.64904862048152
 20
436.3234923106023
  0
VERTEX
  8
1
  6
CONTINUOUS
 62
     7
 10
60.64834063952807
 20
436.2817677871576
  0
VERTEX
  8
1
  6
CONTINUOUS
 62
     7
 10
60.64589597926695
 20
436.2401438438168
  0
VERTEX
  8
1
  6
CONTINUOUS
 62
     7
 10
60.64156326830338
 20
436.197451490941
  0
VERTEX
  8
1
  6
CONTINUOUS
 62
     7
 10
60.63539694932678
 20
436.1549432247682
  0
VERTEX
  8
1
  6
CONTINUOUS
 62
     7
 10
60.62741615367108
 20
436.1127355100205
  0
VERTEX
  8
1
  6
CONTINUOUS
 62
     7
 10
60.61764001267017
 20
436.0709448114197
  0
VERTEX
  8
1
  6
CONTINUOUS
 62
     7
 10
60.60641601208734
 20
436.0307490299377
  0
VERTEX
  8
1
  6
CONTINUOUS
 62
     7
 10
60.5935123605425
 20
435.9910189945393
  0
VERTEX
  8
1
  6
CONTINUOUS
 62
     7
 10
60.57896437522468
 20
435.9518575101208
  0
VERTEX
  8
1
  6
CONTINUOUS
 62
     7
 10
60.56280737332295
 20
435.9133673815783
  0
VERTEX
  8
1
  6
CONTINUOUS
 62
     7
 10
60.54450655110927
 20
435.8744902381173
  0
VERTEX
  8
1
  6
CONTINUOUS
 62
     7
 10
60.52453195591406
 20
435.8363962344276
  0
VERTEX
  8
1
  6
CONTINUOUS
 62
     7
 10
60.50294051894181
 20
435.7991896890495
  0
VERTEX
  8
1
  6
CONTINUOUS
 62
     7
 10
60.47978917139698
 20
435.7629749205229
  0
VERTEX
  8
1
  6
CONTINUOUS
 62
     7
 10
60.45585979562789
 20
435.7288327965555
  0
VERTEX
  8
1
  6
CONTINUOUS
 62
     7
 10
60.43050318669984
 20
435.6956854859386
  0
VERTEX
  8
1
  6
CONTINUOUS
 62
     7
 10
60.40378677958326
 20
435.6636183277989
  0
VERTEX
  8
1
  6
CONTINUOUS
 62
     7
 10
60.37577800924861
 20
435.6327166612633
  0
VERTEX
  8
1
  6
CONTINUOUS
 62
     7
 10
60.34561985909456
 20
435.602159407745
  0
VERTEX
  8
1
  6
CONTINUOUS
 62
     7
 10
60.31414538483239
 20
435.5728947264958
  0
VERTEX
  8
1
  6
CONTINUOUS
 62
     7
 10
60.28144306732525
 20
435.5450021707505
  0
VERTEX
  8
1
  6
CONTINUOUS
 62
     7
 10
60.24760138743635
 20
435.5185612937441
  0
VERTEX
  8
1
  6
CONTINUOUS
 62
     7
 10
60.21381177613829
 20
435.4943965705075
  0
VERTEX
  8
1
  6
CONTINUOUS
 62
     7
 10
60.17901454638615
 20
435.4716344573186
  0
VERTEX
  8
1
  6
CONTINUOUS
 62
     7
 10
60.14330103141496
 20
435.4503325052514
  0
VERTEX
  8
1
  6
CONTINUOUS
 62
     7
 10
60.10676256445979
 20
435.4305482653797
  0
VERTEX
  8
1
  6
CONTINUOUS
 62
     7
 10
60.06832747069966
 20
435.4117951735165
  0
VERTEX
  8
1
  6
CONTINUOUS
 62
     7
 10
60.02908731606898
 20
435.3946858925295
  0
VERTEX
  8
1
  6
CONTINUOUS
 62
     7
 10
59.98915106421652
 20
435.3792654770081
  0
VERTEX
  8
1
  6
CONTINUOUS
 62
     7
 10
59.94862767879101
 20
435.3655789815411
  0
VERTEX
  8
1
  6
CONTINUOUS
 62
     7
 10
59.91850707110216
 20
435.3566390292492
  0
VERTEX
  8
1
  6
CONTINUOUS
 62
     7
 10
59.88812003864062
 20
435.3486493801736
  0
VERTEX
  8
1
  6
CONTINUOUS
 62
     7
 10
59.8573737178217
 20
435.3415923006613
  0
VERTEX
  8
1
  6
CONTINUOUS
 62
     7
 10
59.82641997775278
 20
435.3355082531147
  0
SEQEND
  8
1
  6
CONTINUOUS
 62
     7
  0
POLYLINE
  8
1
  6
CONTINUOUS
 62
     7
 66
     1
  0
VERTEX
  8
1
  6
CONTINUOUS
 62
     7
 10
69.28461224872855
 20
431.8930077965128
  0
VERTEX
  8
1
  6
CONTINUOUS
 62
     7
 10
69.26488838063398
 20
431.9174660862666
  0
VERTEX
  8
1
  6
CONTINUOUS
 62
     7
 10
69.24594254766
 20
431.9425316693286
  0
VERTEX
  8
1
  6
CONTINUOUS
 62
     7
 10
69.22772298187552
 20
431.9682836463013
  0
VERTEX
  8
1
  6
CONTINUOUS
 62
     7
 10
69.21032481008868
 20
431.9945969069601
  0
VERTEX
  8
1
  6
CONTINUOUS
 62
     7
 10
69.18868861106223
 20
432.0300800981333
  0
VERTEX
  8
1
  6
CONTINUOUS
 62
     7
 10
69.16852865892263
 20
432.0664618604642
  0
VERTEX
  8
1
  6
CONTINUOUS
 62
     7
 10
69.14989519395667
 20
432.1036464039026
  0
VERTEX
  8
1
  6
CONTINUOUS
 62
     7
 10
69.13283845645111
 20
432.1415379383985
  0
VERTEX
  8
1
  6
CONTINUOUS
 62
     7
 10
69.11695092987735
 20
432.1812409583953
  0
VERTEX
  8
1
  6
CONTINUOUS
 62
     7
 10
69.10276333162943
 20
432.2216210832966
  0
VERTEX
  8
1
  6
CONTINUOUS
 62
     7
 10
69.09031188086145
 20
432.2625663393137
  0
VERTEX
  8
1
  6
CONTINUOUS
 62
     7
 10
69.07963279672751
 20
432.3039647526579
  0
VERTEX
  8
1
  6
CONTINUOUS
 62
     7
 10
69.0709334880997
 20
432.3447706808174
  0
VERTEX
  8
1
  6
CONTINUOUS
 62
     7
 10
69.06393840264192
 20
432.3859360110345
  0
VERTEX
  8
1
  6
CONTINUOUS
 62
     7
 10
69.05866306889862
 20
432.4273527436999
  0
VERTEX
  8
1
  6
CONTINUOUS
 62
     7
 10
69.05512301541422
 20
432.468912879204
  0
VERTEX
  8
1
  6
CONTINUOUS
 62
     7
 10
69.05329993641075
 20
432.5118036593165
  0
VERTEX
  8
1
  6
CONTINUOUS
 62
     7
 10
69.05331931891575
 20
432.5547681393534
  0
VERTEX
  8
1
  6
CONTINUOUS
 62
     7
 10
69.05517796731553
 20
432.5976877404959
  0
VERTEX
  8
1
  6
CONTINUOUS
 62
     7
 10
69.05887268599635
 20
432.6404438839248
  0
VERTEX
  8
1
  6
CONTINUOUS
 62
     7
 10
69.06423288425806
 20
432.6818587411338
  0
VERTEX
  8
1
  6
CONTINUOUS
 62
     7
 10
69.07132289580139
 20
432.7230453452581
  0
VERTEX
  8
1
  6
CONTINUOUS
 62
     7
 10
69.08012148073179
 20
432.7638967903303
  0
VERTEX
  8
1
  6
CONTINUOUS
 62
     7
 10
69.09060739915478
 20
432.804306170383
  0
VERTEX
  8
1
  6
CONTINUOUS
 62
     7
 10
69.1031577717745
 20
432.8453982172903
  0
VERTEX
  8
1
  6
CONTINUOUS
 62
     7
 10
69.11747352829504
 20
432.885946912523
  0
VERTEX
  8
1
  6
CONTINUOUS
 62
     7
 10
69.13351238172791
 20
432.9258415241524
  0
VERTEX
  8
1
  6
CONTINUOUS
 62
     7
 10
69.1512320450847
 20
432.9649713202496
  0
VERTEX
  8
1
  6
CONTINUOUS
 62
     7
 10
69.17003446862553
 20
433.00219656312
  0
VERTEX
  8
1
  6
CONTINUOUS
 62
     7
 10
69.19038898273935
 20
433.0386347777809
  0
VERTEX
  8
1
  6
CONTINUOUS
 62
     7
 10
69.21224057226576
 20
433.0741926912524
  0
VERTEX
  8
1
  6
CONTINUOUS
 62
     7
 10
69.23553422204441
 20
433.1087770305547
  0
VERTEX
  8
1
  6
CONTINUOUS
 62
     7
 10
69.26099508249904
 20
433.1433173442917
  0
VERTEX
  8
1
  6
CONTINUOUS
 62
     7
 10
69.28793812461475
 20
433.1767631866101
  0
VERTEX
  8
1
  6
CONTINUOUS
 62
     7
 10
69.31628733303789
 20
433.2090244265785
  0
VERTEX
  8
1
  6
CONTINUOUS
 62
     7
 10
69.34596669241482
 20
433.2400109332656
  0
SEQEND
  8
1
  6
CONTINUOUS
 62
     7
  0
POLYLINE
  8
1
  6
CONTINUOUS
 62
     7
 66
     1
  0
VERTEX
  8
1
  6
CONTINUOUS
 62
     7
 10
69.99159643095496
 20
418.4526587706479
  0
VERTEX
  8
1
  6
CONTINUOUS
 62
     7
 10
69.96609110228997
 20
418.4748052192451
  0
VERTEX
  8
1
  6
CONTINUOUS
 62
     7
 10
69.94134782618863
 20
418.4978004426133
  0
VERTEX
  8
1
  6
CONTINUOUS
 62
     7
 10
69.91728734452231
 20
418.52172975654
  0
VERTEX
  8
1
  6
CONTINUOUS
 62
     7
 10
69.89405189160247
 20
418.5464619556614
  0
VERTEX
  8
1
  6
CONTINUOUS
 62
     7
 10
69.86679377319749
 20
418.5777675264151
  0
VERTEX
  8
1
  6
CONTINUOUS
 62
     7
 10
69.84083501206912
 20
418.6102065784437
  0
VERTEX
  8
1
  6
CONTINUOUS
 62
     7
 10
69.81624080196023
 20
418.643694504572
  0
VERTEX
  8
1
  6
CONTINUOUS
 62
     7
 10
69.79307633661365
 20
418.6781466976248
  0
VERTEX
  8
1
  6
CONTINUOUS
 62
     7
 10
69.77076129111536
 20
418.7145719823309
  0
VERTEX
  8
1
  6
CONTINUOUS
 62
     7
 10
69.75000188618836
 20
418.7519538602224
  0
VERTEX
  8
1
  6
CONTINUOUS
 62
     7
 10
69.73085289892985
 20
418.7901894693457
  0
VERTEX
  8
1
  6
CONTINUOUS
 62
     7
 10
69.71336910643713
 20
418.8291759477474
  0
VERTEX
  8
1
  6
CONTINUOUS
 62
     7
 10
69.69805743547836
 20
418.8675822489195
  0
VERTEX
  8
1
  6
CONTINUOUS
 62
     7
 10
69.68433353848641
 20
418.906625685749
  0
VERTEX
  8
1
  6
CONTINUOUS
 62
     7
 10
69.67223091419851
 20
418.9462058632452
  0
VERTEX
  8
1
  6
CONTINUOUS
 62
     7
 10
69.66178306135194
 20
418.986222386417
  0
VERTEX
  8
1
  6
CONTINUOUS
 62
     7
 10
69.65277716271227
 20
419.0278091189554
  0
VERTEX
  8
1
  6
CONTINUOUS
 62
     7
 10
69.64554132568013
 20
419.0697839154634
  0
VERTEX
  8
1
  6
CONTINUOUS
 62
     7
 10
69.64009334049543
 20
419.1120325831729
  0
VERTEX
  8
1
  6
CONTINUOUS
 62
     7
 10
69.63645099739806
 20
419.1544409293157
  0
VERTEX
  8
1
  6
CONTINUOUS
 62
     7
 10
69.63465176111268
 20
419.1957077829202
  0
VERTEX
  8
1
  6
CONTINUOUS
 62
     7
 10
69.6345582707
 20
419.2370533958829
  0
VERTEX
  8
1
  6
CONTINUOUS
 62
     7
 10
69.63616909650268
 20
419.2783718586853
  0
VERTEX
  8
1
  6
CONTINUOUS
 62
     7
 10
69.63948280886335
 20
419.3195572618094
  0
VERTEX
  8
1
  6
CONTINUOUS
 62
     7
 10
69.64467201938982
 20
419.3617511360289
  0
VERTEX
  8
1
  6
CONTINUOUS
 62
     7
 10
69.65165694346993
 20
419.4037282925732
  0
VERTEX
  8
1
  6
CONTINUOUS
 62
     7
 10
69.66041663747346
 20
419.4453749850496
  0
VERTEX
  8
1
  6
CONTINUOUS
 62
     7
 10
69.67093015777017
 20
419.4865774670653
  0
VERTEX
  8
1
  6
CONTINUOUS
 62
     7
 10
69.68283487480944
 20
419.5261890370696
  0
VERTEX
  8
1
  6
CONTINUOUS
 62
     7
 10
69.69638003330253
 20
419.5653105555946
  0
VERTEX
  8
1
  6
CONTINUOUS
 62
     7
 10
69.71152893191314
 20
419.6038418843072
  0
VERTEX
  8
1
  6
CONTINUOUS
 62
     7
 10
69.72824486930502
 20
419.6416828848739
  0
VERTEX
  8
1
  6
CONTINUOUS
 62
     7
 10
69.74707013178256
 20
419.6798610548182
  0
VERTEX
  8
1
  6
CONTINUOUS
 62
     7
 10
69.76752240337974
 20
419.7172386800538
  0
VERTEX
  8
1
  6
CONTINUOUS
 62
     7
 10
69.7895437907591
 20
419.7537148769018
  0
VERTEX
  8
1
  6
CONTINUOUS
 62
     7
 10
69.81307640058318
 20
419.7891887616836
  0
SEQEND
  8
1
  6
CONTINUOUS
 62
     7
  0
POLYLINE
  8
1
  6
CONTINUOUS
 62
     7
 66
     1
  0
VERTEX
  8
1
  6
CONTINUOUS
 62
     7
 10
56.6326699922101
 20
434.173078322689
  0
VERTEX
  8
1
  6
CONTINUOUS
 62
     7
 10
56.59634354904455
 20
434.1532773121466
  0
VERTEX
  8
1
  6
CONTINUOUS
 62
     7
 10
56.55919750274435
 20
434.1349802505216
  0
VERTEX
  8
1
  6
CONTINUOUS
 62
     7
 10
56.52132863566378
 20
434.1182322450278
  0
VERTEX
  8
1
  6
CONTINUOUS
 62
     7
 10
56.48283373015712
 20
434.1030784028792
  0
VERTEX
  8
1
  6
CONTINUOUS
 62
     7
 10
56.44260465777698
 20
434.0891689945034
  0
VERTEX
  8
1
  6
CONTINUOUS
 62
     7
 10
56.40178485135453
 20
434.0769736130584
  0
VERTEX
  8
1
  6
CONTINUOUS
 62
     7
 10
56.36048639268348
 20
434.0665228511519
  0
VERTEX
  8
1
  6
CONTINUOUS
 62
     7
 10
56.31882136355755
 20
434.0578473013913
  0
VERTEX
  8
1
  6
CONTINUOUS
 62
     7
 10
56.27803764630401
 20
434.0511328571695
  0
VERTEX
  8
1
  6
CONTINUOUS
 62
     7
 10
56.23697924272394
 20
434.0461055052129
  0
VERTEX
  8
1
  6
CONTINUOUS
 62
     7
 10
56.19575187407033
 20
434.0427755559693
  0
VERTEX
  8
1
  6
CONTINUOUS
 62
     7
 10
56.15446126159609
 20
434.0411533198867
  0
VERTEX
  8
1
  6
CONTINUOUS
 62
     7
 10
56.11195295207918
 20
434.0412730752502
  0
VERTEX
  8
1
  6
CONTINUOUS
 62
     7
 10
56.06945388449834
 20
434.0432007491476
  0
VERTEX
  8
1
  6
CONTINUOUS
 62
     7
 10
56.02707910226167
 20
434.0469281162617
  0
VERTEX
  8
1
  6
CONTINUOUS
 62
     7
 10
55.98494364877727
 20
434.0524469512752
  0
VERTEX
  8
1
  6
CONTINUOUS
 62
     7
 10
55.94418125721834
 20
434.0595424058375
  0
VERTEX
  8
1
  6
CONTINUOUS
 62
     7
 10
55.90371685237538
 20
434.0683245015235
  0
VERTEX
  8
1
  6
CONTINUOUS
 62
     7
 10
55.86365356326474
 20
434.0787680624557
  0
VERTEX
  8
1
  6
CONTINUOUS
 62
     7
 10
55.82409451890273
 20
434.0908479127569
  0
VERTEX
  8
1
  6
CONTINUOUS
 62
     7
 10
55.78396172253036
 20
434.1049763530029
  0
VERTEX
  8
1
  6
CONTINUOUS
 62
     7
 10
55.74443453293954
 20
434.1208117660662
  0
VERTEX
  8
1
  6
CONTINUOUS
 62
     7
 10
55.70561877000167
 20
434.1383085429721
  0
VERTEX
  8
1
  6
CONTINUOUS
 62
     7
 10
55.66762025358815
 20
434.1574210747455
  0
VERTEX
  8
1
  6
CONTINUOUS
 62
     7
 10
55.63134112635816
 20
434.177629909413
  0
VERTEX
  8
1
  6
CONTINUOUS
 62
     7
 10
55.59590476578324
 20
434.1993444127105
  0
VERTEX
  8
1
  6
CONTINUOUS
 62
     7
 10
55.56140101184362
 20
434.222506464425
  0
VERTEX
  8
1
  6
CONTINUOUS
 62
     7
 10
55.52791970451953
 20
434.2470579443436
  0
VERTEX
  8
1
  6
CONTINUOUS
 62
     7
 10
55.49457201262218
 20
434.2737506451386
  0
VERTEX
  8
1
  6
CONTINUOUS
 62
     7
 10
55.46236723332346
 20
434.3018670075725
  0
VERTEX
  8
1
  6
CONTINUOUS
 62
     7
 10
55.43139116747749
 20
434.3313284661383
  0
VERTEX
  8
1
  6
CONTINUOUS
 62
     7
 10
55.40172961593843
 20
434.3620564553291
  0
VERTEX
  8
1
  6
CONTINUOUS
 62
     7
 10
55.37921775098089
 20
434.3872419747456
  0
VERTEX
  8
1
  6
CONTINUOUS
 62
     7
 10
55.3575695811592
 20
434.4131727036786
  0
VERTEX
  8
1
  6
CONTINUOUS
 62
     7
 10
55.33671715217171
 20
434.4399431960895
  0
VERTEX
  8
1
  6
CONTINUOUS
 62
     7
 10
55.31678494714212
 20
434.4674052945218
  0
SEQEND
  8
1
  6
CONTINUOUS
 62
     7
  0
ARC
  8
1
  6
CONTINUOUS
 62
     7
 10
61.6
 20
425.4940442408507
 40
9.999999999999998
 50
100.2159085704541
 51
119.7840914295459
  0
ARC
  8
1
  6
CONTINUOUS
 62
     7
 10
61.6
 20
425.4940442408507
 40
10.0
 50
325.2159085704541
 51
39.78409142954575
  0
ENDBLK
  8
0
  0
ENDSEC
  0
SECTION
  2
ENTITIES
  0
INSERT
  8
1
  6
CONTINUOUS
 62
     7
  2
D_FRAME_VIEW_2904
 10
0.0
 20
0.0
 30
0.0
  0
LINE
  8
1
  6
CONTINUOUS
 62
     7
 10
102.6
 20
417.4323408790774
 11
102.6
 21
429.0535336796059
  0
LINE
  8
1
  6
CONTINUOUS
 62
     7
 10
103.1
 20
414.6175080376047
 11
103.1
 21
429.0535336796059
  0
LINE
  8
1
  6
CONTINUOUS
 62
     7
 10
120.7
 20
417.4323408790774
 11
120.7
 21
437.1532680572118
  0
LINE
  8
1
  6
CONTINUOUS
 62
     7
 10
102.6
 20
417.4323408790774
 11
100.8782597578534
 21
417.2564063887504
  0
LINE
  8
1
  6
CONTINUOUS
 62
     7
 10
111.9
 20
433.9903669748339
 11
111.9
 21
416.0098825984024
  0
LINE
  8
1
  6
CONTINUOUS
 62
     7
 10
126.65
 20
438.4940442408508
 11
126.65
 21
417.2564063887504
  0
INSERT
  8
1
  6
CONTINUOUS
 62
     7
  2
D_FRAME_VIEW_2738
 10
0.0
 20
0.0
 30
0.0
  0
LINE
  8
1
  6
CENTER
 62
     1
 10
45.6
 20
425.4940442408507
 11
77.6
 21
425.4940442408507
  0
LINE
  8
1
  6
CENTER
 62
     1
 10
61.6
 20
409.4940442408507
 11
61.6
 21
441.4940442408508
  0
TEXT
  8
1
  6
CONTINUOUS
 62
     7
 10
80.50419844941854
 20
405.3284200325121
 40
3.0
  1
FRAK-16
  0
ENDSEC
  0
EOF
