  0
SECTION
  2
HEADER
  9
$ACADVER
  1
AC1004
  9
$INSBASE
 10
0.0
 20
0.0
  9
$EXTMIN
 10
-140.15
 20
474.8704545454544
  9
$EXTMAX
 10
-51.45
 20
519.243823707067
  9
$LIMMIN
 10
0.0
 20
0.0
  9
$LIMMAX
 10
12.0
 20
9.0
  9
$ORTHOMODE
 70
     0
  9
$REGENMODE
 70
     1
  9
$FILLMODE
 70
     1
  9
$QTEXTMODE
 70
     0
  9
$DRAGMODE
 70
     2
  9
$LTSCALE
 40
1.0
  9
$OSMODE
 70
    37
  9
$ATTMODE
 70
     1
  9
$TEXTSIZE
 40
0.2
  9
$TRACEWID
 40
0.05
  9
$TEXTSTYLE
  7
STANDARD
  9
$CLAYER
  8
0
  9
$CELTYPE
  6
BYLAYER
  9
$CECOLOR
 62
   256
  9
$DIMSCALE
 40
1.0
  9
$DIMASZ
 40
3.0
  9
$DIMEXO
 40
0.0625
  9
$DIMDLI
 40
0.38
  9
$DIMRND
 40
0.0
  9
$DIMDLE
 40
0.0
  9
$DIMEXE
 40
1.5
  9
$DIMTP
 40
0.0
  9
$DIMTM
 40
0.0
  9
$DIMTXT
 40
3.0
  9
$DIMCEN
 40
0.09
  9
$DIMTSZ
 40
0.0
  9
$DIMTOL
 70
     0
  9
$DIMLIM
 70
     0
  9
$DIMTIH
 70
     1
  9
$DIMTOH
 70
     1
  9
$DIMSE1
 70
     0
  9
$DIMSE2
 70
     0
  9
$DIMTAD
 70
     1
  9
$DIMZIN
 70
     0
  9
$DIMBLK
  1

  9
$DIMASO
 70
     1
  9
$DIMSHO
 70
     1
  9
$DIMPOST
  1

  9
$DIMAPOST
  1

  9
$DIMALT
 70
     0
  9
$DIMALTD
 70
     2
  9
$DIMALTF
 40
25.4
  9
$DIMLFAC
 40
1.0
  9
$DIMTOFL
 70
     0
  9
$DIMTVP
 40
0.0
  9
$DIMTIX
 70
     0
  9
$DIMSOXD
 70
     0
  9
$DIMSAH
 70
     0
  9
$DIMBLK1
  1

  9
$DIMBLK2
  1

  9
$LUNITS
 70
     2
  9
$LUPREC
 70
     4
  9
$SKETCHINC
 40
0.1
  9
$FILLETRAD
 40
0.5
  9
$AUNITS
 70
     0
  9
$AUPREC
 70
     0
  9
$MENU
  1
.
  9
$ELEVATION
 40
0.0
  9
$THICKNESS
 40
0.0
  9
$LIMCHECK
 70
     0
  9
$CHAMFERA
 40
0.0
  9
$CHAMFERB
 40
0.0
  9
$SKPOLY
 70
     0
  9
$TDCREATE
 40
2459069.401712176
  9
$TDUPDATE
 40
2459069.401712361
  9
$TDINDWG
 40
0.0000000116
  9
$TDUSRTIMER
 40
0.0000000116
  9
$USRTIMER
 70
     1
  9
$ANGBASE
 50
0.0
  9
$ANGDIR
 70
     0
  9
$PDMODE
 70
     0
  9
$PDSIZE
 40
0.0
  9
$PLINEWID
 40
0.0
  9
$COORDS
 70
     1
  9
$SPLFRAME
 70
     0
  9
$SPLINETYPE
 70
     6
  9
$SPLINESEGS
 70
     8
  9
$ATTDIA
 70
     0
  9
$ATTREQ
 70
     1
  9
$SURFTAB1
 70
     6
  9
$SURFTAB2
 70
     6
  9
$SURFTYPE
 70
     6
  9
$SURFU
 70
     6
  9
$SURFV
 70
     6
  9
$UCSNAME
  2

  9
$UCSORG
 10
0.0
 20
0.0
 30
0.0
  9
$UCSXDIR
 10
1.0
 20
0.0
 30
0.0
  9
$UCSYDIR
 10
0.0
 20
1.0
 30
0.0
  9
$USERI1
 70
     0
  9
$USERI2
 70
     0
  9
$USERI3
 70
     0
  9
$USERI4
 70
     0
  9
$USERI5
 70
     0
  9
$USERR1
 40
0.0
  9
$USERR2
 40
0.0
  9
$USERR3
 40
0.0
  9
$USERR4
 40
0.0
  9
$USERR5
 40
0.0
  9
$WORLDVIEW
 70
     1
  0
ENDSEC
  0
SECTION
  2
TABLES
  0
TABLE
  2
LTYPE
 70
     2
  0
LTYPE
  2
CONTINUOUS
 70
     0
  3
Solid line
 72
    65
 73
     0
 40
0.0
  0
LTYPE
  2
CENTER
 70
     0
  3

 72
    65
 73
     0
 40
0.0
  0
ENDTAB
  0
TABLE
  2
LAYER
 70
     2
  0
LAYER
  2
0
 70
     0
 62
     7
  6
CONTINUOUS
  0
LAYER
  2
1
 70
     0
 62
     7
  6
CONTINUOUS
  0
ENDTAB
  0
TABLE
  2
STYLE
 70
     2
  0
STYLE
  2
STANDARD
 70
     0
 40
0.0
 41
1.0
 50
0.0
 71
     0
 42
0.2
  3
txt
  4

  0
STYLE
  2
ＭＳ_ゴシック
 70
     0
 40
0.0
 41
1.0
 50
0.0
 71
     0
 42
0.2
  3
ＭＳ ゴシック.shx
  4

  0
ENDTAB
  0
TABLE
  2
VIEW
 70
     0
  0
ENDTAB
  0
ENDSEC
  0
SECTION
  2
BLOCKS
  0
BLOCK
  8
0
  2
D_FRAME_VIEW_2738
 70
     0
 10
0.0
 20
0.0
  0
LINE
  8
1
  6
CONTINUOUS
 62
     7
 10
-104.6444405960108
 20
507.3009397619314
 11
-105.7389575456744
 21
507.594214694696
  0
LINE
  8
1
  6
CONTINUOUS
 62
     7
 10
-106.6792032581594
 20
509.101229015947
 11
-106.5975311276941
 21
509.1584164573605
  0
LINE
  8
1
  6
CONTINUOUS
 62
     7
 10
-106.597531127694
 20
509.1584164573605
 11
-106.5733154109216
 21
509.2981744389687
  0
ARC
  8
1
  6
CONTINUOUS
 62
     7
 10
-120.4
 20
499.493823707067
 40
16.95000000000001
 50
35.34003629586363
 51
42.24799197334868
  0
POLYLINE
  8
1
  6
CONTINUOUS
 62
     7
 66
     1
  0
VERTEX
  8
1
  6
CONTINUOUS
 62
     7
 10
-107.8529033332405
 20
510.8900013660452
  0
VERTEX
  8
1
  6
CONTINUOUS
 62
     7
 10
-107.8813753033736
 20
510.9200684044799
  0
VERTEX
  8
1
  6
CONTINUOUS
 62
     7
 10
-107.9110920884787
 20
510.9489547913197
  0
VERTEX
  8
1
  6
CONTINUOUS
 62
     7
 10
-107.9419731897574
 20
510.9765862147835
  0
VERTEX
  8
1
  6
CONTINUOUS
 62
     7
 10
-107.9739381084114
 20
511.0028883630899
  0
VERTEX
  8
1
  6
CONTINUOUS
 62
     7
 10
-108.0079515973464
 20
511.0285497503464
  0
VERTEX
  8
1
  6
CONTINUOUS
 62
     7
 10
-108.0430527322138
 20
511.0527566169466
  0
VERTEX
  8
1
  6
CONTINUOUS
 62
     7
 10
-108.0791450968298
 20
511.0754464847333
  0
VERTEX
  8
1
  6
CONTINUOUS
 62
     7
 10
-108.1161322750109
 20
511.0965568755498
  0
VERTEX
  8
1
  6
CONTINUOUS
 62
     7
 10
-108.1517990701605
 20
511.1149944597619
  0
VERTEX
  8
1
  6
CONTINUOUS
 62
     7
 10
-108.1882070012659
 20
511.1319992726972
  0
VERTEX
  8
1
  6
CONTINUOUS
 62
     7
 10
-108.2252699956345
 20
511.1475327766715
  0
VERTEX
  8
1
  6
CONTINUOUS
 62
     7
 10
-108.2629019805737
 20
511.1615564340009
  0
VERTEX
  8
1
  6
CONTINUOUS
 62
     7
 10
-108.302129340408
 20
511.1743751099526
  0
VERTEX
  8
1
  6
CONTINUOUS
 62
     7
 10
-108.341897490246
 20
511.1855769114755
  0
VERTEX
  8
1
  6
CONTINUOUS
 62
     7
 10
-108.382100723881
 20
511.1951334044251
  0
VERTEX
  8
1
  6
CONTINUOUS
 62
     7
 10
-108.4226333351062
 20
511.2030161546567
  0
SEQEND
  8
1
  6
CONTINUOUS
 62
     7
  0
LINE
  8
1
  6
CONTINUOUS
 62
     7
 10
-135.8062569057122
 20
492.920411491543
 11
-136.5078427345809
 21
493.1084008478095
  0
ARC
  8
1
  6
CONTINUOUS
 62
     7
 10
-136.2490236894783
 20
494.0743266740985
 40
0.999999999999967
 50
231.0344241772309
 51
255.0000000000004
  0
POLYLINE
  8
1
  6
CONTINUOUS
 62
     7
 66
     1
  0
VERTEX
  8
1
  6
CONTINUOUS
 62
     7
 10
-136.8778770458372
 20
493.2968027476524
  0
VERTEX
  8
1
  6
CONTINUOUS
 62
     7
 10
-136.9592492678433
 20
493.3703525070752
  0
VERTEX
  8
1
  6
CONTINUOUS
 62
     7
 10
-137.0311387222493
 20
493.4511925990211
  0
VERTEX
  8
1
  6
CONTINUOUS
 62
     7
 10
-137.0941536525858
 20
493.5397657837801
  0
VERTEX
  8
1
  6
CONTINUOUS
 62
     7
 10
-137.1469522340825
 20
493.6341854140637
  0
VERTEX
  8
1
  6
CONTINUOUS
 62
     7
 10
-137.1937127724722
 20
493.7463593945164
  0
VERTEX
  8
1
  6
CONTINUOUS
 62
     7
 10
-137.1952340589994
 20
493.7507746124288
  0
SEQEND
  8
1
  6
CONTINUOUS
 62
     7
  0
ARC
  8
1
  6
CONTINUOUS
 62
     7
 10
-120.4
 20
499.493823707067
 40
17.75
 50
26.60276188343187
 51
198.877875142325
  0
LINE
  8
1
  6
CONTINUOUS
 62
     7
 10
-104.5291454262966
 20
507.4423125634697
 11
-104.6120151593483
 21
507.2977466632881
  0
LINE
  8
1
  6
CONTINUOUS
 62
     7
 10
-104.6120151593483
 20
507.2977466632881
 11
-104.6444405960108
 21
507.3009397619314
  0
ARC
  8
1
  6
CONTINUOUS
 62
     7
 10
-106.0588487795014
 20
508.7152054728758
 40
1.0
 50
212.7410783856417
 51
254.9999999999999
  0
ARC
  8
1
  6
CONTINUOUS
 62
     7
 10
-120.4
 20
499.493823707067
 40
16.05
 50
32.74107838564177
 51
34.64522510438493
  0
ARC
  8
1
  6
CONTINUOUS
 62
     7
 10
-107.1135904509726
 20
508.6749903701613
 40
0.0999999999999997
 50
125.0000000000002
 51
214.645225104385
  0
LINE
  8
1
  6
CONTINUOUS
 62
     7
 10
-107.1709480946077
 20
508.7569055745902
 11
-106.6792032581594
 21
509.101229015947
  0
LINE
  8
1
  6
CONTINUOUS
 62
     7
 10
-105.7389575456744
 20
507.594214694696
 11
-106.3176678246039
 21
507.7492796465868
  0
ARC
  8
1
  6
CONTINUOUS
 62
     7
 10
-120.4
 20
499.493823707067
 40
15.25
 50
52.54565967673722
 51
230.2485860402951
  0
ARC
  8
1
  6
CONTINUOUS
 62
     7
 10
-130.2156799232897
 20
487.6923438149718
 40
0.1000000000000008
 50
264.9999999999999
 51
50.24858604029612
  0
ARC
  8
1
  6
CONTINUOUS
 62
     7
 10
-133.2433427906934
 20
488.5864387793795
 40
0.1000000000000008
 50
129.9999999999994
 51
220.3400362958645
  0
LINE
  8
1
  6
CONTINUOUS
 62
     7
 10
-132.7713805886359
 20
489.1130028179888
 11
-133.3076215516621
 21
488.6630432236915
  0
ARC
  8
1
  6
CONTINUOUS
 62
     7
 10
-135.2871605870895
 20
492.263681961969
 40
0.5000000000000009
 50
25.90412627099989
 51
75.00000000001717
  0
ARC
  8
1
  6
CONTINUOUS
 62
     7
 10
-110.5179036977009
 20
512.3936947402241
 40
0.9999999999999991
 50
232.5456596767372
 51
264.9999999999999
  0
ARC
  8
1
  6
CONTINUOUS
 62
     7
 10
-132.8356593496046
 20
489.1896072623007
 40
0.1
 50
309.9999999999999
 51
39.64522510438536
  0
LINE
  8
1
  6
CONTINUOUS
 62
     7
 10
-108.5059892817471
 20
511.2138551993005
 11
-110.6050594404486
 21
511.3975000421324
  0
ARC
  8
1
  6
CONTINUOUS
 62
     7
 10
-120.4
 20
499.493823707067
 40
16.05
 50
205.9041262709999
 51
219.6452251043849
  0
ARC
  8
1
  6
CONTINUOUS
 62
     7
 10
-132.2068549755052
 20
488.7699869129253
 40
0.9999999999999991
 50
222.2479919733487
 51
265.0
  0
LINE
  8
1
  6
CONTINUOUS
 62
     7
 10
-132.2940107182528
 20
487.7737922148335
 11
-130.2243954975644
 21
487.5927243451626
  0
ARC
  8
1
  6
CONTINUOUS
 62
     7
 10
-120.4
 20
499.493823707067
 40
16.95
 50
220.3400362958637
 51
222.2479919733487
  0
ARC
  8
1
  6
CONTINUOUS
 62
     7
 10
-108.5931450244948
 20
510.2176605012087
 40
0.9999999999999991
 50
80.18242891775812
 51
85.00000000000001
  0
LINE
  8
1
  6
CONTINUOUS
 62
     7
 10
-135.1577510645384
 20
492.7466448751136
 11
-135.8062569057122
 21
492.920411491543
  0
ARC
  8
1
  6
CONTINUOUS
 62
     7
 10
-120.3999999999998
 20
499.4938237070672
 40
17.94999999999969
 50
35.21517834241116
 51
44.13719423117874
  0
LINE
  8
1
  6
CONTINUOUS
 62
     7
 10
-105.7349906239375
 20
509.8446690831704
 11
-105.7349906239375
 21
509.4938237070671
  0
LINE
  8
1
  6
CONTINUOUS
 62
     7
 10
-107.7979168388714
 20
511.993823707067
 11
-107.517744762679
 21
511.993823707067
  0
LINE
  8
1
  6
CONTINUOUS
 62
     7
 10
-130.5931962602512
 20
489.3006274468158
 11
-131.1833784130948
 21
488.7104452939722
  0
LINE
  8
1
  6
CONTINUOUS
 62
     7
 10
-119.143618906406
 20
513.8543253190463
 11
-119.0708749230982
 21
514.6857928529661
  0
LINE
  8
1
  6
CONTINUOUS
 62
     7
 10
-111.6529593456465
 20
511.9858923824742
 11
-112.1316912501235
 21
511.3021923673315
  0
LINE
  8
1
  6
CONTINUOUS
 62
     7
 10
-131.1833784130949
 20
510.2772021201618
 11
-130.5931962602513
 21
509.6870199673182
  0
POLYLINE
  8
1
  6
CONTINUOUS
 62
     7
 66
     1
  0
VERTEX
  8
1
  6
CONTINUOUS
 62
     7
 10
-130.5931962602512
 20
509.6870199673182
  0
VERTEX
  8
1
  6
CONTINUOUS
 62
     7
 10
-130.5643965784336
 20
509.6569958529403
  0
VERTEX
  8
1
  6
CONTINUOUS
 62
     7
 10
-130.5368696910369
 20
509.6257998011778
  0
VERTEX
  8
1
  6
CONTINUOUS
 62
     7
 10
-130.5104862879211
 20
509.5932554515943
  0
VERTEX
  8
1
  6
CONTINUOUS
 62
     7
 10
-130.4854876977821
 20
509.5596337703303
  0
VERTEX
  8
1
  6
CONTINUOUS
 62
     7
 10
-130.4614205137181
 20
509.5242249293896
  0
VERTEX
  8
1
  6
CONTINUOUS
 62
     7
 10
-130.4388890543298
 20
509.4878166639843
  0
VERTEX
  8
1
  6
CONTINUOUS
 62
     7
 10
-130.4177872159433
 20
509.4501949747703
  0
VERTEX
  8
1
  6
CONTINUOUS
 62
     7
 10
-130.3983252426627
 20
509.4116955972101
  0
VERTEX
  8
1
  6
CONTINUOUS
 62
     7
 10
-130.3811274314319
 20
509.3737601766057
  0
VERTEX
  8
1
  6
CONTINUOUS
 62
     7
 10
-130.3655222099646
 20
509.3351381811844
  0
VERTEX
  8
1
  6
CONTINUOUS
 62
     7
 10
-130.3514462670055
 20
509.2956188284452
  0
VERTEX
  8
1
  6
CONTINUOUS
 62
     7
 10
-130.3390382597173
 20
509.2555397803208
  0
VERTEX
  8
1
  6
CONTINUOUS
 62
     7
 10
-130.3281057844617
 20
509.2140747806595
  0
VERTEX
  8
1
  6
CONTINUOUS
 62
     7
 10
-130.3189592340446
 20
509.1721742890387
  0
VERTEX
  8
1
  6
CONTINUOUS
 62
     7
 10
-130.3115698794596
 20
509.129599074622
  0
VERTEX
  8
1
  6
CONTINUOUS
 62
     7
 10
-130.3060252796859
 20
509.0867388969208
  0
VERTEX
  8
1
  6
CONTINUOUS
 62
     7
 10
-130.3024427356181
 20
509.0452894933514
  0
VERTEX
  8
1
  6
CONTINUOUS
 62
     7
 10
-130.3005865020291
 20
509.0037216054962
  0
VERTEX
  8
1
  6
CONTINUOUS
 62
     7
 10
-130.3004672095721
 20
508.9618152014563
  0
VERTEX
  8
1
  6
CONTINUOUS
 62
     7
 10
-130.3021033458727
 20
508.9199351253595
  0
VERTEX
  8
1
  6
CONTINUOUS
 62
     7
 10
-130.3055886102096
 20
508.877237215231
  0
VERTEX
  8
1
  6
CONTINUOUS
 62
     7
 10
-130.3108993942607
 20
508.8347221982822
  0
VERTEX
  8
1
  6
CONTINUOUS
 62
     7
 10
-130.318088283606
 20
508.7921545754261
  0
VERTEX
  8
1
  6
CONTINUOUS
 62
     7
 10
-130.3271080565706
 20
508.7499316185455
  0
VERTEX
  8
1
  6
CONTINUOUS
 62
     7
 10
-130.3374681512988
 20
508.7098238818915
  0
VERTEX
  8
1
  6
CONTINUOUS
 62
     7
 10
-130.3494810620967
 20
508.6701752911269
  0
VERTEX
  8
1
  6
CONTINUOUS
 62
     7
 10
-130.3632289761683
 20
508.6307836524834
  0
VERTEX
  8
1
  6
CONTINUOUS
 62
     7
 10
-130.3786088061131
 20
508.5919960086707
  0
VERTEX
  8
1
  6
CONTINUOUS
 62
     7
 10
-130.3959851447472
 20
508.553054537632
  0
VERTEX
  8
1
  6
CONTINUOUS
 62
     7
 10
-130.4150065790084
 20
508.5148861185217
  0
VERTEX
  8
1
  6
CONTINUOUS
 62
     7
 10
-130.4357990548017
 20
508.4772880826225
  0
VERTEX
  8
1
  6
CONTINUOUS
 62
     7
 10
-130.4581878307495
 20
508.4406155207117
  0
VERTEX
  8
1
  6
CONTINUOUS
 62
     7
 10
-130.4784339295524
 20
508.4102368192982
  0
VERTEX
  8
1
  6
CONTINUOUS
 62
     7
 10
-130.4998053972063
 20
508.3805772856721
  0
VERTEX
  8
1
  6
CONTINUOUS
 62
     7
 10
-130.5223405108192
 20
508.3516025138098
  0
VERTEX
  8
1
  6
CONTINUOUS
 62
     7
 10
-130.5459568101964
 20
508.3234364055735
  0
SEQEND
  8
1
  6
CONTINUOUS
 62
     7
  0
POLYLINE
  8
1
  6
CONTINUOUS
 62
     7
 66
     1
  0
VERTEX
  8
1
  6
CONTINUOUS
 62
     7
 10
-118.3033118063548
 20
512.7793947756599
  0
VERTEX
  8
1
  6
CONTINUOUS
 62
     7
 10
-118.3392646381764
 20
512.7857434458791
  0
VERTEX
  8
1
  6
CONTINUOUS
 62
     7
 10
-118.3750092690417
 20
512.7934113721567
  0
VERTEX
  8
1
  6
CONTINUOUS
 62
     7
 10
-118.4105925885745
 20
512.8024196586354
  0
VERTEX
  8
1
  6
CONTINUOUS
 62
     7
 10
-118.4458680286632
 20
512.8127423731577
  0
VERTEX
  8
1
  6
CONTINUOUS
 62
     7
 10
-118.48516120898
 20
512.8259294519734
  0
VERTEX
  8
1
  6
CONTINUOUS
 62
     7
 10
-118.5238725189651
 20
512.8407319532456
  0
VERTEX
  8
1
  6
CONTINUOUS
 62
     7
 10
-118.562198520359
 20
512.8572456764981
  0
VERTEX
  8
1
  6
CONTINUOUS
 62
     7
 10
-118.5997998250801
 20
512.8753420697954
  0
VERTEX
  8
1
  6
CONTINUOUS
 62
     7
 10
-118.6374071490209
 20
512.8954380330257
  0
VERTEX
  8
1
  6
CONTINUOUS
 62
     7
 10
-118.6741207012881
 20
512.917116163689
  0
VERTEX
  8
1
  6
CONTINUOUS
 62
     7
 10
-118.7101336754025
 20
512.940515356795
  0
VERTEX
  8
1
  6
CONTINUOUS
 62
     7
 10
-118.7451055164423
 20
512.9654357963477
  0
VERTEX
  8
1
  6
CONTINUOUS
 62
     7
 10
-118.7779642992727
 20
512.9910133820658
  0
VERTEX
  8
1
  6
CONTINUOUS
 62
     7
 10
-118.809726614693
 20
513.017932949788
  0
VERTEX
  8
1
  6
CONTINUOUS
 62
     7
 10
-118.8405479318631
 20
513.0463514793319
  0
VERTEX
  8
1
  6
CONTINUOUS
 62
     7
 10
-118.8701479326619
 20
513.0760325289157
  0
VERTEX
  8
1
  6
CONTINUOUS
 62
     7
 10
-118.8990832228213
 20
513.1076183021883
  0
VERTEX
  8
1
  6
CONTINUOUS
 62
     7
 10
-118.9266363515762
 20
513.1404093065038
  0
VERTEX
  8
1
  6
CONTINUOUS
 62
     7
 10
-118.952944803597
 20
513.1746025291063
  0
VERTEX
  8
1
  6
CONTINUOUS
 62
     7
 10
-118.9777514059123
 20
513.2098933925898
  0
VERTEX
  8
1
  6
CONTINUOUS
 62
     7
 10
-119.0002541079625
 20
513.2449814780132
  0
VERTEX
  8
1
  6
CONTINUOUS
 62
     7
 10
-119.0212730734621
 20
513.2809719201134
  0
VERTEX
  8
1
  6
CONTINUOUS
 62
     7
 10
-119.0409025854183
 20
513.3180642229996
  0
VERTEX
  8
1
  6
CONTINUOUS
 62
     7
 10
-119.0589571768697
 20
513.3559425742222
  0
VERTEX
  8
1
  6
CONTINUOUS
 62
     7
 10
-119.075747540935
 20
513.3953968619769
  0
VERTEX
  8
1
  6
CONTINUOUS
 62
     7
 10
-119.0908303402944
 20
513.435529907166
  0
VERTEX
  8
1
  6
CONTINUOUS
 62
     7
 10
-119.1042694412363
 20
513.4765730549783
  0
VERTEX
  8
1
  6
CONTINUOUS
 62
     7
 10
-119.1159236728045
 20
513.5181539396768
  0
VERTEX
  8
1
  6
CONTINUOUS
 62
     7
 10
-119.1254456785529
 20
513.55866715092
  0
VERTEX
  8
1
  6
CONTINUOUS
 62
     7
 10
-119.1332739574092
 20
513.599538218225
  0
VERTEX
  8
1
  6
CONTINUOUS
 62
     7
 10
-119.1394305993546
 20
513.6409849574962
  0
VERTEX
  8
1
  6
CONTINUOUS
 62
     7
 10
-119.1438460894764
 20
513.6826507337751
  0
VERTEX
  8
1
  6
CONTINUOUS
 62
     7
 10
-119.1465501216658
 20
513.725377480752
  0
VERTEX
  8
1
  6
CONTINUOUS
 62
     7
 10
-119.147423698693
 20
513.7681791515846
  0
VERTEX
  8
1
  6
CONTINUOUS
 62
     7
 10
-119.1464498415603
 20
513.8112936037313
  0
VERTEX
  8
1
  6
CONTINUOUS
 62
     7
 10
-119.143618906406
 20
513.8543253190463
  0
SEQEND
  8
1
  6
CONTINUOUS
 62
     7
  0
POLYLINE
  8
1
  6
CONTINUOUS
 62
     7
 66
     1
  0
VERTEX
  8
1
  6
CONTINUOUS
 62
     7
 10
-130.5459568101964
 20
490.6642110085604
  0
VERTEX
  8
1
  6
CONTINUOUS
 62
     7
 10
-130.5195478701384
 20
490.632570711936
  0
VERTEX
  8
1
  6
CONTINUOUS
 62
     7
 10
-130.4944647806545
 20
490.5998699366518
  0
VERTEX
  8
1
  6
CONTINUOUS
 62
     7
 10
-130.4705922328858
 20
490.5659270471395
  0
VERTEX
  8
1
  6
CONTINUOUS
 62
     7
 10
-130.4481485758472
 20
490.531024555425
  0
VERTEX
  8
1
  6
CONTINUOUS
 62
     7
 10
-130.4267357940472
 20
490.4944368550721
  0
VERTEX
  8
1
  6
CONTINUOUS
 62
     7
 10
-130.406893326979
 20
490.4569770154911
  0
VERTEX
  8
1
  6
CONTINUOUS
 62
     7
 10
-130.3885306597488
 20
490.4184291076646
  0
VERTEX
  8
1
  6
CONTINUOUS
 62
     7
 10
-130.3718307419462
 20
490.3791358826524
  0
VERTEX
  8
1
  6
CONTINUOUS
 62
     7
 10
-130.357331764294
 20
490.3406072458032
  0
VERTEX
  8
1
  6
CONTINUOUS
 62
     7
 10
-130.3444312527184
 20
490.3015183724526
  0
VERTEX
  8
1
  6
CONTINUOUS
 62
     7
 10
-130.3330800316715
 20
490.2616611990542
  0
VERTEX
  8
1
  6
CONTINUOUS
 62
     7
 10
-130.3233901941199
 20
490.2213724473016
  0
VERTEX
  8
1
  6
CONTINUOUS
 62
     7
 10
-130.3152253062062
 20
490.1798418950676
  0
VERTEX
  8
1
  6
CONTINUOUS
 62
     7
 10
-130.3088250103026
 20
490.138008223014
  0
VERTEX
  8
1
  6
CONTINUOUS
 62
     7
 10
-130.3041746436433
 20
490.0956397884207
  0
VERTEX
  8
1
  6
CONTINUOUS
 62
     7
 10
-130.301333380415
 20
490.0531172243345
  0
VERTEX
  8
1
  6
CONTINUOUS
 62
     7
 10
-130.3003121422272
 20
490.011915091036
  0
VERTEX
  8
1
  6
CONTINUOUS
 62
     7
 10
-130.3009886310389
 20
489.9707111383266
  0
VERTEX
  8
1
  6
CONTINUOUS
 62
     7
 10
-130.3033846835091
 20
489.9292928608432
  0
VERTEX
  8
1
  6
CONTINUOUS
 62
     7
 10
-130.3074952724608
 20
489.8880148316655
  0
VERTEX
  8
1
  6
CONTINUOUS
 62
     7
 10
-130.3134579691491
 20
489.8460679029924
  0
VERTEX
  8
1
  6
CONTINUOUS
 62
     7
 10
-130.3211902678349
 20
489.8044163080652
  0
VERTEX
  8
1
  6
CONTINUOUS
 62
     7
 10
-130.330754481381
 20
489.7628367678416
  0
VERTEX
  8
1
  6
CONTINUOUS
 62
     7
 10
-130.3420813439467
 20
489.7217076934686
  0
VERTEX
  8
1
  6
CONTINUOUS
 62
     7
 10
-130.3547399746037
 20
489.6822964334671
  0
VERTEX
  8
1
  6
CONTINUOUS
 62
     7
 10
-130.3690165573272
 20
489.6434465881997
  0
VERTEX
  8
1
  6
CONTINUOUS
 62
     7
 10
-130.38500277348
 20
489.6049629872694
  0
VERTEX
  8
1
  6
CONTINUOUS
 62
     7
 10
-130.4025761045094
 20
489.5671819079387
  0
VERTEX
  8
1
  6
CONTINUOUS
 62
     7
 10
-130.4221377160841
 20
489.5293778241531
  0
VERTEX
  8
1
  6
CONTINUOUS
 62
     7
 10
-130.443288029036
 20
489.4924427876328
  0
VERTEX
  8
1
  6
CONTINUOUS
 62
     7
 10
-130.4661613959587
 20
489.4561847013759
  0
VERTEX
  8
1
  6
CONTINUOUS
 62
     7
 10
-130.4905656741749
 20
489.4209417637884
  0
VERTEX
  8
1
  6
CONTINUOUS
 62
     7
 10
-130.5143226766855
 20
489.3894827692706
  0
VERTEX
  8
1
  6
CONTINUOUS
 62
     7
 10
-130.5393399278618
 20
489.3589390833097
  0
VERTEX
  8
1
  6
CONTINUOUS
 62
     7
 10
-130.5656683768576
 20
489.3292713258498
  0
VERTEX
  8
1
  6
CONTINUOUS
 62
     7
 10
-130.5931962602512
 20
489.3006274468158
  0
SEQEND
  8
1
  6
CONTINUOUS
 62
     7
  0
POLYLINE
  8
1
  6
CONTINUOUS
 62
     7
 66
     1
  0
VERTEX
  8
1
  6
CONTINUOUS
 62
     7
 10
-112.1316912501235
 20
511.3021923673314
  0
VERTEX
  8
1
  6
CONTINUOUS
 62
     7
 10
-112.1549329800665
 20
511.2703542585007
  0
VERTEX
  8
1
  6
CONTINUOUS
 62
     7
 10
-112.1794506457556
 20
511.2394093285444
  0
VERTEX
  8
1
  6
CONTINUOUS
 62
     7
 10
-112.2052947392018
 20
511.2093174912649
  0
VERTEX
  8
1
  6
CONTINUOUS
 62
     7
 10
-112.2323561080315
 20
511.1802286085778
  0
VERTEX
  8
1
  6
CONTINUOUS
 62
     7
 10
-112.2617403708741
 20
511.1511058223896
  0
VERTEX
  8
1
  6
CONTINUOUS
 62
     7
 10
-112.2923052606975
 20
511.123221357902
  0
VERTEX
  8
1
  6
CONTINUOUS
 62
     7
 10
-112.324222262187
 20
511.0964451633462
  0
VERTEX
  8
1
  6
CONTINUOUS
 62
     7
 10
-112.3572288412331
 20
511.0710192271204
  0
VERTEX
  8
1
  6
CONTINUOUS
 62
     7
 10
-112.3920156406154
 20
511.0464854747563
  0
VERTEX
  8
1
  6
CONTINUOUS
 62
     7
 10
-112.4278179290729
 20
511.0234516871049
  0
VERTEX
  8
1
  6
CONTINUOUS
 62
     7
 10
-112.4648444919367
 20
511.0018098091128
  0
VERTEX
  8
1
  6
CONTINUOUS
 62
     7
 10
-112.5027686940663
 20
510.9817726333749
  0
VERTEX
  8
1
  6
CONTINUOUS
 62
     7
 10
-112.5399550618417
 20
510.9640834713284
  0
VERTEX
  8
1
  6
CONTINUOUS
 62
     7
 10
-112.5778422828628
 20
510.9479378679066
  0
VERTEX
  8
1
  6
CONTINUOUS
 62
     7
 10
-112.6166331362263
 20
510.9332706163709
  0
VERTEX
  8
1
  6
CONTINUOUS
 62
     7
 10
-112.6560034427857
 20
510.920222121467
  0
VERTEX
  8
1
  6
CONTINUOUS
 62
     7
 10
-112.6967481343371
 20
510.9085899967436
  0
VERTEX
  8
1
  6
CONTINUOUS
 62
     7
 10
-112.737954261725
 20
510.8986924198919
  0
VERTEX
  8
1
  6
CONTINUOUS
 62
     7
 10
-112.7798523444728
 20
510.8904966262853
  0
VERTEX
  8
1
  6
CONTINUOUS
 62
     7
 10
-112.8220675598742
 20
510.8840950618732
  0
VERTEX
  8
1
  6
CONTINUOUS
 62
     7
 10
-112.8629601503369
 20
510.8796383730876
  0
VERTEX
  8
1
  6
CONTINUOUS
 62
     7
 10
-112.9040065071568
 20
510.8768662481949
  0
VERTEX
  8
1
  6
CONTINUOUS
 62
     7
 10
-112.9454198094055
 20
510.8757838811245
  0
VERTEX
  8
1
  6
CONTINUOUS
 62
     7
 10
-112.9868473247942
 20
510.8764171589666
  0
VERTEX
  8
1
  6
CONTINUOUS
 62
     7
 10
-113.0291072284726
 20
510.8788365352049
  0
VERTEX
  8
1
  6
CONTINUOUS
 62
     7
 10
-113.0712315911892
 20
510.8830419238212
  0
VERTEX
  8
1
  6
CONTINUOUS
 62
     7
 10
-113.1134490946178
 20
510.889078113053
  0
VERTEX
  8
1
  6
CONTINUOUS
 62
     7
 10
-113.1553750005725
 20
510.8969088641737
  0
VERTEX
  8
1
  6
CONTINUOUS
 62
     7
 10
-113.195522425376
 20
510.9061650729686
  0
VERTEX
  8
1
  6
CONTINUOUS
 62
     7
 10
-113.2352576699353
 20
510.9170673574565
  0
VERTEX
  8
1
  6
CONTINUOUS
 62
     7
 10
-113.2747819928191
 20
510.9296911272843
  0
VERTEX
  8
1
  6
CONTINUOUS
 62
     7
 10
-113.3137510731254
 20
510.9439437427672
  0
VERTEX
  8
1
  6
CONTINUOUS
 62
     7
 10
-113.3529201051337
 20
510.9601633098792
  0
VERTEX
  8
1
  6
CONTINUOUS
 62
     7
 10
-113.39136817496
 20
510.9780284015513
  0
VERTEX
  8
1
  6
CONTINUOUS
 62
     7
 10
-113.4292979372285
 20
510.997657015814
  0
VERTEX
  8
1
  6
CONTINUOUS
 62
     7
 10
-113.4663558691936
 20
511.0188867900759
  0
SEQEND
  8
1
  6
CONTINUOUS
 62
     7
  0
ARC
  8
1
  6
CONTINUOUS
 62
     7
 10
-120.4
 20
499.493823707067
 40
13.45
 50
180.0
 51
221.0317223536935
  0
ARC
  8
1
  6
CONTINUOUS
 62
     7
 10
-120.4
 20
499.493823707067
 40
13.45
 50
138.9682776463066
 51
180.0
  0
ARC
  8
1
  6
CONTINUOUS
 62
     7
 10
-120.4
 20
499.493823707067
 40
13.45
 50
58.96827764630654
 51
81.03172235369345
  0
ARC
  8
1
  6
CONTINUOUS
 62
     7
 10
-110.1003876751545
 20
485.656176292933
 40
0.4999999999999996
 50
215.0
 51
306.6609798690242
  0
ARC
  8
1
  6
CONTINUOUS
 62
     7
 10
-109.9
 20
486.241716431896
 40
1.000000000000001
 50
180.0
 51
215.0
  0
LINE
  8
1
  6
CONTINUOUS
 62
     7
 10
-110.719152044289
 20
485.6681399955448
 11
-110.509963697299
 21
485.3693880747574
  0
ARC
  8
1
  6
CONTINUOUS
 62
     7
 10
-109.9
 20
487.0917069522546
 40
1.000000000000001
 50
130.2522421129021
 51
180.0
  0
LINE
  8
1
  6
CONTINUOUS
 62
     7
 10
-110.9
 20
487.0917069522546
 11
-110.9
 21
486.241716431896
  0
ARC
  8
1
  6
CONTINUOUS
 62
     7
 10
-120.4
 20
499.493823707067
 40
17.75
 50
306.6609798690242
 51
26.60276188343192
  0
ARC
  8
1
  6
CONTINUOUS
 62
     7
 10
-120.4
 20
499.493823707067
 40
15.25
 50
310.2522421129022
 51
52.54565967673727
  0
POLYLINE
  8
1
  6
CONTINUOUS
 62
     7
 66
     1
  0
VERTEX
  8
1
  6
CONTINUOUS
 62
     7
 10
-129.9
 20
487.0917069522546
  0
VERTEX
  8
1
  6
CONTINUOUS
 62
     7
 10
-129.9000142857721
 20
487.097052169046
  0
VERTEX
  8
1
  6
CONTINUOUS
 62
     7
 10
-129.9039021732925
 20
487.1799629414484
  0
VERTEX
  8
1
  6
CONTINUOUS
 62
     7
 10
-129.9147218094731
 20
487.2626656819879
  0
VERTEX
  8
1
  6
CONTINUOUS
 62
     7
 10
-129.9326462586532
 20
487.3451369013577
  0
VERTEX
  8
1
  6
CONTINUOUS
 62
     7
 10
-129.9577628598802
 20
487.426653473029
  0
VERTEX
  8
1
  6
CONTINUOUS
 62
     7
 10
-129.9802769796173
 20
487.4842748645679
  0
VERTEX
  8
1
  6
CONTINUOUS
 62
     7
 10
-130.0066163926416
 20
487.5410016552119
  0
VERTEX
  8
1
  6
CONTINUOUS
 62
     7
 10
-130.0369322920243
 20
487.5967951935051
  0
VERTEX
  8
1
  6
CONTINUOUS
 62
     7
 10
-130.0712408867085
 20
487.6513124670024
  0
VERTEX
  8
1
  6
CONTINUOUS
 62
     7
 10
-130.1102304687214
 20
487.7051106427097
  0
VERTEX
  8
1
  6
CONTINUOUS
 62
     7
 10
-130.1179339960484
 20
487.7149025599599
  0
SEQEND
  8
1
  6
CONTINUOUS
 62
     7
  0
LINE
  8
1
  6
CONTINUOUS
 62
     7
 10
-129.9
 20
486.2417164318959
 11
-129.9
 21
487.0917069522546
  0
LINE
  8
1
  6
CONTINUOUS
 62
     7
 10
-130.0808479557106
 20
485.6681399955438
 11
-129.9
 21
486.2417164318959
  0
LINE
  8
1
  6
CONTINUOUS
 62
     7
 10
-130.080847955711
 20
485.6681399955449
 11
-130.290036302701
 21
485.3693880747574
  0
POLYLINE
  8
1
  6
CONTINUOUS
 62
     7
 66
     1
  0
VERTEX
  8
1
  6
CONTINUOUS
 62
     7
 10
-130.9981518125222
 20
485.2550850635378
  0
VERTEX
  8
1
  6
CONTINUOUS
 62
     7
 10
-130.9756997646882
 20
485.2393167799565
  0
VERTEX
  8
1
  6
CONTINUOUS
 62
     7
 10
-130.9527355911914
 20
485.2249900322699
  0
VERTEX
  8
1
  6
CONTINUOUS
 62
     7
 10
-130.9293882904531
 20
485.2121053664801
  0
VERTEX
  8
1
  6
CONTINUOUS
 62
     7
 10
-130.9057868608948
 20
485.2006633285896
  0
VERTEX
  8
1
  6
CONTINUOUS
 62
     7
 10
-130.8809880263433
 20
485.1902357091319
  0
VERTEX
  8
1
  6
CONTINUOUS
 62
     7
 10
-130.856035038011
 20
485.1812785887449
  0
VERTEX
  8
1
  6
CONTINUOUS
 62
     7
 10
-130.8310319624368
 20
485.173758949178
  0
VERTEX
  8
1
  6
CONTINUOUS
 62
     7
 10
-130.8060828661592
 20
485.1676437721809
  0
VERTEX
  8
1
  6
CONTINUOUS
 62
     7
 10
-130.7796456294774
 20
485.1626243038742
  0
VERTEX
  8
1
  6
CONTINUOUS
 62
     7
 10
-130.7533547715804
 20
485.1590750611773
  0
VERTEX
  8
1
  6
CONTINUOUS
 62
     7
 10
-130.7272903455891
 20
485.1569442258502
  0
VERTEX
  8
1
  6
CONTINUOUS
 62
     7
 10
-130.7015324046247
 20
485.1561799796526
  0
VERTEX
  8
1
  6
CONTINUOUS
 62
     7
 10
-130.6667594117473
 20
485.1572571115951
  0
VERTEX
  8
1
  6
CONTINUOUS
 62
     7
 10
-130.6326722467492
 20
485.1606779894759
  0
VERTEX
  8
1
  6
CONTINUOUS
 62
     7
 10
-130.5993949902815
 20
485.16632275783
  0
VERTEX
  8
1
  6
CONTINUOUS
 62
     7
 10
-130.5696879612375
 20
485.1733505800061
  0
VERTEX
  8
1
  6
CONTINUOUS
 62
     7
 10
-130.5407106930072
 20
485.1820962251982
  0
VERTEX
  8
1
  6
CONTINUOUS
 62
     7
 10
-130.5125201862522
 20
485.1924982041725
  0
VERTEX
  8
1
  6
CONTINUOUS
 62
     7
 10
-130.4851734416344
 20
485.2044950276947
  0
VERTEX
  8
1
  6
CONTINUOUS
 62
     7
 10
-130.4579202939634
 20
485.218468236152
  0
VERTEX
  8
1
  6
CONTINUOUS
 62
     7
 10
-130.4315642643979
 20
485.2340906287112
  0
VERTEX
  8
1
  6
CONTINUOUS
 62
     7
 10
-130.4061553851156
 20
485.251347348061
  0
VERTEX
  8
1
  6
CONTINUOUS
 62
     7
 10
-130.3817436882939
 20
485.2702235368903
  0
VERTEX
  8
1
  6
CONTINUOUS
 62
     7
 10
-130.356994336075
 20
485.2920004638274
  0
VERTEX
  8
1
  6
CONTINUOUS
 62
     7
 10
-130.3333895753452
 20
485.3157332746324
  0
VERTEX
  8
1
  6
CONTINUOUS
 62
     7
 10
-130.3110350246915
 20
485.3415023510331
  0
VERTEX
  8
1
  6
CONTINUOUS
 62
     7
 10
-130.290036302701
 20
485.3693880747574
  0
SEQEND
  8
1
  6
CONTINUOUS
 62
     7
  0
LINE
  8
1
  6
CONTINUOUS
 62
     7
 10
-130.9981518125222
 20
485.2550850635378
 11
-132.4
 21
486.4147373475387
  0
ARC
  8
1
  6
CONTINUOUS
 62
     7
 10
-120.4
 20
499.493823707067
 40
17.75
 50
198.8778751423251
 51
227.463765266478
  0
LINE
  8
1
  6
CONTINUOUS
 62
     7
 10
-110.6482658742562
 20
487.769226420132
 11
-110.6816964389232
 21
487.71510000275
  0
LINE
  8
1
  6
CONTINUOUS
 62
     7
 10
-110.6482658742562
 20
487.769226420132
 11
-110.5446373243085
 21
487.8561982391896
  0
ARC
  8
1
  6
CONTINUOUS
 62
     7
 10
-120.4000000000042
 20
499.4938237070706
 40
17.94999999999448
 50
135.8628057689105
 51
144.7848216575901
  0
LINE
  8
1
  6
CONTINUOUS
 62
     7
 10
-135.0650093760624
 20
509.8446690831704
 11
-135.0650093760624
 21
509.4938237070671
  0
LINE
  8
1
  6
CONTINUOUS
 62
     7
 10
-133.2822552373408
 20
511.993823707067
 11
-133.0020831611285
 21
511.993823707067
  0
LINE
  8
1
  6
CONTINUOUS
 62
     7
 10
-128.6683087498764
 20
511.3021923673314
 11
-129.1470406543534
 21
511.985892382474
  0
LINE
  8
1
  6
CONTINUOUS
 62
     7
 10
-110.2068037397488
 20
509.6870199673182
 11
-109.6166215869052
 21
510.2772021201618
  0
LINE
  8
1
  6
CONTINUOUS
 62
     7
 10
-109.6166215869051
 20
488.7104452939722
 11
-110.2068037397487
 21
489.3006274468158
  0
LINE
  8
1
  6
CONTINUOUS
 62
     7
 10
-121.7291250769018
 20
514.6857928529661
 11
-121.656381093594
 21
513.8543253190463
  0
POLYLINE
  8
1
  6
CONTINUOUS
 62
     7
 66
     1
  0
VERTEX
  8
1
  6
CONTINUOUS
 62
     7
 10
-121.6563810935939
 20
513.8543253190463
  0
VERTEX
  8
1
  6
CONTINUOUS
 62
     7
 10
-121.6536183860879
 20
513.8128134344323
  0
VERTEX
  8
1
  6
CONTINUOUS
 62
     7
 10
-121.6525840025054
 20
513.7712219301804
  0
VERTEX
  8
1
  6
CONTINUOUS
 62
     7
 10
-121.6532922478355
 20
513.7293325874028
  0
VERTEX
  8
1
  6
CONTINUOUS
 62
     7
 10
-121.6557538169071
 20
513.6875081013012
  0
VERTEX
  8
1
  6
CONTINUOUS
 62
     7
 10
-121.6600776485233
 20
513.6449132677451
  0
VERTEX
  8
1
  6
CONTINUOUS
 62
     7
 10
-121.6662203311563
 20
513.6025399754247
  0
VERTEX
  8
1
  6
CONTINUOUS
 62
     7
 10
-121.6742381408029
 20
513.5601560892051
  0
VERTEX
  8
1
  6
CONTINUOUS
 62
     7
 10
-121.6840763271955
 20
513.5181539396768
  0
VERTEX
  8
1
  6
CONTINUOUS
 62
     7
 10
-121.6952864578011
 20
513.4780391815525
  0
VERTEX
  8
1
  6
CONTINUOUS
 62
     7
 10
-121.7081579047306
 20
513.4384221735722
  0
VERTEX
  8
1
  6
CONTINUOUS
 62
     7
 10
-121.7227776571288
 20
513.399100751282
  0
VERTEX
  8
1
  6
CONTINUOUS
 62
     7
 10
-121.7390348876379
 20
513.360422705835
  0
VERTEX
  8
1
  6
CONTINUOUS
 62
     7
 10
-121.7573133137367
 20
513.3216314136231
  0
VERTEX
  8
1
  6
CONTINUOUS
 62
     7
 10
-121.7772397664696
 20
513.2836544855735
  0
VERTEX
  8
1
  6
CONTINUOUS
 62
     7
 10
-121.7989460127583
 20
513.2462901935842
  0
VERTEX
  8
1
  6
CONTINUOUS
 62
     7
 10
-121.8222485940877
 20
513.2098933925898
  0
VERTEX
  8
1
  6
CONTINUOUS
 62
     7
 10
-121.8461473691556
 20
513.175838492377
  0
VERTEX
  8
1
  6
CONTINUOUS
 62
     7
 10
-121.8714447350038
 20
513.1428024789216
  0
VERTEX
  8
1
  6
CONTINUOUS
 62
     7
 10
-121.8982902689634
 20
513.1106236312626
  0
VERTEX
  8
1
  6
CONTINUOUS
 62
     7
 10
-121.9264636160923
 20
513.0795933198328
  0
VERTEX
  8
1
  6
CONTINUOUS
 62
     7
 10
-121.9565791710606
 20
513.0491251077784
  0
VERTEX
  8
1
  6
CONTINUOUS
 62
     7
 10
-121.9879755937919
 20
513.0199704214815
  0
VERTEX
  8
1
  6
CONTINUOUS
 62
     7
 10
-122.0208445430726
 20
512.9919826595344
  0
VERTEX
  8
1
  6
CONTINUOUS
 62
     7
 10
-122.0548944835576
 20
512.9654357963478
  0
VERTEX
  8
1
  6
CONTINUOUS
 62
     7
 10
-122.0886115327281
 20
512.9413708280844
  0
VERTEX
  8
1
  6
CONTINUOUS
 62
     7
 10
-122.1232995791755
 20
512.9187199956689
  0
VERTEX
  8
1
  6
CONTINUOUS
 62
     7
 10
-122.1591515495998
 20
512.8973812386048
  0
VERTEX
  8
1
  6
CONTINUOUS
 62
     7
 10
-122.1958653997169
 20
512.8775541437279
  0
VERTEX
  8
1
  6
CONTINUOUS
 62
     7
 10
-122.2342075424559
 20
512.8588925414076
  0
VERTEX
  8
1
  6
CONTINUOUS
 62
     7
 10
-122.2733129933573
 20
512.8418805783072
  0
VERTEX
  8
1
  6
CONTINUOUS
 62
     7
 10
-122.313408505522
 20
512.826443957649
  0
VERTEX
  8
1
  6
CONTINUOUS
 62
     7
 10
-122.3541319713367
 20
512.8127423731577
  0
VERTEX
  8
1
  6
CONTINUOUS
 62
     7
 10
-122.3891684356865
 20
512.8024848792055
  0
VERTEX
  8
1
  6
CONTINUOUS
 62
     7
 10
-122.4246047104481
 20
512.7935016728945
  0
VERTEX
  8
1
  6
CONTINUOUS
 62
     7
 10
-122.4604922333528
 20
512.7857910017322
  0
VERTEX
  8
1
  6
CONTINUOUS
 62
     7
 10
-122.4966881936451
 20
512.7793947756599
  0
SEQEND
  8
1
  6
CONTINUOUS
 62
     7
  0
POLYLINE
  8
1
  6
CONTINUOUS
 62
     7
 66
     1
  0
VERTEX
  8
1
  6
CONTINUOUS
 62
     7
 10
-110.2540431898036
 20
508.3234364055737
  0
VERTEX
  8
1
  6
CONTINUOUS
 62
     7
 10
-110.2775038102799
 20
508.3514098039443
  0
VERTEX
  8
1
  6
CONTINUOUS
 62
     7
 10
-110.2999569381224
 20
508.3802599820926
  0
VERTEX
  8
1
  6
CONTINUOUS
 62
     7
 10
-110.3214249273852
 20
508.4100332467989
  0
VERTEX
  8
1
  6
CONTINUOUS
 62
     7
 10
-110.3418121692505
 20
508.4406155207117
  0
VERTEX
  8
1
  6
CONTINUOUS
 62
     7
 10
-110.3634360008139
 20
508.4759745786124
  0
VERTEX
  8
1
  6
CONTINUOUS
 62
     7
 10
-110.3835757203037
 20
508.5121971028694
  0
VERTEX
  8
1
  6
CONTINUOUS
 62
     7
 10
-110.4023203240019
 20
508.549482827627
  0
VERTEX
  8
1
  6
CONTINUOUS
 62
     7
 10
-110.4194924571462
 20
508.5875151219356
  0
VERTEX
  8
1
  6
CONTINUOUS
 62
     7
 10
-110.4353839025024
 20
508.62708304476
  0
VERTEX
  8
1
  6
CONTINUOUS
 62
     7
 10
-110.4495736814122
 20
508.6672884727967
  0
VERTEX
  8
1
  6
CONTINUOUS
 62
     7
 10
-110.4621205087076
 20
508.7083619881977
  0
VERTEX
  8
1
  6
CONTINUOUS
 62
     7
 10
-110.4728919434293
 20
508.7499316185455
  0
VERTEX
  8
1
  6
CONTINUOUS
 62
     7
 10
-110.4816222762388
 20
508.7906464044261
  0
VERTEX
  8
1
  6
CONTINUOUS
 62
     7
 10
-110.4886500568773
 20
508.8316844124979
  0
VERTEX
  8
1
  6
CONTINUOUS
 62
     7
 10
-110.4939934769488
 20
508.8732658299277
  0
VERTEX
  8
1
  6
CONTINUOUS
 62
     7
 10
-110.4975897821621
 20
508.9150293467874
  0
VERTEX
  8
1
  6
CONTINUOUS
 62
     7
 10
-110.4994525566967
 20
508.9578246988818
  0
VERTEX
  8
1
  6
CONTINUOUS
 62
     7
 10
-110.4994818265867
 20
509.0006548752938
  0
VERTEX
  8
1
  6
CONTINUOUS
 62
     7
 10
-110.4976562902402
 20
509.0437591504497
  0
VERTEX
  8
1
  6
CONTINUOUS
 62
     7
 10
-110.4939747203141
 20
509.0867388969208
  0
VERTEX
  8
1
  6
CONTINUOUS
 62
     7
 10
-110.488658603617
 20
509.1280823878413
  0
VERTEX
  8
1
  6
CONTINUOUS
 62
     7
 10
-110.4816258550889
 20
509.1691633966092
  0
VERTEX
  8
1
  6
CONTINUOUS
 62
     7
 10
-110.4728204609341
 20
509.2101953561874
  0
VERTEX
  8
1
  6
CONTINUOUS
 62
     7
 10
-110.4623033455471
 20
509.2508171243388
  0
VERTEX
  8
1
  6
CONTINUOUS
 62
     7
 10
-110.4498047833195
 20
509.2918335002138
  0
VERTEX
  8
1
  6
CONTINUOUS
 62
     7
 10
-110.4355618537689
 20
509.3322722330139
  0
VERTEX
  8
1
  6
CONTINUOUS
 62
     7
 10
-110.4194747754897
 20
509.3723515958944
  0
VERTEX
  8
1
  6
CONTINUOUS
 62
     7
 10
-110.4016747573373
 20
509.4116955972102
  0
VERTEX
  8
1
  6
CONTINUOUS
 62
     7
 10
-110.3829276467125
 20
509.4488511448704
  0
VERTEX
  8
1
  6
CONTINUOUS
 62
     7
 10
-110.3626530405712
 20
509.4851921195177
  0
VERTEX
  8
1
  6
CONTINUOUS
 62
     7
 10
-110.3407278514563
 20
509.5208995769815
  0
VERTEX
  8
1
  6
CONTINUOUS
 62
     7
 10
-110.3173280683878
 20
509.5556556357092
  0
VERTEX
  8
1
  6
CONTINUOUS
 62
     7
 10
-110.2919352536614
 20
509.590124341191
  0
VERTEX
  8
1
  6
CONTINUOUS
 62
     7
 10
-110.2650920688038
 20
509.6234738477777
  0
VERTEX
  8
1
  6
CONTINUOUS
 62
     7
 10
-110.2366326153205
 20
509.6558754509643
  0
VERTEX
  8
1
  6
CONTINUOUS
 62
     7
 10
-110.2068037397488
 20
509.6870199673182
  0
SEQEND
  8
1
  6
CONTINUOUS
 62
     7
  0
POLYLINE
  8
1
  6
CONTINUOUS
 62
     7
 66
     1
  0
VERTEX
  8
1
  6
CONTINUOUS
 62
     7
 10
-127.3336441308063
 20
511.0188867900759
  0
VERTEX
  8
1
  6
CONTINUOUS
 62
     7
 10
-127.3693896045448
 20
510.9983733410076
  0
VERTEX
  8
1
  6
CONTINUOUS
 62
     7
 10
-127.4059492143534
 20
510.9793497500507
  0
VERTEX
  8
1
  6
CONTINUOUS
 62
     7
 10
-127.443521859521
 20
510.9617340008326
  0
VERTEX
  8
1
  6
CONTINUOUS
 62
     7
 10
-127.4817914041058
 20
510.9456920674572
  0
VERTEX
  8
1
  6
CONTINUOUS
 62
     7
 10
-127.5215415456166
 20
510.9309579814183
  0
VERTEX
  8
1
  6
CONTINUOUS
 62
     7
 10
-127.5618778943094
 20
510.9179217988896
  0
VERTEX
  8
1
  6
CONTINUOUS
 62
     7
 10
-127.603028816501
 20
510.9065318757823
  0
VERTEX
  8
1
  6
CONTINUOUS
 62
     7
 10
-127.6446249994274
 20
510.8969088641737
  0
VERTEX
  8
1
  6
CONTINUOUS
 62
     7
 10
-127.6850860207568
 20
510.8893205861479
  0
VERTEX
  8
1
  6
CONTINUOUS
 62
     7
 10
-127.7258211966151
 20
510.8834037739548
  0
VERTEX
  8
1
  6
CONTINUOUS
 62
     7
 10
-127.7670439688401
 20
510.8791461289893
  0
VERTEX
  8
1
  6
CONTINUOUS
 62
     7
 10
-127.808403266558
 20
510.8765995701653
  0
VERTEX
  8
1
  6
CONTINUOUS
 62
     7
 10
-127.850720694292
 20
510.8757704299583
  0
VERTEX
  8
1
  6
CONTINUOUS
 62
     7
 10
-127.8930302185875
 20
510.8767317098481
  0
VERTEX
  8
1
  6
CONTINUOUS
 62
     7
 10
-127.9355625091538
 20
510.8795091941655
  0
VERTEX
  8
1
  6
CONTINUOUS
 62
     7
 10
-127.9779324401258
 20
510.8840950618732
  0
VERTEX
  8
1
  6
CONTINUOUS
 62
     7
 10
-128.0186859565891
 20
510.8902440139514
  0
VERTEX
  8
1
  6
CONTINUOUS
 62
     7
 10
-128.0591464576226
 20
510.8980652166787
  0
VERTEX
  8
1
  6
CONTINUOUS
 62
     7
 10
-128.0995194282596
 20
510.9076170761351
  0
VERTEX
  8
1
  6
CONTINUOUS
 62
     7
 10
-128.1394565551423
 20
510.9188330705485
  0
VERTEX
  8
1
  6
CONTINUOUS
 62
     7
 10
-128.1797308043007
 20
510.9319891881987
  0
VERTEX
  8
1
  6
CONTINUOUS
 62
     7
 10
-128.2194069183344
 20
510.9468367394492
  0
VERTEX
  8
1
  6
CONTINUOUS
 62
     7
 10
-128.2586939636602
 20
510.9634758624889
  0
VERTEX
  8
1
  6
CONTINUOUS
 62
     7
 10
-128.2972313059337
 20
510.9817726333749
  0
VERTEX
  8
1
  6
CONTINUOUS
 62
     7
 10
-128.3338456721939
 20
511.0010826444673
  0
VERTEX
  8
1
  6
CONTINUOUS
 62
     7
 10
-128.3696261984433
 20
511.0218885386533
  0
VERTEX
  8
1
  6
CONTINUOUS
 62
     7
 10
-128.4047491697005
 20
511.0443144954335
  0
VERTEX
  8
1
  6
CONTINUOUS
 62
     7
 10
-128.4389046926338
 20
511.0681814636536
  0
VERTEX
  8
1
  6
CONTINUOUS
 62
     7
 10
-128.4727376092391
 20
511.0940105006514
  0
VERTEX
  8
1
  6
CONTINUOUS
 62
     7
 10
-128.5054388062609
 20
511.121253194609
  0
VERTEX
  8
1
  6
CONTINUOUS
 62
     7
 10
-128.5371741322329
 20
511.1500752142961
  0
VERTEX
  8
1
  6
CONTINUOUS
 62
     7
 10
-128.5676438919685
 20
511.1802286085778
  0
VERTEX
  8
1
  6
CONTINUOUS
 62
     7
 10
-128.5944995934788
 20
511.2090874859078
  0
VERTEX
  8
1
  6
CONTINUOUS
 62
     7
 10
-128.6202350521417
 20
511.2390285242316
  0
VERTEX
  8
1
  6
CONTINUOUS
 62
     7
 10
-128.6448802025137
 20
511.2701087369458
  0
VERTEX
  8
1
  6
CONTINUOUS
 62
     7
 10
-128.6683087498764
 20
511.3021923673314
  0
SEQEND
  8
1
  6
CONTINUOUS
 62
     7
  0
POLYLINE
  8
1
  6
CONTINUOUS
 62
     7
 66
     1
  0
VERTEX
  8
1
  6
CONTINUOUS
 62
     7
 10
-110.2068037397487
 20
489.3006274468157
  0
VERTEX
  8
1
  6
CONTINUOUS
 62
     7
 10
-110.234122272116
 20
489.3290447122358
  0
VERTEX
  8
1
  6
CONTINUOUS
 62
     7
 10
-110.2603396310859
 20
489.3585634301871
  0
VERTEX
  8
1
  6
CONTINUOUS
 62
     7
 10
-110.2854865260109
 20
489.3892402864888
  0
VERTEX
  8
1
  6
CONTINUOUS
 62
     7
 10
-110.3094343258251
 20
489.4209417637884
  0
VERTEX
  8
1
  6
CONTINUOUS
 62
     7
 10
-110.3330121477578
 20
489.4549367324025
  0
VERTEX
  8
1
  6
CONTINUOUS
 62
     7
 10
-110.3551654471554
 20
489.4898793593141
  0
VERTEX
  8
1
  6
CONTINUOUS
 62
     7
 10
-110.3759925220049
 20
489.5259611072232
  0
VERTEX
  8
1
  6
CONTINUOUS
 62
     7
 10
-110.3953006488252
 20
489.5628814096594
  0
VERTEX
  8
1
  6
CONTINUOUS
 62
     7
 10
-110.4134210140443
 20
489.6013999607829
  0
VERTEX
  8
1
  6
CONTINUOUS
 62
     7
 10
-110.4298878645577
 20
489.6406581072819
  0
VERTEX
  8
1
  6
CONTINUOUS
 62
     7
 10
-110.4447713586274
 20
489.6808802261321
  0
VERTEX
  8
1
  6
CONTINUOUS
 62
     7
 10
-110.4579186560533
 20
489.7217076934686
  0
VERTEX
  8
1
  6
CONTINUOUS
 62
     7
 10
-110.4688817349828
 20
489.761400807514
  0
VERTEX
  8
1
  6
CONTINUOUS
 62
     7
 10
-110.4782030035225
 20
489.8015160911273
  0
VERTEX
  8
1
  6
CONTINUOUS
 62
     7
 10
-110.4859114655534
 20
489.8422645657661
  0
VERTEX
  8
1
  6
CONTINUOUS
 62
     7
 10
-110.4919251425116
 20
489.8833025962657
  0
VERTEX
  8
1
  6
CONTINUOUS
 62
     7
 10
-110.4963053076858
 20
489.9254481816602
  0
VERTEX
  8
1
  6
CONTINUOUS
 62
     7
 10
-110.4988971491758
 20
489.967746991567
  0
VERTEX
  8
1
  6
CONTINUOUS
 62
     7
 10
-110.4996929045448
 20
490.0104317329177
  0
VERTEX
  8
1
  6
CONTINUOUS
 62
     7
 10
-110.498666619585
 20
490.0531172243345
  0
VERTEX
  8
1
  6
CONTINUOUS
 62
     7
 10
-110.4959546774399
 20
490.094162460349
  0
VERTEX
  8
1
  6
CONTINUOUS
 62
     7
 10
-110.4915570624648
 20
490.1350666052139
  0
VERTEX
  8
1
  6
CONTINUOUS
 62
     7
 10
-110.4854316414806
 20
490.1760386974157
  0
VERTEX
  8
1
  6
CONTINUOUS
 62
     7
 10
-110.4776141719995
 20
490.2167268682152
  0
VERTEX
  8
1
  6
CONTINUOUS
 62
     7
 10
-110.4678931962604
 20
490.2579246287244
  0
VERTEX
  8
1
  6
CONTINUOUS
 62
     7
 10
-110.4564368781255
 20
490.2986787696488
  0
VERTEX
  8
1
  6
CONTINUOUS
 62
     7
 10
-110.4431613996354
 20
490.339206721078
  0
VERTEX
  8
1
  6
CONTINUOUS
 62
     7
 10
-110.4281692580538
 20
490.3791358826523
  0
VERTEX
  8
1
  6
CONTINUOUS
 62
     7
 10
-110.4120821447139
 20
490.4170660540729
  0
VERTEX
  8
1
  6
CONTINUOUS
 62
     7
 10
-110.3944455376178
 20
490.4543044691491
  0
VERTEX
  8
1
  6
CONTINUOUS
 62
     7
 10
-110.3751502245768
 20
490.4910362341317
  0
VERTEX
  8
1
  6
CONTINUOUS
 62
     7
 10
-110.3543472285681
 20
490.5269383458395
  0
VERTEX
  8
1
  6
CONTINUOUS
 62
     7
 10
-110.3315724420964
 20
490.5626958139678
  0
VERTEX
  8
1
  6
CONTINUOUS
 62
     7
 10
-110.3073023240492
 20
490.5974575306083
  0
VERTEX
  8
1
  6
CONTINUOUS
 62
     7
 10
-110.2813854784453
 20
490.6314025814634
  0
VERTEX
  8
1
  6
CONTINUOUS
 62
     7
 10
-110.2540431898036
 20
490.6642110085604
  0
SEQEND
  8
1
  6
CONTINUOUS
 62
     7
  0
ARC
  8
1
  6
CONTINUOUS
 62
     7
 10
-120.4
 20
499.493823707067
 40
13.45
 50
318.9682776463065
 51
41.03172235369346
  0
ARC
  8
1
  6
CONTINUOUS
 62
     7
 10
-120.4
 20
499.493823707067
 40
13.45
 50
98.96827764630655
 51
121.0317223536935
  0
ENDBLK
  8
0
  0
BLOCK
  8
0
  2
D_FRAME_VIEW_2904
 70
     0
 10
0.0
 20
0.0
  0
ARC
  8
1
  6
CONTINUOUS
 62
     7
 10
-67.07724048799913
 20
486.3452126455736
 40
1.615861459976896
 50
191.911212524991
 51
222.4263351991576
  0
POLYLINE
  8
1
  6
CONTINUOUS
 62
     7
 66
     1
  0
VERTEX
  8
1
  6
CONTINUOUS
 62
     7
 10
-68.65831020976661
 20
486.0117058349253
  0
VERTEX
  8
1
  6
CONTINUOUS
 62
     7
 10
-68.68969616377497
 20
486.2102642438113
  0
VERTEX
  8
1
  6
CONTINUOUS
 62
     7
 10
-68.6974447527287
 20
486.3119543549772
  0
VERTEX
  8
1
  6
CONTINUOUS
 62
     7
 10
-68.7
 20
486.4147373475387
  0
SEQEND
  8
1
  6
CONTINUOUS
 62
     7
  0
LINE
  8
1
  6
CONTINUOUS
 62
     7
 10
-59.2
 20
514.6430811146101
 11
-69.20000000000002
 21
514.6430811146101
  0
LINE
  8
1
  6
CONTINUOUS
 62
     7
 10
-69.20000000000002
 20
514.6430811146101
 11
-69.20000000000002
 21
486.4147373475387
  0
ARC
  8
1
  6
CONTINUOUS
 62
     7
 10
-70.822759512001
 20
486.3452126455737
 40
1.615861459977046
 50
317.5736648008447
 51
348.0887874750081
  0
POLYLINE
  8
1
  6
CONTINUOUS
 62
     7
 66
     1
  0
VERTEX
  8
1
  6
CONTINUOUS
 62
     7
 10
-69.24168979023338
 20
486.0117058349253
  0
VERTEX
  8
1
  6
CONTINUOUS
 62
     7
 10
-69.21030383622502
 20
486.2102642438113
  0
VERTEX
  8
1
  6
CONTINUOUS
 62
     7
 10
-69.20255524727129
 20
486.3119543549772
  0
VERTEX
  8
1
  6
CONTINUOUS
 62
     7
 10
-69.2
 20
486.4147373475387
  0
SEQEND
  8
1
  6
CONTINUOUS
 62
     7
  0
LINE
  8
1
  6
CONTINUOUS
 62
     7
 10
-82.44999974999028
 20
509.4938241237498
 11
-80.94999999999997
 21
511.993823707067
  0
LINE
  8
1
  6
CONTINUOUS
 62
     7
 10
-83.94999999999997
 20
511.993823707067
 11
-82.44999999999996
 21
509.493823707067
  0
POLYLINE
  8
1
  6
CONTINUOUS
 62
     7
 66
     1
  0
VERTEX
  8
1
  6
CONTINUOUS
 62
     7
 10
-86.00212284846776
 20
507.3009397619314
  0
VERTEX
  8
1
  6
CONTINUOUS
 62
     7
 10
-86.0392669989839
 20
507.3098497197495
  0
VERTEX
  8
1
  6
CONTINUOUS
 62
     7
 10
-86.07480535601734
 20
507.3192307539803
  0
VERTEX
  8
1
  6
CONTINUOUS
 62
     7
 10
-86.10885481073569
 20
507.3290912743258
  0
VERTEX
  8
1
  6
CONTINUOUS
 62
     7
 10
-86.14123526670883
 20
507.3393560111022
  0
VERTEX
  8
1
  6
CONTINUOUS
 62
     7
 10
-86.17254556874418
 20
507.3502127542432
  0
VERTEX
  8
1
  6
CONTINUOUS
 62
     7
 10
-86.20210486823439
 20
507.3614233425891
  0
VERTEX
  8
1
  6
CONTINUOUS
 62
     7
 10
-86.23000962626466
 20
507.3729973568448
  0
VERTEX
  8
1
  6
CONTINUOUS
 62
     7
 10
-86.25616240854781
 20
507.3848672655629
  0
VERTEX
  8
1
  6
CONTINUOUS
 62
     7
 10
-86.28551517368274
 20
507.3996040618441
  0
VERTEX
  8
1
  6
CONTINUOUS
 62
     7
 10
-86.31235096987665
 20
507.4146958056829
  0
VERTEX
  8
1
  6
CONTINUOUS
 62
     7
 10
-86.3367871498484
 20
507.4301614499215
  0
VERTEX
  8
1
  6
CONTINUOUS
 62
     7
 10
-86.35874666186353
 20
507.4459053541245
  0
VERTEX
  8
1
  6
CONTINUOUS
 62
     7
 10
-86.37858972580014
 20
507.4621810150896
  0
VERTEX
  8
1
  6
CONTINUOUS
 62
     7
 10
-86.39593529483123
 20
507.4786752158606
  0
VERTEX
  8
1
  6
CONTINUOUS
 62
     7
 10
-86.41085930547652
 20
507.4954088116497
  0
VERTEX
  8
1
  6
CONTINUOUS
 62
     7
 10
-86.42333597133941
 20
507.5123015590656
  0
VERTEX
  8
1
  6
CONTINUOUS
 62
     7
 10
-86.43502659464538
 20
507.5325563578114
  0
VERTEX
  8
1
  6
CONTINUOUS
 62
     7
 10
-86.44335787854342
 20
507.5529988495059
  0
VERTEX
  8
1
  6
CONTINUOUS
 62
     7
 10
-86.44833993542827
 20
507.5735516452477
  0
VERTEX
  8
1
  6
CONTINUOUS
 62
     7
 10
-86.45
 20
507.594214694696
  0
SEQEND
  8
1
  6
CONTINUOUS
 62
     7
  0
LINE
  8
1
  6
CONTINUOUS
 62
     7
 10
-85.96788679319306
 20
507.2975323445941
 11
-86.00212284846776
 21
507.3009397619314
  0
LINE
  8
1
  6
CONTINUOUS
 62
     7
 10
-86.45
 20
509.1616293825832
 11
-86.45
 21
509.101229015947
  0
LINE
  8
1
  6
CONTINUOUS
 62
     7
 10
-69.20000000000002
 20
511.6181793600492
 11
-59.2
 21
511.6181793600492
  0
POLYLINE
  8
1
  6
CONTINUOUS
 62
     7
 66
     1
  0
VERTEX
  8
1
  6
CONTINUOUS
 62
     7
 10
-82.60000000000001
 20
488.9241951951932
  0
VERTEX
  8
1
  6
CONTINUOUS
 62
     7
 10
-82.60025811918908
 20
488.9152834295003
  0
VERTEX
  8
1
  6
CONTINUOUS
 62
     7
 10
-82.60103073972034
 20
488.9063863297141
  0
VERTEX
  8
1
  6
CONTINUOUS
 62
     7
 10
-82.60231525603982
 20
488.8975268388642
  0
VERTEX
  8
1
  6
CONTINUOUS
 62
     7
 10
-82.60410906259355
 20
488.8887278999799
  0
VERTEX
  8
1
  6
CONTINUOUS
 62
     7
 10
-82.60648682198132
 20
488.8797444050832
  0
VERTEX
  8
1
  6
CONTINUOUS
 62
     7
 10
-82.60940003944833
 20
488.8708410721564
  0
VERTEX
  8
1
  6
CONTINUOUS
 62
     7
 10
-82.61283985283954
 20
488.8620419213819
  0
VERTEX
  8
1
  6
CONTINUOUS
 62
     7
 10
-82.61679739999994
 20
488.8533709729422
  0
VERTEX
  8
1
  6
CONTINUOUS
 62
     7
 10
-82.62113688273377
 20
488.8450757463358
  0
VERTEX
  8
1
  6
CONTINUOUS
 62
     7
 10
-82.62595755881668
 20
488.8369155923941
  0
VERTEX
  8
1
  6
CONTINUOUS
 62
     7
 10
-82.63124609920925
 20
488.828910948621
  0
VERTEX
  8
1
  6
CONTINUOUS
 62
     7
 10
-82.63698917487206
 20
488.8210822525209
  0
VERTEX
  8
1
  6
CONTINUOUS
 62
     7
 10
-82.64336849538327
 20
488.8132182653012
  0
VERTEX
  8
1
  6
CONTINUOUS
 62
     7
 10
-82.65021723962231
 20
488.8055537852453
  0
VERTEX
  8
1
  6
CONTINUOUS
 62
     7
 10
-82.65751581518232
 20
488.7981086970372
  0
VERTEX
  8
1
  6
CONTINUOUS
 62
     7
 10
-82.66524462965654
 20
488.790902885361
  0
VERTEX
  8
1
  6
CONTINUOUS
 62
     7
 10
-82.67318559225852
 20
488.7841164162363
  0
VERTEX
  8
1
  6
CONTINUOUS
 62
     7
 10
-82.6815209962879
 20
488.7775679695943
  0
VERTEX
  8
1
  6
CONTINUOUS
 62
     7
 10
-82.6902286800522
 20
488.7712733097045
  0
VERTEX
  8
1
  6
CONTINUOUS
 62
     7
 10
-82.69928648185883
 20
488.7652482008365
  0
VERTEX
  8
1
  6
CONTINUOUS
 62
     7
 10
-82.70896147252081
 20
488.7593374156577
  0
VERTEX
  8
1
  6
CONTINUOUS
 62
     7
 10
-82.71898932471437
 20
488.7537211482915
  0
VERTEX
  8
1
  6
CONTINUOUS
 62
     7
 10
-82.72934235100752
 20
488.7484133389692
  0
VERTEX
  8
1
  6
CONTINUOUS
 62
     7
 10
-82.73999286396824
 20
488.7434279279223
  0
VERTEX
  8
1
  6
CONTINUOUS
 62
     7
 10
-82.7507009631551
 20
488.7388633897836
  0
VERTEX
  8
1
  6
CONTINUOUS
 62
     7
 10
-82.76167543668602
 20
488.7346147956432
  0
VERTEX
  8
1
  6
CONTINUOUS
 62
     7
 10
-82.77288771572455
 20
488.7306919966774
  0
VERTEX
  8
1
  6
CONTINUOUS
 62
     7
 10
-82.78430923143421
 20
488.7271048440626
  0
VERTEX
  8
1
  6
CONTINUOUS
 62
     7
 10
-82.79626649597733
 20
488.7237688201207
  0
VERTEX
  8
1
  6
CONTINUOUS
 62
     7
 10
-82.80842376646136
 20
488.7207930876748
  0
VERTEX
  8
1
  6
CONTINUOUS
 62
     7
 10
-82.82074797686695
 20
488.7181846964515
  0
VERTEX
  8
1
  6
CONTINUOUS
 62
     7
 10
-82.83320606117482
 20
488.7159506961771
  0
VERTEX
  8
1
  6
CONTINUOUS
 62
     7
 10
-82.84668528272017
 20
488.713977226369
  0
VERTEX
  8
1
  6
CONTINUOUS
 62
     7
 10
-82.86029831118765
 20
488.7124367731248
  0
VERTEX
  8
1
  6
CONTINUOUS
 62
     7
 10
-82.87400295617832
 20
488.7113325145642
  0
VERTEX
  8
1
  6
CONTINUOUS
 62
     7
 10
-82.8877570272932
 20
488.7106676288068
  0
VERTEX
  8
1
  6
CONTINUOUS
 62
     7
 10
-82.90151833413339
 20
488.7104452939722
  0
SEQEND
  8
1
  6
CONTINUOUS
 62
     7
  0
LINE
  8
1
  6
CONTINUOUS
 62
     7
 10
-82.60000000000001
 20
507.2975323445604
 11
-82.60000000000001
 21
488.9241951951932
  0
LINE
  8
1
  6
CONTINUOUS
 62
     7
 10
-83.8
 20
507.2975323445604
 11
-83.8
 21
488.9241951951932
  0
POLYLINE
  8
1
  6
CONTINUOUS
 62
     7
 66
     1
  0
VERTEX
  8
1
  6
CONTINUOUS
 62
     7
 10
-83.49848166586663
 20
488.7104452939722
  0
VERTEX
  8
1
  6
CONTINUOUS
 62
     7
 10
-83.51107525311508
 20
488.7106307005108
  0
VERTEX
  8
1
  6
CONTINUOUS
 62
     7
 10
-83.52365797281959
 20
488.7111857321644
  0
VERTEX
  8
1
  6
CONTINUOUS
 62
     7
 10
-83.53619742328688
 20
488.71210860699
  0
VERTEX
  8
1
  6
CONTINUOUS
 62
     7
 10
-83.5486612028237
 20
488.7133975430442
  0
VERTEX
  8
1
  6
CONTINUOUS
 62
     7
 10
-83.56139535622538
 20
488.7151061243542
  0
VERTEX
  8
1
  6
CONTINUOUS
 62
     7
 10
-83.5740262868404
 20
488.717200095629
  0
VERTEX
  8
1
  6
CONTINUOUS
 62
     7
 10
-83.58651955968634
 20
488.7196736067335
  0
VERTEX
  8
1
  6
CONTINUOUS
 62
     7
 10
-83.59884073978077
 20
488.7225208075326
  0
VERTEX
  8
1
  6
CONTINUOUS
 62
     7
 10
-83.61063916464873
 20
488.7256450509493
  0
VERTEX
  8
1
  6
CONTINUOUS
 62
     7
 10
-83.62225394724487
 20
488.7291180327248
  0
VERTEX
  8
1
  6
CONTINUOUS
 62
     7
 10
-83.63365506563515
 20
488.732930861908
  0
VERTEX
  8
1
  6
CONTINUOUS
 62
     7
 10
-83.64481249788552
 20
488.7370746475477
  0
VERTEX
  8
1
  6
CONTINUOUS
 62
     7
 10
-83.6560301752536
 20
488.7416830062051
  0
VERTEX
  8
1
  6
CONTINUOUS
 62
     7
 10
-83.66696861522443
 20
488.7466352672882
  0
VERTEX
  8
1
  6
CONTINUOUS
 62
     7
 10
-83.67759769640288
 20
488.7519180208326
  0
VERTEX
  8
1
  6
CONTINUOUS
 62
     7
 10
-83.6878872973939
 20
488.7575178568746
  0
VERTEX
  8
1
  6
CONTINUOUS
 62
     7
 10
-83.69751734315672
 20
488.7632393842234
  0
VERTEX
  8
1
  6
CONTINUOUS
 62
     7
 10
-83.70681108865075
 20
488.7692497973051
  0
VERTEX
  8
1
  6
CONTINUOUS
 62
     7
 10
-83.7157443594761
 20
488.7755337316102
  0
VERTEX
  8
1
  6
CONTINUOUS
 62
     7
 10
-83.72429298123289
 20
488.7820758226292
  0
VERTEX
  8
1
  6
CONTINUOUS
 62
     7
 10
-83.73268198029484
 20
488.7890758126723
  0
VERTEX
  8
1
  6
CONTINUOUS
 62
     7
 10
-83.74064672914243
 20
488.7963382771388
  0
VERTEX
  8
1
  6
CONTINUOUS
 62
     7
 10
-83.7481651942595
 20
488.8038432917425
  0
VERTEX
  8
1
  6
CONTINUOUS
 62
     7
 10
-83.75521534212996
 20
488.8115709321974
  0
VERTEX
  8
1
  6
CONTINUOUS
 62
     7
 10
-83.76156252161621
 20
488.819228343331
  0
VERTEX
  8
1
  6
CONTINUOUS
 62
     7
 10
-83.76746178864795
 20
488.827080483242
  0
VERTEX
  8
1
  6
CONTINUOUS
 62
     7
 10
-83.77289799868095
 20
488.835107071831
  0
VERTEX
  8
1
  6
CONTINUOUS
 62
     7
 10
-83.777856007171
 20
488.8432878289987
  0
VERTEX
  8
1
  6
CONTINUOUS
 62
     7
 10
-83.78245383846809
 20
488.8518636820073
  0
VERTEX
  8
1
  6
CONTINUOUS
 62
     7
 10
-83.78653541015447
 20
488.8605881693064
  0
VERTEX
  8
1
  6
CONTINUOUS
 62
     7
 10
-83.7900898845631
 20
488.8694371559262
  0
VERTEX
  8
1
  6
CONTINUOUS
 62
     7
 10
-83.7931064240269
 20
488.8783865068964
  0
VERTEX
  8
1
  6
CONTINUOUS
 62
     7
 10
-83.79557794469162
 20
488.8874226871767
  0
VERTEX
  8
1
  6
CONTINUOUS
 62
     7
 10
-83.79750687512838
 20
488.8965471037409
  0
VERTEX
  8
1
  6
CONTINUOUS
 62
     7
 10
-83.7988894028301
 20
488.9057342989947
  0
VERTEX
  8
1
  6
CONTINUOUS
 62
     7
 10
-83.79972171528966
 20
488.9149588153436
  0
VERTEX
  8
1
  6
CONTINUOUS
 62
     7
 10
-83.8
 20
488.9241951951931
  0
SEQEND
  8
1
  6
CONTINUOUS
 62
     7
  0
LINE
  8
1
  6
CONTINUOUS
 62
     7
 10
-83.49848166586663
 20
488.7104452939722
 11
-82.90151833413339
 21
488.7104452939722
  0
LINE
  8
1
  6
CONTINUOUS
 62
     7
 10
-82.44999999999997
 20
509.8446690831704
 11
-81.12534735994618
 21
511.9938237070671
  0
LINE
  8
1
  6
CONTINUOUS
 62
     7
 10
-81.12534735994608
 20
511.993823707067
 11
-80.94999999999999
 21
511.993823707067
  0
LINE
  8
1
  6
CONTINUOUS
 62
     7
 10
-82.44999999999997
 20
509.8446690831704
 11
-82.44999999999997
 21
509.493823707067
  0
LINE
  8
1
  6
CONTINUOUS
 62
     7
 10
-83.77465263972778
 20
511.9938237070876
 11
-82.44999999999997
 21
509.8446690831704
  0
LINE
  8
1
  6
CONTINUOUS
 62
     7
 10
-83.94999999999997
 20
511.9938237070669
 11
-83.77465263972783
 21
511.9938237070669
  0
LINE
  8
1
  6
CONTINUOUS
 62
     7
 10
-81.12534735994618
 20
511.9938237070671
 11
-83.77465263972778
 21
511.9938237070876
  0
LINE
  8
1
  6
CONTINUOUS
 62
     7
 10
-69.6300189229693
 20
485.2550850635378
 11
-69.86734264092877
 21
485.1561762931385
  0
LINE
  8
1
  6
CONTINUOUS
 62
     7
 10
-78.2
 20
485.2550850635378
 11
-78.2
 21
485.1561762929329
  0
LINE
  8
1
  6
CONTINUOUS
 62
     7
 10
-68.26998107703068
 20
485.2550850635378
 11
-68.03265735907122
 21
485.1561762931385
  0
LINE
  8
1
  6
CONTINUOUS
 62
     7
 10
-78.71758376876664
 20
487.7737922148336
 11
-78.81598180835071
 21
487.7338410180218
  0
ARC
  8
1
  6
CONTINUOUS
 62
     7
 10
-80.42852276753095
 20
496.8716435861937
 40
9.27899370190127
 50
270.2295363831959
 51
280.0079041851415
  0
LINE
  8
1
  6
CONTINUOUS
 62
     7
 10
-78.71758376876664
 20
487.7737922148336
 11
-78.7
 21
487.8462987132579
  0
LINE
  8
1
  6
CONTINUOUS
 62
     7
 10
-86.45
 20
487.769226420132
 11
-86.45
 21
487.5923438149718
  0
LINE
  8
1
  6
CONTINUOUS
 62
     7
 10
-52.45
 20
517.243823707067
 11
-85.44999999999997
 21
517.243823707067
  0
ARC
  8
1
  6
CONTINUOUS
 62
     7
 10
-52.45
 20
516.243823707067
 40
1.000000000000001
 50
0.0
 51
90.0
  0
ARC
  8
1
  6
CONTINUOUS
 62
     7
 10
-85.45
 20
516.243823707067
 40
1.000000000000001
 50
90.0
 51
180.0
  0
LINE
  8
1
  6
CONTINUOUS
 62
     7
 10
-85.96788497116904
 20
507.2975323445604
 11
-78.19999999999999
 21
507.2975323445604
  0
LINE
  8
1
  6
CONTINUOUS
 62
     7
 10
-78.19999999999999
 20
485.1561762929329
 11
-69.8673601982179
 21
485.1561762929329
  0
LINE
  8
1
  6
CONTINUOUS
 62
     7
 10
-57.4822740733405
 20
487.5923438149717
 11
-51.45
 21
487.5923438149717
  0
LINE
  8
1
  6
CONTINUOUS
 62
     7
 10
-86.44999999999997
 20
487.5923438149718
 11
-80.41772592665934
 21
487.5923438149718
  0
LINE
  8
1
  6
CONTINUOUS
 62
     7
 10
-68.03263980178211
 20
485.1561762929329
 11
-59.7
 21
485.1561762929329
  0
LINE
  8
1
  6
CONTINUOUS
 62
     7
 10
-59.7
 20
507.2975323445604
 11
-59.2
 21
507.2975323445604
  0
ENDBLK
  8
0
  0
ENDSEC
  0
SECTION
  2
ENTITIES
  0
LINE
  8
1
  6
CENTER
 62
     1
 10
-120.4
 20
479.743823707067
 11
-120.4
 21
519.243823707067
  0
LINE
  8
1
  6
CENTER
 62
     1
 10
-140.15
 20
499.493823707067
 11
-100.65
 21
499.493823707067
  0
INSERT
  8
1
  6
CONTINUOUS
 62
     7
  2
D_FRAME_VIEW_2738
 10
0.0
 20
0.0
 30
0.0
  0
LINE
  8
1
  6
CONTINUOUS
 62
     7
 10
-78.2
 20
485.2550850635378
 11
-78.2
 21
507.2975323445604
  0
LINE
  8
1
  6
CONTINUOUS
 62
     7
 10
-59.2
 20
487.7809315095761
 11
-59.08401819164929
 21
487.7338410180218
  0
ARC
  8
1
  6
CONTINUOUS
 62
     7
 10
-57.47147723247033
 20
496.8716435861794
 40
9.278993701886941
 50
259.9920958148509
 51
269.7704636168124
  0
LINE
  8
1
  6
CONTINUOUS
 62
     7
 10
-68.7
 20
511.6181793600492
 11
-68.7
 21
486.4147373475387
  0
LINE
  8
1
  6
CONTINUOUS
 62
     7
 10
-86.45
 20
516.243823707067
 11
-86.45
 21
487.769226420132
  0
LINE
  8
1
  6
CONTINUOUS
 62
     7
 10
-78.7
 20
487.8462987132579
 11
-78.7
 21
507.2975323445604
  0
LINE
  8
1
  6
CONTINUOUS
 62
     7
 10
-59.7
 20
485.1561762929329
 11
-59.7
 21
511.5998565227991
  0
LINE
  8
1
  6
CONTINUOUS
 62
     7
 10
-51.45
 20
516.243823707067
 11
-51.45
 21
487.5923438149717
  0
LINE
  8
1
  6
CONTINUOUS
 62
     7
 10
-59.2
 20
487.7809315095761
 11
-59.2
 21
514.6430811146101
  0
INSERT
  8
1
  6
CONTINUOUS
 62
     7
  2
D_FRAME_VIEW_2904
 10
0.0
 20
0.0
 30
0.0
  0
TEXT
  8
1
  6
CONTINUOUS
 62
     7
 10
-101.4958015505814
 20
474.5284200325121
 40
3.0
  1
FRAK-22
  0
ENDSEC
  0
EOF
