  0
SECTION
  2
HEADER
  9
$ACADVER
  1
AC1004
  9
$INSBASE
 10
0.0
 20
0.0
  9
$EXTMIN
 10
-55.65
 20
480.7204545454545
  9
$EXTMAX
 10
42.00000000000001
 20
532.7372577482986
  9
$LIMMIN
 10
0.0
 20
0.0
  9
$LIMMAX
 10
12.0
 20
9.0
  9
$ORTHOMODE
 70
     0
  9
$REGENMODE
 70
     1
  9
$FILLMODE
 70
     1
  9
$QTEXTMODE
 70
     0
  9
$DRAGMODE
 70
     2
  9
$LTSCALE
 40
1.0
  9
$OSMODE
 70
    37
  9
$ATTMODE
 70
     1
  9
$TEXTSIZE
 40
0.2
  9
$TRACEWID
 40
0.05
  9
$TEXTSTYLE
  7
STANDARD
  9
$CLAYER
  8
0
  9
$CELTYPE
  6
BYLAYER
  9
$CECOLOR
 62
   256
  9
$DIMSCALE
 40
1.0
  9
$DIMASZ
 40
3.0
  9
$DIMEXO
 40
0.0625
  9
$DIMDLI
 40
0.38
  9
$DIMRND
 40
0.0
  9
$DIMDLE
 40
0.0
  9
$DIMEXE
 40
1.5
  9
$DIMTP
 40
0.0
  9
$DIMTM
 40
0.0
  9
$DIMTXT
 40
3.0
  9
$DIMCEN
 40
0.09
  9
$DIMTSZ
 40
0.0
  9
$DIMTOL
 70
     0
  9
$DIMLIM
 70
     0
  9
$DIMTIH
 70
     1
  9
$DIMTOH
 70
     1
  9
$DIMSE1
 70
     0
  9
$DIMSE2
 70
     0
  9
$DIMTAD
 70
     1
  9
$DIMZIN
 70
     0
  9
$DIMBLK
  1

  9
$DIMASO
 70
     1
  9
$DIMSHO
 70
     1
  9
$DIMPOST
  1

  9
$DIMAPOST
  1

  9
$DIMALT
 70
     0
  9
$DIMALTD
 70
     2
  9
$DIMALTF
 40
25.4
  9
$DIMLFAC
 40
1.0
  9
$DIMTOFL
 70
     0
  9
$DIMTVP
 40
0.0
  9
$DIMTIX
 70
     0
  9
$DIMSOXD
 70
     0
  9
$DIMSAH
 70
     0
  9
$DIMBLK1
  1

  9
$DIMBLK2
  1

  9
$LUNITS
 70
     2
  9
$LUPREC
 70
     4
  9
$SKETCHINC
 40
0.1
  9
$FILLETRAD
 40
0.5
  9
$AUNITS
 70
     0
  9
$AUPREC
 70
     0
  9
$MENU
  1
.
  9
$ELEVATION
 40
0.0
  9
$THICKNESS
 40
0.0
  9
$LIMCHECK
 70
     0
  9
$CHAMFERA
 40
0.0
  9
$CHAMFERB
 40
0.0
  9
$SKPOLY
 70
     0
  9
$TDCREATE
 40
2459069.414586609
  9
$TDUPDATE
 40
2459069.414586968
  9
$TDINDWG
 40
0.0000000116
  9
$TDUSRTIMER
 40
0.0000000116
  9
$USRTIMER
 70
     1
  9
$ANGBASE
 50
0.0
  9
$ANGDIR
 70
     0
  9
$PDMODE
 70
     0
  9
$PDSIZE
 40
0.0
  9
$PLINEWID
 40
0.0
  9
$COORDS
 70
     1
  9
$SPLFRAME
 70
     0
  9
$SPLINETYPE
 70
     6
  9
$SPLINESEGS
 70
     8
  9
$ATTDIA
 70
     0
  9
$ATTREQ
 70
     1
  9
$SURFTAB1
 70
     6
  9
$SURFTAB2
 70
     6
  9
$SURFTYPE
 70
     6
  9
$SURFU
 70
     6
  9
$SURFV
 70
     6
  9
$UCSNAME
  2

  9
$UCSORG
 10
0.0
 20
0.0
 30
0.0
  9
$UCSXDIR
 10
1.0
 20
0.0
 30
0.0
  9
$UCSYDIR
 10
0.0
 20
1.0
 30
0.0
  9
$USERI1
 70
     0
  9
$USERI2
 70
     0
  9
$USERI3
 70
     0
  9
$USERI4
 70
     0
  9
$USERI5
 70
     0
  9
$USERR1
 40
0.0
  9
$USERR2
 40
0.0
  9
$USERR3
 40
0.0
  9
$USERR4
 40
0.0
  9
$USERR5
 40
0.0
  9
$WORLDVIEW
 70
     1
  0
ENDSEC
  0
SECTION
  2
TABLES
  0
TABLE
  2
LTYPE
 70
     2
  0
LTYPE
  2
CONTINUOUS
 70
     0
  3
Solid line
 72
    65
 73
     0
 40
0.0
  0
LTYPE
  2
CENTER
 70
     0
  3

 72
    65
 73
     0
 40
0.0
  0
ENDTAB
  0
TABLE
  2
LAYER
 70
     2
  0
LAYER
  2
0
 70
     0
 62
     7
  6
CONTINUOUS
  0
LAYER
  2
1
 70
     0
 62
     7
  6
CONTINUOUS
  0
ENDTAB
  0
TABLE
  2
STYLE
 70
     2
  0
STYLE
  2
STANDARD
 70
     0
 40
0.0
 41
1.0
 50
0.0
 71
     0
 42
0.2
  3
txt
  4

  0
STYLE
  2
ＭＳ_ゴシック
 70
     0
 40
0.0
 41
1.0
 50
0.0
 71
     0
 42
0.2
  3
ＭＳ ゴシック.shx
  4

  0
ENDTAB
  0
TABLE
  2
VIEW
 70
     0
  0
ENDTAB
  0
ENDSEC
  0
SECTION
  2
BLOCKS
  0
BLOCK
  8
0
  2
D_FRAME_VIEW_2890
 70
     0
 10
0.0
 20
0.0
  0
ARC
  8
1
  6
CONTINUOUS
 62
     7
 10
24.04826006620364
 20
494.861239071989
 40
1.798772083923855
 50
178.6328934663705
 51
230.9354883464511
  0
LINE
  8
1
  6
CONTINUOUS
 62
     7
 10
32.85000000000002
 20
527.2589831977144
 11
21.75000000000001
 21
527.2589831977144
  0
LINE
  8
1
  6
CONTINUOUS
 62
     7
 10
21.75000000000001
 20
527.2589831977144
 11
21.75000000000001
 21
494.9041546193002
  0
ARC
  8
1
  6
CONTINUOUS
 62
     7
 10
19.95173993379644
 20
494.861239071989
 40
1.798772083923788
 50
309.0645116535489
 51
1.367106533631272
  0
LINE
  8
1
  6
CONTINUOUS
 62
     7
 10
11.65000000000001
 20
493.4646060666003
 11
11.65000000000001
 21
520.1713078083237
  0
LINE
  8
1
  6
CONTINUOUS
 62
     7
 10
7.000000000000013
 20
521.9872577482986
 11
8.500000000000014
 21
524.4872577482985
  0
LINE
  8
1
  6
CONTINUOUS
 62
     7
 10
5.500000000000012
 20
524.4872577482985
 11
7.000000000000013
 21
521.9872577482986
  0
LINE
  8
1
  6
CONTINUOUS
 62
     7
 10
21.75000000000001
 20
524.1580904690669
 11
32.85000000000002
 21
524.1580904690669
  0
LINE
  8
1
  6
CONTINUOUS
 62
     7
 10
22.25000000000001
 20
524.1580904690669
 11
22.25000000000001
 21
498.5855034973072
  0
LINE
  8
1
  6
CONTINUOUS
 62
     7
 10
11.15000000000001
 20
498.7755451226557
 11
11.15000000000001
 21
520.0222280489983
  0
LINE
  8
1
  6
CONTINUOUS
 62
     7
 10
2.000000000000016
 20
520.2166700981289
 11
2.000000000000016
 21
496.1985721461851
  0
LINE
  8
1
  6
CONTINUOUS
 62
     7
 10
2.000000000000016
 20
521.6601254594783
 11
2.000000000000016
 21
521.5960164810749
  0
LINE
  8
1
  6
CONTINUOUS
 62
     7
 10
2.000000000000016
 20
523.9515310810364
 11
2.000000000000016
 21
521.6601254594783
  0
POLYLINE
  8
1
  6
CONTINUOUS
 62
     7
 66
     1
  0
VERTEX
  8
1
  6
CONTINUOUS
 62
     7
 10
6.700000000000005
 20
497.2960825911993
  0
VERTEX
  8
1
  6
CONTINUOUS
 62
     7
 10
6.69974147931951
 20
497.2871837683317
  0
VERTEX
  8
1
  6
CONTINUOUS
 62
     7
 10
6.698967669599099
 20
497.2782984965226
  0
VERTEX
  8
1
  6
CONTINUOUS
 62
     7
 10
6.697681199320362
 20
497.2694496928289
  0
VERTEX
  8
1
  6
CONTINUOUS
 62
     7
 10
6.695884696964894
 20
497.2606602743074
  0
VERTEX
  8
1
  6
CONTINUOUS
 62
     7
 10
6.693503426484063
 20
497.2516854412756
  0
VERTEX
  8
1
  6
CONTINUOUS
 62
     7
 10
6.690585922542316
 20
497.2427895583025
  0
VERTEX
  8
1
  6
CONTINUOUS
 62
     7
 10
6.687141033552904
 20
497.2339966611033
  0
VERTEX
  8
1
  6
CONTINUOUS
 62
     7
 10
6.68317760792907
 20
497.2253307853932
  0
VERTEX
  8
1
  6
CONTINUOUS
 62
     7
 10
6.678831560385929
 20
497.2170392949465
  0
VERTEX
  8
1
  6
CONTINUOUS
 62
     7
 10
6.674003477922962
 20
497.2088818659723
  0
VERTEX
  8
1
  6
CONTINUOUS
 62
     7
 10
6.668706661283469
 20
497.2008790087929
  0
VERTEX
  8
1
  6
CONTINUOUS
 62
     7
 10
6.662954411210745
 20
497.1930512337308
  0
VERTEX
  8
1
  6
CONTINUOUS
 62
     7
 10
6.656564488648431
 20
497.1851871743796
  0
VERTEX
  8
1
  6
CONTINUOUS
 62
     7
 10
6.649704056019424
 20
497.1775219110324
  0
VERTEX
  8
1
  6
CONTINUOUS
 62
     7
 10
6.642392695565317
 20
497.1700754724291
  0
VERTEX
  8
1
  6
CONTINUOUS
 62
     7
 10
6.634649989527709
 20
497.1628678873093
  0
VERTEX
  8
1
  6
CONTINUOUS
 62
     7
 10
6.626698770145003
 20
497.1560830051113
  0
VERTEX
  8
1
  6
CONTINUOUS
 62
     7
 10
6.618352392308846
 20
497.1495357385659
  0
VERTEX
  8
1
  6
CONTINUOUS
 62
     7
 10
6.609633023620511
 20
497.1432420007855
  0
VERTEX
  8
1
  6
CONTINUOUS
 62
     7
 10
6.60056283168128
 20
497.1372177048821
  0
VERTEX
  8
1
  6
CONTINUOUS
 62
     7
 10
6.590873544320898
 20
497.1313073348879
  0
VERTEX
  8
1
  6
CONTINUOUS
 62
     7
 10
6.580830530348556
 20
497.1256917024663
  0
VERTEX
  8
1
  6
CONTINUOUS
 62
     7
 10
6.570461564049064
 20
497.1203849302843
  0
VERTEX
  8
1
  6
CONTINUOUS
 62
     7
 10
6.559794419707221
 20
497.115401141009
  0
VERTEX
  8
1
  6
CONTINUOUS
 62
     7
 10
6.549085686317957
 20
497.1108455232591
  0
VERTEX
  8
1
  6
CONTINUOUS
 62
     7
 10
6.538110724930976
 20
497.1066057215122
  0
VERTEX
  8
1
  6
CONTINUOUS
 62
     7
 10
6.526898130883477
 20
497.1026916947226
  0
VERTEX
  8
1
  6
CONTINUOUS
 62
     7
 10
6.515476499512646
 20
497.0991134018449
  0
VERTEX
  8
1
  6
CONTINUOUS
 62
     7
 10
6.503518423443856
 20
497.0957864646899
  0
VERTEX
  8
1
  6
CONTINUOUS
 62
     7
 10
6.491360527599597
 20
497.0928201698301
  0
VERTEX
  8
1
  6
CONTINUOUS
 62
     7
 10
6.479035971191406
 20
497.0902216499901
  0
VERTEX
  8
1
  6
CONTINUOUS
 62
     7
 10
6.466577913430811
 20
497.0879980378943
  0
VERTEX
  8
1
  6
CONTINUOUS
 62
     7
 10
6.453192523280641
 20
497.0860483735541
  0
VERTEX
  8
1
  6
CONTINUOUS
 62
     7
 10
6.439675590049352
 20
497.0845264896427
  0
VERTEX
  8
1
  6
CONTINUOUS
 62
     7
 10
6.426068589555446
 20
497.0834355332765
  0
VERTEX
  8
1
  6
CONTINUOUS
 62
     7
 10
6.412412997617404
 20
497.0827786515715
  0
VERTEX
  8
1
  6
CONTINUOUS
 62
     7
 10
6.398750290053722
 20
497.082558991644
  0
SEQEND
  8
1
  6
CONTINUOUS
 62
     7
  0
LINE
  8
1
  6
CONTINUOUS
 62
     7
 10
6.700000000000005
 20
520.0222280489983
 11
6.700000000000005
 21
497.2960825911993
  0
LINE
  8
1
  6
CONTINUOUS
 62
     7
 10
5.500000000000012
 20
520.0222280489983
 11
5.500000000000012
 21
497.2960825911993
  0
POLYLINE
  8
1
  6
CONTINUOUS
 62
     7
 66
     1
  0
VERTEX
  8
1
  6
CONTINUOUS
 62
     7
 10
5.801249709946291
 20
497.082558991644
  0
VERTEX
  8
1
  6
CONTINUOUS
 62
     7
 10
5.78868120518923
 20
497.0827440929796
  0
VERTEX
  8
1
  6
CONTINUOUS
 62
     7
 10
5.776123553759293
 20
497.0832981957848
  0
VERTEX
  8
1
  6
CONTINUOUS
 62
     7
 10
5.763609110458447
 20
497.0842194982572
  0
VERTEX
  8
1
  6
CONTINUOUS
 62
     7
 10
5.751170230088666
 20
497.0855061985945
  0
VERTEX
  8
1
  6
CONTINUOUS
 62
     7
 10
5.738461399272976
 20
497.0872117800623
  0
VERTEX
  8
1
  6
CONTINUOUS
 62
     7
 10
5.7258556349488
 20
497.0893019672528
  0
VERTEX
  8
1
  6
CONTINUOUS
 62
     7
 10
5.713387298230156
 20
497.091770848815
  0
VERTEX
  8
1
  6
CONTINUOUS
 62
     7
 10
5.701090750231042
 20
497.0946125133984
  0
VERTEX
  8
1
  6
CONTINUOUS
 62
     7
 10
5.689316149625014
 20
497.0977303728588
  0
VERTEX
  8
1
  6
CONTINUOUS
 62
     7
 10
5.677724813752814
 20
497.1011959379895
  0
VERTEX
  8
1
  6
CONTINUOUS
 62
     7
 10
5.666346653766071
 20
497.1050002427704
  0
VERTEX
  8
1
  6
CONTINUOUS
 62
     7
 10
5.655211580816416
 20
497.1091343211816
  0
VERTEX
  8
1
  6
CONTINUOUS
 62
     7
 10
5.644016610155504
 20
497.1137311777164
  0
VERTEX
  8
1
  6
CONTINUOUS
 62
     7
 10
5.633100068106744
 20
497.1186704376385
  0
VERTEX
  8
1
  6
CONTINUOUS
 62
     7
 10
5.622491898993442
 20
497.1239386212535
  0
VERTEX
  8
1
  6
CONTINUOUS
 62
     7
 10
5.612222047138894
 20
497.1295222488672
  0
VERTEX
  8
1
  6
CONTINUOUS
 62
     7
 10
5.602603205229747
 20
497.1352305592932
  0
VERTEX
  8
1
  6
CONTINUOUS
 62
     7
 10
5.593319847250151
 20
497.1412264167907
  0
VERTEX
  8
1
  6
CONTINUOUS
 62
     7
 10
5.584396000158049
 20
497.1474944037477
  0
VERTEX
  8
1
  6
CONTINUOUS
 62
     7
 10
5.575855690911388
 20
497.1540191025525
  0
VERTEX
  8
1
  6
CONTINUOUS
 62
     7
 10
5.567474648863875
 20
497.1609989796646
  0
VERTEX
  8
1
  6
CONTINUOUS
 62
     7
 10
5.559516383395447
 20
497.1682395624604
  0
VERTEX
  8
1
  6
CONTINUOUS
 62
     7
 10
5.552002744028346
 20
497.1757209461938
  0
VERTEX
  8
1
  6
CONTINUOUS
 62
     7
 10
5.544955580284814
 20
497.1834232261191
  0
VERTEX
  8
1
  6
CONTINUOUS
 62
     7
 10
5.538599896322813
 20
497.1910664905466
  0
VERTEX
  8
1
  6
CONTINUOUS
 62
     7
 10
5.532691603011314
 20
497.1989033724093
  0
VERTEX
  8
1
  6
CONTINUOUS
 62
     7
 10
5.527245774373801
 20
497.2069135956827
  0
VERTEX
  8
1
  6
CONTINUOUS
 62
     7
 10
5.522277484433756
 20
497.2150768843418
  0
VERTEX
  8
1
  6
CONTINUOUS
 62
     7
 10
5.517668627518963
 20
497.223632909039
  0
VERTEX
  8
1
  6
CONTINUOUS
 62
     7
 10
5.513575136147042
 20
497.2323363128395
  0
VERTEX
  8
1
  6
CONTINUOUS
 62
     7
 10
5.510007811985039
 20
497.2411630454928
  0
VERTEX
  8
1
  6
CONTINUOUS
 62
     7
 10
5.506977456699986
 20
497.2500890567485
  0
VERTEX
  8
1
  6
CONTINUOUS
 62
     7
 10
5.504476011695038
 20
497.2591627892527
  0
VERTEX
  8
1
  6
CONTINUOUS
 62
     7
 10
5.502523628744923
 20
497.2683248486625
  0
VERTEX
  8
1
  6
CONTINUOUS
 62
     7
 10
5.501124222627287
 20
497.2775493952652
  0
VERTEX
  8
1
  6
CONTINUOUS
 62
     7
 10
5.500281708119767
 20
497.2868105893483
  0
VERTEX
  8
1
  6
CONTINUOUS
 62
     7
 10
5.500000000000012
 20
497.2960825911993
  0
SEQEND
  8
1
  6
CONTINUOUS
 62
     7
  0
LINE
  8
1
  6
CONTINUOUS
 62
     7
 10
5.801249709946291
 20
497.082558991644
 11
6.398750290053722
 21
497.082558991644
  0
POLYLINE
  8
1
  6
CONTINUOUS
 62
     7
 66
     1
  0
VERTEX
  8
1
  6
CONTINUOUS
 62
     7
 10
2.452310122192595
 20
520.0237472736972
  0
VERTEX
  8
1
  6
CONTINUOUS
 62
     7
 10
2.415437463873554
 20
520.0294243356418
  0
VERTEX
  8
1
  6
CONTINUOUS
 62
     7
 10
2.380070064549891
 20
520.0354109354834
  0
VERTEX
  8
1
  6
CONTINUOUS
 62
     7
 10
2.346101752327419
 20
520.0417133947291
  0
VERTEX
  8
1
  6
CONTINUOUS
 62
     7
 10
2.313717530482817
 20
520.0482852936817
  0
VERTEX
  8
1
  6
CONTINUOUS
 62
     7
 10
2.282327854178732
 20
520.0552475809388
  0
VERTEX
  8
1
  6
CONTINUOUS
 62
     7
 10
2.252620502000643
 20
520.0624490172808
  0
VERTEX
  8
1
  6
CONTINUOUS
 62
     7
 10
2.224506749745364
 20
520.0698967197656
  0
VERTEX
  8
1
  6
CONTINUOUS
 62
     7
 10
2.198096368772606
 20
520.0775471041578
  0
VERTEX
  8
1
  6
CONTINUOUS
 62
     7
 10
2.169241631795958
 20
520.0867702304234
  0
VERTEX
  8
1
  6
CONTINUOUS
 62
     7
 10
2.142717284235318
 20
520.0962252293074
  0
VERTEX
  8
1
  6
CONTINUOUS
 62
     7
 10
2.118423115957967
 20
520.1059247817452
  0
VERTEX
  8
1
  6
CONTINUOUS
 62
     7
 10
2.09644949667245
 20
520.1158099240935
  0
VERTEX
  8
1
  6
CONTINUOUS
 62
     7
 10
2.076444530315666
 20
520.1260418650387
  0
VERTEX
  8
1
  6
CONTINUOUS
 62
     7
 10
2.05880583180466
 20
520.1364227920528
  0
VERTEX
  8
1
  6
CONTINUOUS
 62
     7
 10
2.043468165461297
 20
520.1469666910338
  0
VERTEX
  8
1
  6
CONTINUOUS
 62
     7
 10
2.030472013398798
 20
520.1576218309431
  0
VERTEX
  8
1
  6
CONTINUOUS
 62
     7
 10
2.017140287114531
 20
520.1714971463429
  0
VERTEX
  8
1
  6
CONTINUOUS
 62
     7
 10
2.007614529787389
 20
520.1855320486445
  0
VERTEX
  8
1
  6
CONTINUOUS
 62
     7
 10
2.001906384657904
 20
520.1996611879251
  0
VERTEX
  8
1
  6
CONTINUOUS
 62
     7
 10
2.000000000000016
 20
520.2138848007744
  0
SEQEND
  8
1
  6
CONTINUOUS
 62
     7
  0
LINE
  8
1
  6
CONTINUOUS
 62
     7
 10
2.000000000000016
 20
520.2138848007744
 11
2.000000000000016
 21
521.5960164810749
  0
LINE
  8
1
  6
CONTINUOUS
 62
     7
 10
2.000000000000016
 20
523.9514977920675
 11
2.000000000000016
 21
529.7372577482986
  0
LINE
  8
1
  6
CONTINUOUS
 62
     7
 10
2.475011625209033
 20
520.0222280491566
 11
2.452310122192595
 21
520.0237472736972
  0
LINE
  8
1
  6
CONTINUOUS
 62
     7
 10
7.000000000000013
 20
522.3298668727908
 11
8.323732022066842
 21
524.4872577482985
  0
LINE
  8
1
  6
CONTINUOUS
 62
     7
 10
8.323732022061918
 20
524.4872577482985
 11
8.500000000000014
 21
524.4872577482985
  0
LINE
  8
1
  6
CONTINUOUS
 62
     7
 10
7.000000000000013
 20
522.3298668727908
 11
7.000000000000013
 21
521.9872577482986
  0
LINE
  8
1
  6
CONTINUOUS
 62
     7
 10
5.676016836673334
 20
524.4872577482985
 11
7.000000000000013
 21
522.3298668727908
  0
LINE
  8
1
  6
CONTINUOUS
 62
     7
 10
8.323732022066842
 20
524.4872577482985
 11
5.676016836673334
 21
524.4872577482985
  0
LINE
  8
1
  6
CONTINUOUS
 62
     7
 10
5.500000000000012
 20
524.4872577482985
 11
5.676016836673313
 21
524.4872577482985
  0
LINE
  8
1
  6
CONTINUOUS
 62
     7
 10
32.85463150184111
 20
496.0230177045296
 11
42.00000000000001
 21
496.0230177045296
  0
LINE
  8
1
  6
CONTINUOUS
 62
     7
 10
21.08531712929859
 20
493.4646060666003
 11
20.74979702140604
 21
493.3627422748717
  0
LINE
  8
1
  6
CONTINUOUS
 62
     7
 10
11.65000000000001
 20
493.4646060666003
 11
11.65000000000001
 21
493.3627422517014
  0
LINE
  8
1
  6
CONTINUOUS
 62
     7
 10
32.85000000000002
 20
523.9514977920675
 11
32.35000000000002
 21
523.9514977920675
  0
LINE
  8
1
  6
CONTINUOUS
 62
     7
 10
22.91468287070145
 20
493.4646060666003
 11
23.25009195601416
 21
493.3627422564575
  0
LINE
  8
1
  6
CONTINUOUS
 62
     7
 10
22.25000000000002
 20
494.9041546193002
 11
22.25000000000001
 21
498.5855034973072
  0
LINE
  8
1
  6
CONTINUOUS
 62
     7
 10
11.15000000000001
 20
496.1799227411366
 11
11.14536849815892
 21
496.0230177045296
  0
LINE
  8
1
  6
CONTINUOUS
 62
     7
 10
11.14536849815892
 20
496.0230177045296
 11
9.418465027606986
 21
496.0230177045296
  0
LINE
  8
1
  6
CONTINUOUS
 62
     7
 10
11.15000000000001
 20
496.1799227411366
 11
11.15000000000001
 21
498.7755451226557
  0
LINE
  8
1
  6
CONTINUOUS
 62
     7
 10
9.418465027606986
 20
496.0230177045296
 11
2.000000000000016
 21
496.0230177045296
  0
LINE
  8
1
  6
CONTINUOUS
 62
     7
 10
2.000000000000016
 20
496.1985721461851
 11
2.000000000000016
 21
496.0230177045296
  0
LINE
  8
1
  6
CONTINUOUS
 62
     7
 10
41.00000000000001
 20
530.7372577482986
 11
3.000000000000016
 21
530.7372577482986
  0
ARC
  8
1
  6
CONTINUOUS
 62
     7
 10
41.00000000000001
 20
529.7372577482986
 40
1.000000000000001
 50
359.9999999999996
 51
90.0
  0
ARC
  8
1
  6
CONTINUOUS
 62
     7
 10
3.000000000000016
 20
529.7372577482986
 40
1.000000000000001
 50
90.0
 51
180.0
  0
LINE
  8
1
  6
CONTINUOUS
 62
     7
 10
2.475015464682949
 20
520.0222280489983
 11
11.65000000000002
 21
520.0222280489983
  0
LINE
  8
1
  6
CONTINUOUS
 62
     7
 10
11.65000000000001
 20
493.3627422517014
 11
20.74968389525568
 21
493.3627422517014
  0
LINE
  8
1
  6
CONTINUOUS
 62
     7
 10
23.25014225620624
 20
493.3627422517014
 11
32.35000000000002
 21
493.3627422517014
  0
LINE
  8
1
  6
CONTINUOUS
 62
     7
 10
32.35000000000002
 20
520.0222280489983
 11
32.85000000000002
 21
520.0222280489983
  0
ENDBLK
  8
0
  0
BLOCK
  8
0
  2
D_FRAME_VIEW_2738
 70
     0
 10
0.0
 20
0.0
  0
LINE
  8
1
  6
CONTINUOUS
 62
     7
 10
-14.92556454642272
 20
520.0237472736972
 11
-16.00388804696268
 21
520.2138848007744
  0
LINE
  8
1
  6
CONTINUOUS
 62
     7
 10
-16.92191436109479
 20
521.5960164810749
 11
-16.8412164455685
 21
521.6546469486261
  0
LINE
  8
1
  6
CONTINUOUS
 62
     7
 10
-16.8412164455685
 20
521.654646948626
 11
-16.81939041145668
 21
521.7947339926468
  0
ARC
  8
1
  6
CONTINUOUS
 62
     7
 10
-32.9
 20
509.9872577482985
 40
19.94999999999999
 50
36.28864494644808
 51
44.42394787047017
  0
LINE
  8
1
  6
CONTINUOUS
 62
     7
 10
-18.65210541869433
 20
523.9514977920675
 11
-18.93352227653657
 21
523.9514977920675
  0
LINE
  8
1
  6
CONTINUOUS
 62
     7
 10
-50.6244533471198
 20
501.2748382481956
 11
-51.29921253998367
 21
501.3938164993787
  0
POLYLINE
  8
1
  6
CONTINUOUS
 62
     7
 66
     1
  0
VERTEX
  8
1
  6
CONTINUOUS
 62
     7
 10
-51.29921253998368
 20
501.3938164993785
  0
VERTEX
  8
1
  6
CONTINUOUS
 62
     7
 10
-51.34216735246284
 20
501.4023672682155
  0
VERTEX
  8
1
  6
CONTINUOUS
 62
     7
 10
-51.38414826062415
 20
501.4126420685131
  0
VERTEX
  8
1
  6
CONTINUOUS
 62
     7
 10
-51.42509021976912
 20
501.4245430374024
  0
VERTEX
  8
1
  6
CONTINUOUS
 62
     7
 10
-51.46492818519922
 20
501.437972312014
  0
VERTEX
  8
1
  6
CONTINUOUS
 62
     7
 10
-51.50359711221597
 20
501.4528320294792
  0
VERTEX
  8
1
  6
CONTINUOUS
 62
     7
 10
-51.55226815465321
 20
501.4742339441352
  0
VERTEX
  8
1
  6
CONTINUOUS
 62
     7
 10
-51.59905273202736
 20
501.4978265902403
  0
VERTEX
  8
1
  6
CONTINUOUS
 62
     7
 10
-51.64389306594195
 20
501.5234443637374
  0
VERTEX
  8
1
  6
CONTINUOUS
 62
     7
 10
-51.68673137800052
 20
501.550921660569
  0
VERTEX
  8
1
  6
CONTINUOUS
 62
     7
 10
-51.73142360553713
 20
501.583052949081
  0
VERTEX
  8
1
  6
CONTINUOUS
 62
     7
 10
-51.77380126165003
 20
501.6171869302834
  0
VERTEX
  8
1
  6
CONTINUOUS
 62
     7
 10
-51.81382750702778
 20
501.653164161773
  0
VERTEX
  8
1
  6
CONTINUOUS
 62
     7
 10
-51.85146550235897
 20
501.6908252011465
  0
VERTEX
  8
1
  6
CONTINUOUS
 62
     7
 10
-51.8877139597384
 20
501.731224058227
  0
VERTEX
  8
1
  6
CONTINUOUS
 62
     7
 10
-51.9214985819218
 20
501.7732428294864
  0
VERTEX
  8
1
  6
CONTINUOUS
 62
     7
 10
-51.95278591641617
 20
501.8167495490733
  0
VERTEX
  8
1
  6
CONTINUOUS
 62
     7
 10
-51.98154251072847
 20
501.8616122511359
  0
VERTEX
  8
1
  6
CONTINUOUS
 62
     7
 10
-52.01634208751417
 20
501.924184988801
  0
VERTEX
  8
1
  6
CONTINUOUS
 62
     7
 10
-52.04658018740467
 20
501.9890990928213
  0
VERTEX
  8
1
  6
CONTINUOUS
 62
     7
 10
-52.04837774775051
 20
501.9933769867753
  0
SEQEND
  8
1
  6
CONTINUOUS
 62
     7
  0
ARC
  8
1
  6
CONTINUOUS
 62
     7
 10
-32.9
 20
509.9872577482985
 40
20.75
 50
29.39301855438089
 51
202.6590916701103
  0
LINE
  8
1
  6
CONTINUOUS
 62
     7
 10
-14.82107236656719
 20
520.1713078083237
 11
-14.84089932357047
 21
520.0482641694671
  0
LINE
  8
1
  6
CONTINUOUS
 62
     7
 10
-14.84089932357047
 20
520.0482641694671
 11
-14.92556454642272
 21
520.0237472736972
  0
ARC
  8
1
  6
CONTINUOUS
 62
     7
 10
-16.63413784133425
 20
520.8327281500509
 40
0.5000000000000014
 50
213.693877208309
 51
260.0000000000002
  0
ARC
  8
1
  6
CONTINUOUS
 62
     7
 10
-17.34875726552174
 20
521.1622901604815
 40
0.1000000000000005
 50
125.9999999999999
 51
215.7008039691283
  0
LINE
  8
1
  6
CONTINUOUS
 62
     7
 10
-17.40753579075099
 20
521.2431918599189
 11
-16.92191436109478
 21
521.5960164810749
  0
ARC
  8
1
  6
CONTINUOUS
 62
     7
 10
-32.9
 20
509.9872577482985
 40
19.05
 50
33.69387720830893
 51
35.70080396912799
  0
LINE
  8
1
  6
CONTINUOUS
 62
     7
 10
-16.00388804696268
 20
520.2138848007744
 11
-16.72096193016771
 21
520.3403242735448
  0
ARC
  8
1
  6
CONTINUOUS
 62
     7
 10
-32.90000000000001
 20
509.9872577482985
 40
19.94999999999999
 50
221.2886449464481
 51
224.42394787047
  0
ARC
  8
1
  6
CONTINUOUS
 62
     7
 10
-50.08835613310936
 20
500.6725965391401
 40
0.5000000000000004
 50
28.4540138042106
 51
80.00000000001138
  0
LINE
  8
1
  6
CONTINUOUS
 62
     7
 10
-47.35249140781301
 20
497.4238986390837
 11
-47.88079506304702
 21
496.964651278049
  0
ARC
  8
1
  6
CONTINUOUS
 62
     7
 10
-47.81518916014797
 20
496.8891803200267
 40
0.0999999999999998
 50
130.9999999999999
 51
221.2886449464488
  0
ARC
  8
1
  6
CONTINUOUS
 62
     7
 10
-32.90000000000001
 20
509.9872577482985
 40
19.04999999999999
 50
208.4540138042106
 51
220.700803969128
  0
ARC
  8
1
  6
CONTINUOUS
 62
     7
 10
-32.9
 20
509.9872577482985
 40
18.25
 50
51.01977509738811
 51
229.0729624474773
  0
ARC
  8
1
  6
CONTINUOUS
 62
     7
 10
-44.92103772595171
 20
496.1230177045296
 40
0.099999999999999
 50
270.0
 51
49.07296244747783
  0
ARC
  8
1
  6
CONTINUOUS
 62
     7
 10
-47.41809731071206
 20
497.499369597106
 40
0.1000000000000006
 50
310.9999999999999
 51
40.70080396912738
  0
LINE
  8
1
  6
CONTINUOUS
 62
     7
 10
-47.14789458130569
 20
496.0230177045296
 11
-44.92103772595171
 21
496.0230177045296
  0
ARC
  8
1
  6
CONTINUOUS
 62
     7
 10
-20.79074651712738
 20
524.9514977920675
 40
1.000000000000001
 50
231.0197750973881
 51
270.0
  0
LINE
  8
1
  6
CONTINUOUS
 62
     7
 10
-18.93352227653657
 20
523.9514977920675
 11
-20.79074651712738
 21
523.9514977920675
  0
LINE
  8
1
  6
CONTINUOUS
 62
     7
 10
-50.001532044276
 20
501.1650004156461
 11
-50.6244533471198
 21
501.2748382481956
  0
LINE
  8
1
  6
CONTINUOUS
 62
     7
 10
-45.07707887795755
 20
497.810178870341
 11
-45.80469875665449
 21
497.082558991644
  0
LINE
  8
1
  6
CONTINUOUS
 62
     7
 10
-31.39909181704592
 20
527.1427167811062
 11
-31.30940769485524
 21
528.1678109884729
  0
LINE
  8
1
  6
CONTINUOUS
 62
     7
 10
-22.43223003659341
 20
524.9367825565726
 11
-23.02244586841
 21
524.0938669928161
  0
LINE
  8
1
  6
CONTINUOUS
 62
     7
 10
-45.80469875665451
 20
522.891956504953
 11
-45.07707887795758
 21
522.164336626256
  0
LINE
  8
1
  6
CONTINUOUS
 62
     7
 10
-17.77874013185408
 20
524.4872577482985
 11
-15.97184298276979
 21
522.3298668727908
  0
LINE
  8
1
  6
CONTINUOUS
 62
     7
 10
-15.97184298276979
 20
522.3298668727908
 11
-15.97184298276979
 21
521.9872577482986
  0
LINE
  8
1
  6
CONTINUOUS
 62
     7
 10
-18.0570723912026
 20
524.4872577482985
 11
-17.7787401318541
 21
524.4872577482985
  0
POLYLINE
  8
1
  6
CONTINUOUS
 62
     7
 66
     1
  0
VERTEX
  8
1
  6
CONTINUOUS
 62
     7
 10
-45.07707887795758
 20
522.164336626256
  0
VERTEX
  8
1
  6
CONTINUOUS
 62
     7
 10
-45.04821852234511
 20
522.134242129971
  0
VERTEX
  8
1
  6
CONTINUOUS
 62
     7
 10
-45.02061358695747
 20
522.1029431746755
  0
VERTEX
  8
1
  6
CONTINUOUS
 62
     7
 10
-44.99433402254803
 20
522.070522314289
  0
VERTEX
  8
1
  6
CONTINUOUS
 62
     7
 10
-44.96944977987022
 20
522.0370621027304
  0
VERTEX
  8
1
  6
CONTINUOUS
 62
     7
 10
-44.94532528205192
 20
522.0015695318748
  0
VERTEX
  8
1
  6
CONTINUOUS
 62
     7
 10
-44.92272405844167
 20
521.9650392992451
  0
VERTEX
  8
1
  6
CONTINUOUS
 62
     7
 10
-44.90170631671389
 20
521.9275729516471
  0
VERTEX
  8
1
  6
CONTINUOUS
 62
     7
 10
-44.88233226454301
 20
521.8892720358871
  0
VERTEX
  8
1
  6
CONTINUOUS
 62
     7
 10
-44.86509328405457
 20
521.8512633670257
  0
VERTEX
  8
1
  6
CONTINUOUS
 62
     7
 10
-44.8494405737223
 20
521.8125319004437
  0
VERTEX
  8
1
  6
CONTINUOUS
 62
     7
 10
-44.83541314923802
 20
521.773179106685
  0
VERTEX
  8
1
  6
CONTINUOUS
 62
     7
 10
-44.82305002629359
 20
521.7333064562943
  0
VERTEX
  8
1
  6
CONTINUOUS
 62
     7
 10
-44.81208062330596
 20
521.6917594705434
  0
VERTEX
  8
1
  6
CONTINUOUS
 62
     7
 10
-44.80289696064094
 20
521.6497366710523
  0
VERTEX
  8
1
  6
CONTINUOUS
 62
     7
 10
-44.79552246325441
 20
521.6073545684521
  0
VERTEX
  8
1
  6
CONTINUOUS
 62
     7
 10
-44.78998055610229
 20
521.5647296733744
  0
VERTEX
  8
1
  6
CONTINUOUS
 62
     7
 10
-44.78636671180228
 20
521.5231884511284
  0
VERTEX
  8
1
  6
CONTINUOUS
 62
     7
 10
-44.78448608675814
 20
521.4814920217933
  0
VERTEX
  8
1
  6
CONTINUOUS
 62
     7
 10
-44.78434186372416
 20
521.4397491251453
  0
VERTEX
  8
1
  6
CONTINUOUS
 62
     7
 10
-44.78593722545466
 20
521.3980685009604
  0
VERTEX
  8
1
  6
CONTINUOUS
 62
     7
 10
-44.78940098174902
 20
521.355270242762
  0
VERTEX
  8
1
  6
CONTINUOUS
 62
     7
 10
-44.79470436258481
 20
521.3126162343384
  0
VERTEX
  8
1
  6
CONTINUOUS
 62
     7
 10
-44.80183071235966
 20
521.2702242971422
  0
VERTEX
  8
1
  6
CONTINUOUS
 62
     7
 10
-44.81076337547117
 20
521.2282122526252
  0
VERTEX
  8
1
  6
CONTINUOUS
 62
     7
 10
-44.82112168673315
 20
521.1879697040862
  0
VERTEX
  8
1
  6
CONTINUOUS
 62
     7
 10
-44.8331544865408
 20
521.1481543138233
  0
VERTEX
  8
1
  6
CONTINUOUS
 62
     7
 10
-44.84682878101196
 20
521.1088689365822
  0
VERTEX
  8
1
  6
CONTINUOUS
 62
     7
 10
-44.86211157626452
 20
521.0702164271083
  0
VERTEX
  8
1
  6
CONTINUOUS
 62
     7
 10
-44.87951153445476
 20
521.0311346493179
  0
VERTEX
  8
1
  6
CONTINUOUS
 62
     7
 10
-44.89858589745498
 20
520.9927952170747
  0
VERTEX
  8
1
  6
CONTINUOUS
 62
     7
 10
-44.91928012463104
 20
520.9553027538633
  0
VERTEX
  8
1
  6
CONTINUOUS
 62
     7
 10
-44.94153967534886
 20
520.9187618831686
  0
VERTEX
  8
1
  6
CONTINUOUS
 62
     7
 10
-44.96349949778992
 20
520.8858511565966
  0
VERTEX
  8
1
  6
CONTINUOUS
 62
     7
 10
-44.98674406563929
 20
520.8538337024331
  0
VERTEX
  8
1
  6
CONTINUOUS
 62
     7
 10
-45.0113977229117
 20
520.8225660202676
  0
VERTEX
  8
1
  6
CONTINUOUS
 62
     7
 10
-45.03727634557055
 20
520.7923039264161
  0
SEQEND
  8
1
  6
CONTINUOUS
 62
     7
  0
POLYLINE
  8
1
  6
CONTINUOUS
 62
     7
 66
     1
  0
VERTEX
  8
1
  6
CONTINUOUS
 62
     7
 10
-30.54765670626117
 20
526.0660941809638
  0
VERTEX
  8
1
  6
CONTINUOUS
 62
     7
 10
-30.58668539387867
 20
526.0725954993829
  0
VERTEX
  8
1
  6
CONTINUOUS
 62
     7
 10
-30.62542615312173
 20
526.0806349750325
  0
VERTEX
  8
1
  6
CONTINUOUS
 62
     7
 10
-30.66406092271341
 20
526.0902668693221
  0
VERTEX
  8
1
  6
CONTINUOUS
 62
     7
 10
-30.70228085823398
 20
526.101428250611
  0
VERTEX
  8
1
  6
CONTINUOUS
 62
     7
 10
-30.7416789794806
 20
526.1146996952716
  0
VERTEX
  8
1
  6
CONTINUOUS
 62
     7
 10
-30.78052354467652
 20
526.1296095189861
  0
VERTEX
  8
1
  6
CONTINUOUS
 62
     7
 10
-30.81871443503494
 20
526.1461166063542
  0
VERTEX
  8
1
  6
CONTINUOUS
 62
     7
 10
-30.85615153176906
 20
526.1641798419762
  0
VERTEX
  8
1
  6
CONTINUOUS
 62
     7
 10
-30.89385765313377
 20
526.1843835775971
  0
VERTEX
  8
1
  6
CONTINUOUS
 62
     7
 10
-30.93069632384295
 20
526.2061998040723
  0
VERTEX
  8
1
  6
CONTINUOUS
 62
     7
 10
-30.96656776040958
 20
526.2295659893435
  0
VERTEX
  8
1
  6
CONTINUOUS
 62
     7
 10
-31.00137217934663
 20
526.2544196013524
  0
VERTEX
  8
1
  6
CONTINUOUS
 62
     7
 10
-31.03427164397111
 20
526.2800873998702
  0
VERTEX
  8
1
  6
CONTINUOUS
 62
     7
 10
-31.06609645801705
 20
526.3071263645237
  0
VERTEX
  8
1
  6
CONTINUOUS
 62
     7
 10
-31.09676529356166
 20
526.3354637464856
  0
VERTEX
  8
1
  6
CONTINUOUS
 62
     7
 10
-31.12619682268216
 20
526.3650267969286
  0
VERTEX
  8
1
  6
CONTINUOUS
 62
     7
 10
-31.15516827842684
 20
526.3967132120038
  0
VERTEX
  8
1
  6
CONTINUOUS
 62
     7
 10
-31.18277548705435
 20
526.4296408091532
  0
VERTEX
  8
1
  6
CONTINUOUS
 62
     7
 10
-31.20894465060965
 20
526.4637166916445
  0
VERTEX
  8
1
  6
CONTINUOUS
 62
     7
 10
-31.23360197113772
 20
526.4988479627453
  0
VERTEX
  8
1
  6
CONTINUOUS
 62
     7
 10
-31.25611883131988
 20
526.5340191985579
  0
VERTEX
  8
1
  6
CONTINUOUS
 62
     7
 10
-31.27716385363567
 20
526.5701276776479
  0
VERTEX
  8
1
  6
CONTINUOUS
 62
     7
 10
-31.29668457619133
 20
526.6070778602403
  0
VERTEX
  8
1
  6
CONTINUOUS
 62
     7
 10
-31.31462853709307
 20
526.6447742065606
  0
VERTEX
  8
1
  6
CONTINUOUS
 62
     7
 10
-31.33142980346
 20
526.6843206386491
  0
VERTEX
  8
1
  6
CONTINUOUS
 62
     7
 10
-31.34652938323124
 20
526.7245858175481
  0
VERTEX
  8
1
  6
CONTINUOUS
 62
     7
 10
-31.35988847253904
 20
526.7654577318192
  0
VERTEX
  8
1
  6
CONTINUOUS
 62
     7
 10
-31.3714682675157
 20
526.806824370024
  0
VERTEX
  8
1
  6
CONTINUOUS
 62
     7
 10
-31.38099444963136
 20
526.8474292027247
  0
VERTEX
  8
1
  6
CONTINUOUS
 62
     7
 10
-31.3888255514389
 20
526.8884289981042
  0
VERTEX
  8
1
  6
CONTINUOUS
 62
     7
 10
-31.39494374405627
 20
526.9297169197973
  0
VERTEX
  8
1
  6
CONTINUOUS
 62
     7
 10
-31.39933119860142
 20
526.9711861314387
  0
VERTEX
  8
1
  6
CONTINUOUS
 62
     7
 10
-31.40202992859212
 20
527.0140150542841
  0
VERTEX
  8
1
  6
CONTINUOUS
 62
     7
 10
-31.40288941941475
 20
527.0569584288505
  0
VERTEX
  8
1
  6
CONTINUOUS
 62
     7
 10
-31.40190995444183
 20
527.099898317128
  0
VERTEX
  8
1
  6
CONTINUOUS
 62
     7
 10
-31.39909181704592
 20
527.1427167811062
  0
SEQEND
  8
1
  6
CONTINUOUS
 62
     7
  0
POLYLINE
  8
1
  6
CONTINUOUS
 62
     7
 66
     1
  0
VERTEX
  8
1
  6
CONTINUOUS
 62
     7
 10
-45.03727634557053
 20
499.1822115701809
  0
VERTEX
  8
1
  6
CONTINUOUS
 62
     7
 10
-45.01040992128437
 20
499.150740022162
  0
VERTEX
  8
1
  6
CONTINUOUS
 62
     7
 10
-44.98484669792532
 20
499.1181561582828
  0
VERTEX
  8
1
  6
CONTINUOUS
 62
     7
 10
-44.96065077771934
 20
499.0845454077383
  0
VERTEX
  8
1
  6
CONTINUOUS
 62
     7
 10
-44.93788626289237
 20
499.0499931997227
  0
VERTEX
  8
1
  6
CONTINUOUS
 62
     7
 10
-44.91598245125036
 20
499.0134869512534
  0
VERTEX
  8
1
  6
CONTINUOUS
 62
     7
 10
-44.89563467489747
 20
498.9760490759058
  0
VERTEX
  8
1
  6
CONTINUOUS
 62
     7
 10
-44.87689599337262
 20
498.9377829780811
  0
VERTEX
  8
1
  6
CONTINUOUS
 62
     7
 10
-44.85981946621469
 20
498.8987920621803
  0
VERTEX
  8
1
  6
CONTINUOUS
 62
     7
 10
-44.84484385714494
 20
498.8602584828801
  0
VERTEX
  8
1
  6
CONTINUOUS
 62
     7
 10
-44.8314631862332
 20
498.8211081686869
  0
VERTEX
  8
1
  6
CONTINUOUS
 62
     7
 10
-44.81970935524016
 20
498.7814425030189
  0
VERTEX
  8
1
  6
CONTINUOUS
 62
     7
 10
-44.80961426592653
 20
498.7413628692944
  0
VERTEX
  8
1
  6
CONTINUOUS
 62
     7
 10
-44.80097356725235
 20
498.6997318204713
  0
VERTEX
  8
1
  6
CONTINUOUS
 62
     7
 10
-44.79410472212559
 20
498.6577371194448
  0
VERTEX
  8
1
  6
CONTINUOUS
 62
     7
 10
-44.78902340450727
 20
498.6154931241404
  0
VERTEX
  8
1
  6
CONTINUOUS
 62
     7
 10
-44.7857452883584
 20
498.573114192484
  0
VERTEX
  8
1
  6
CONTINUOUS
 62
     7
 10
-44.78429372447575
 20
498.5317606112085
  0
VERTEX
  8
1
  6
CONTINUOUS
 62
     7
 10
-44.78455432495571
 20
498.4903511777544
  0
VERTEX
  8
1
  6
CONTINUOUS
 62
     7
 10
-44.78652369870316
 20
498.44899204424
  0
VERTEX
  8
1
  6
CONTINUOUS
 62
     7
 10
-44.79019845462305
 20
498.407789362784
  0
VERTEX
  8
1
  6
CONTINUOUS
 62
     7
 10
-44.79576014887351
 20
498.3656028857417
  0
VERTEX
  8
1
  6
CONTINUOUS
 62
     7
 10
-44.80311731973618
 20
498.3236575519871
  0
VERTEX
  8
1
  6
CONTINUOUS
 62
     7
 10
-44.81224711296475
 20
498.2820663670985
  0
VERTEX
  8
1
  6
CONTINUOUS
 62
     7
 10
-44.82312667431291
 20
498.2409423366541
  0
VERTEX
  8
1
  6
CONTINUOUS
 62
     7
 10
-44.83543045918535
 20
498.201284187033
  0
VERTEX
  8
1
  6
CONTINUOUS
 62
     7
 10
-44.84938076022011
 20
498.1621406366405
  0
VERTEX
  8
1
  6
CONTINUOUS
 62
     7
 10
-44.86493919857109
 20
498.1236115494223
  0
VERTEX
  8
1
  6
CONTINUOUS
 62
     7
 10
-44.88206739539226
 20
498.0857967893241
  0
VERTEX
  8
1
  6
CONTINUOUS
 62
     7
 10
-44.901317819506
 20
498.0476720288631
  0
VERTEX
  8
1
  6
CONTINUOUS
 62
     7
 10
-44.92219624354514
 20
498.0103724006038
  0
VERTEX
  8
1
  6
CONTINUOUS
 62
     7
 10
-44.94464345438641
 20
497.9739980090466
  0
VERTEX
  8
1
  6
CONTINUOUS
 62
     7
 10
-44.96860023890655
 20
497.9386489586918
  0
VERTEX
  8
1
  6
CONTINUOUS
 62
     7
 10
-44.99357763318192
 20
497.9049636908737
  0
VERTEX
  8
1
  6
CONTINUOUS
 62
     7
 10
-45.01994397087226
 20
497.8723557003643
  0
VERTEX
  8
1
  6
CONTINUOUS
 62
     7
 10
-45.04785530939756
 20
497.8406640226552
  0
VERTEX
  8
1
  6
CONTINUOUS
 62
     7
 10
-45.07707887795755
 20
497.810178870341
  0
SEQEND
  8
1
  6
CONTINUOUS
 62
     7
  0
POLYLINE
  8
1
  6
CONTINUOUS
 62
     7
 66
     1
  0
VERTEX
  8
1
  6
CONTINUOUS
 62
     7
 10
-23.02244586841
 20
524.0938669928161
  0
VERTEX
  8
1
  6
CONTINUOUS
 62
     7
 10
-23.04721265942738
 20
524.0600298106723
  0
VERTEX
  8
1
  6
CONTINUOUS
 62
     7
 10
-23.07337597549443
 20
524.0272598186322
  0
VERTEX
  8
1
  6
CONTINUOUS
 62
     7
 10
-23.10109104924646
 20
523.9953952185048
  0
VERTEX
  8
1
  6
CONTINUOUS
 62
     7
 10
-23.13012708946099
 20
523.9647277913157
  0
VERTEX
  8
1
  6
CONTINUOUS
 62
     7
 10
-23.15990115215973
 20
523.9358131248277
  0
VERTEX
  8
1
  6
CONTINUOUS
 62
     7
 10
-23.19087740750212
 20
523.9081338461333
  0
VERTEX
  8
1
  6
CONTINUOUS
 62
     7
 10
-23.22297494939262
 20
523.8817596470187
  0
VERTEX
  8
1
  6
CONTINUOUS
 62
     7
 10
-23.2561128717357
 20
523.8567602192704
  0
VERTEX
  8
1
  6
CONTINUOUS
 62
     7
 10
-23.29126669786526
 20
523.8325014512578
  0
VERTEX
  8
1
  6
CONTINUOUS
 62
     7
 10
-23.32746008961828
 20
523.8097435667884
  0
VERTEX
  8
1
  6
CONTINUOUS
 62
     7
 10
-23.36459333758913
 20
523.7885468544528
  0
VERTEX
  8
1
  6
CONTINUOUS
 62
     7
 10
-23.40256673237215
 20
523.7689716028416
  0
VERTEX
  8
1
  6
CONTINUOUS
 62
     7
 10
-23.44008722738247
 20
523.7515926730586
  0
VERTEX
  8
1
  6
CONTINUOUS
 62
     7
 10
-23.47833041619344
 20
523.7357648063809
  0
VERTEX
  8
1
  6
CONTINUOUS
 62
     7
 10
-23.51719782256389
 20
523.7215269314332
  0
VERTEX
  8
1
  6
CONTINUOUS
 62
     7
 10
-23.55659097025269
 20
523.7089179768407
  0
VERTEX
  8
1
  6
CONTINUOUS
 62
     7
 10
-23.59763094050194
 20
523.6976636969537
  0
VERTEX
  8
1
  6
CONTINUOUS
 62
     7
 10
-23.63915466852667
 20
523.6881561398217
  0
VERTEX
  8
1
  6
CONTINUOUS
 62
     7
 10
-23.6810490402953
 20
523.6804192786635
  0
VERTEX
  8
1
  6
CONTINUOUS
 62
     7
 10
-23.72320094177622
 20
523.6744770866981
  0
VERTEX
  8
1
  6
CONTINUOUS
 62
     7
 10
-23.764318457697
 20
523.6704372609261
  0
VERTEX
  8
1
  6
CONTINUOUS
 62
     7
 10
-23.80560727155084
 20
523.6680971624135
  0
VERTEX
  8
1
  6
CONTINUOUS
 62
     7
 10
-23.84696147270364
 20
523.6674611057327
  0
VERTEX
  8
1
  6
CONTINUOUS
 62
     7
 10
-23.88827515052131
 20
523.6685334054566
  0
VERTEX
  8
1
  6
CONTINUOUS
 62
     7
 10
-23.93069824719892
 20
523.671424494758
  0
VERTEX
  8
1
  6
CONTINUOUS
 62
     7
 10
-23.97300225665824
 20
523.6761212235265
  0
VERTEX
  8
1
  6
CONTINUOUS
 62
     7
 10
-24.01507239512742
 20
523.6826088275883
  0
VERTEX
  8
1
  6
CONTINUOUS
 62
     7
 10
-24.05679387883462
 20
523.6908725427697
  0
VERTEX
  8
1
  6
CONTINUOUS
 62
     7
 10
-24.09700025917417
 20
523.7006120138329
  0
VERTEX
  8
1
  6
CONTINUOUS
 62
     7
 10
-24.13680606875072
 20
523.7120166618349
  0
VERTEX
  8
1
  6
CONTINUOUS
 62
     7
 10
-24.17610929395321
 20
523.7250552497175
  0
VERTEX
  8
1
  6
CONTINUOUS
 62
     7
 10
-24.21480792117056
 20
523.7396965404217
  0
VERTEX
  8
1
  6
CONTINUOUS
 62
     7
 10
-24.2539576617162
 20
523.7564264352382
  0
VERTEX
  8
1
  6
CONTINUOUS
 62
     7
 10
-24.29239596661461
 20
523.7748249096312
  0
VERTEX
  8
1
  6
CONTINUOUS
 62
     7
 10
-24.33001893634413
 20
523.7948396073905
  0
VERTEX
  8
1
  6
CONTINUOUS
 62
     7
 10
-24.3667226713831
 20
523.8164181723052
  0
SEQEND
  8
1
  6
CONTINUOUS
 62
     7
  0
ARC
  8
1
  6
CONTINUOUS
 62
     7
 10
-32.9
 20
509.9872577482985
 40
16.25
 50
180.0
 51
221.6766423260135
  0
ARC
  8
1
  6
CONTINUOUS
 62
     7
 10
-32.9
 20
509.9872577482985
 40
16.25
 50
138.3233576739866
 51
180.0
  0
ARC
  8
1
  6
CONTINUOUS
 62
     7
 10
-32.9
 20
509.9872577482985
 40
16.25
 50
58.32335767398649
 51
81.6766423260135
  0
ARC
  8
1
  6
CONTINUOUS
 62
     7
 10
-20.65
 20
493.8627422517014
 40
0.499999999999999
 50
179.9999999999989
 51
307.2244000775137
  0
LINE
  8
1
  6
CONTINUOUS
 62
     7
 10
-21.15
 20
495.5650526464426
 11
-21.15
 21
493.8627422517014
  0
ARC
  8
1
  6
CONTINUOUS
 62
     7
 10
-20.15
 20
495.5650526464426
 40
1.000000000000001
 50
131.4784008302639
 51
180.0
  0
ARC
  8
1
  6
CONTINUOUS
 62
     7
 10
-32.9
 20
509.9872577482985
 40
20.75
 50
307.2244000775141
 51
29.39301855438077
  0
ARC
  8
1
  6
CONTINUOUS
 62
     7
 10
-32.9
 20
509.9872577482985
 40
18.25
 50
311.4784008302639
 51
51.01977509738811
  0
ARC
  8
1
  6
CONTINUOUS
 62
     7
 10
-32.9
 20
509.9872577482985
 40
20.75
 50
202.6590916701103
 51
202.9781776366433
  0
ARC
  8
1
  6
CONTINUOUS
 62
     7
 10
-32.9
 20
509.9872577482985
 40
20.75
 50
202.9781776366433
 51
226.6268467952135
  0
POLYLINE
  8
1
  6
CONTINUOUS
 62
     7
 66
     1
  0
VERTEX
  8
1
  6
CONTINUOUS
 62
     7
 10
-44.64999999999999
 20
495.5650526464426
  0
VERTEX
  8
1
  6
CONTINUOUS
 62
     7
 10
-44.65001428577256
 20
495.5703978631123
  0
VERTEX
  8
1
  6
CONTINUOUS
 62
     7
 10
-44.65337008655965
 20
495.6470820048206
  0
VERTEX
  8
1
  6
CONTINUOUS
 62
     7
 10
-44.66264868783549
 20
495.7236003880444
  0
VERTEX
  8
1
  6
CONTINUOUS
 62
     7
 10
-44.67797613544798
 20
495.7999347588765
  0
VERTEX
  8
1
  6
CONTINUOUS
 62
     7
 10
-44.69941564422419
 20
495.8755190416521
  0
VERTEX
  8
1
  6
CONTINUOUS
 62
     7
 10
-44.72067574484337
 20
495.9343175766253
  0
VERTEX
  8
1
  6
CONTINUOUS
 62
     7
 10
-44.74581584353552
 20
495.9921954928079
  0
VERTEX
  8
1
  6
CONTINUOUS
 62
     7
 10
-44.77504896685725
 20
496.049264356759
  0
VERTEX
  8
1
  6
CONTINUOUS
 62
     7
 10
-44.8083148718755
 20
496.1050212983976
  0
VERTEX
  8
1
  6
CONTINUOUS
 62
     7
 10
-44.84638935546907
 20
496.1602084370378
  0
VERTEX
  8
1
  6
CONTINUOUS
 62
     7
 10
-44.8654756406306
 20
496.1851506464039
  0
SEQEND
  8
1
  6
CONTINUOUS
 62
     7
  0
LINE
  8
1
  6
CONTINUOUS
 62
     7
 10
-44.64999999999999
 20
493.8627422517014
 11
-44.64999999999999
 21
495.5650526464426
  0
POLYLINE
  8
1
  6
CONTINUOUS
 62
     7
 66
     1
  0
VERTEX
  8
1
  6
CONTINUOUS
 62
     7
 10
-45.45246913580247
 20
493.4646060666003
  0
VERTEX
  8
1
  6
CONTINUOUS
 62
     7
 10
-45.43217229935921
 20
493.4499741823193
  0
VERTEX
  8
1
  6
CONTINUOUS
 62
     7
 10
-45.41159730246377
 20
493.4366385423862
  0
VERTEX
  8
1
  6
CONTINUOUS
 62
     7
 10
-45.39084316743975
 20
493.4245720814974
  0
VERTEX
  8
1
  6
CONTINUOUS
 62
     7
 10
-45.37000891661081
 20
493.4137477343499
  0
VERTEX
  8
1
  6
CONTINUOUS
 62
     7
 10
-45.34133749008885
 20
493.4008010660535
  0
VERTEX
  8
1
  6
CONTINUOUS
 62
     7
 10
-45.31272194909928
 20
493.3899620396136
  0
VERTEX
  8
1
  6
CONTINUOUS
 62
     7
 10
-45.28432429843175
 20
493.3811231253674
  0
VERTEX
  8
1
  6
CONTINUOUS
 62
     7
 10
-45.25512551019143
 20
493.3739173586363
  0
VERTEX
  8
1
  6
CONTINUOUS
 62
     7
 10
-45.22632293355519
 20
493.3686001600458
  0
VERTEX
  8
1
  6
CONTINUOUS
 62
     7
 10
-45.19801362036991
 20
493.3650522360697
  0
VERTEX
  8
1
  6
CONTINUOUS
 62
     7
 10
-45.17029462248247
 20
493.3631542931813
  0
VERTEX
  8
1
  6
CONTINUOUS
 62
     7
 10
-45.13335638316353
 20
493.3630173591695
  0
VERTEX
  8
1
  6
CONTINUOUS
 62
     7
 10
-45.09764054095602
 20
493.3654896508204
  0
VERTEX
  8
1
  6
CONTINUOUS
 62
     7
 10
-45.06325650054821
 20
493.3703241719127
  0
VERTEX
  8
1
  6
CONTINUOUS
 62
     7
 10
-45.02487989420421
 20
493.3786440622359
  0
VERTEX
  8
1
  6
CONTINUOUS
 62
     7
 10
-44.9883698838603
 20
493.3895773091624
  0
VERTEX
  8
1
  6
CONTINUOUS
 62
     7
 10
-44.95377781927677
 20
493.4028495209581
  0
VERTEX
  8
1
  6
CONTINUOUS
 62
     7
 10
-44.9211550502139
 20
493.4181863058888
  0
VERTEX
  8
1
  6
CONTINUOUS
 62
     7
 10
-44.87965866547057
 20
493.4421234562595
  0
VERTEX
  8
1
  6
CONTINUOUS
 62
     7
 10
-44.84173765410991
 20
493.4690696769192
  0
VERTEX
  8
1
  6
CONTINUOUS
 62
     7
 10
-44.80739406600551
 20
493.498570349996
  0
VERTEX
  8
1
  6
CONTINUOUS
 62
     7
 10
-44.77096617774649
 20
493.536641506454
  0
VERTEX
  8
1
  6
CONTINUOUS
 62
     7
 10
-44.73943728761417
 20
493.5773485651952
  0
VERTEX
  8
1
  6
CONTINUOUS
 62
     7
 10
-44.71276046213035
 20
493.6202013633376
  0
VERTEX
  8
1
  6
CONTINUOUS
 62
     7
 10
-44.69088876781682
 20
493.6647097379991
  0
VERTEX
  8
1
  6
CONTINUOUS
 62
     7
 10
-44.67327341985246
 20
493.7119674193859
  0
VERTEX
  8
1
  6
CONTINUOUS
 62
     7
 10
-44.66060565995604
 20
493.7603002119023
  0
VERTEX
  8
1
  6
CONTINUOUS
 62
     7
 10
-44.65286142872562
 20
493.8093252808363
  0
VERTEX
  8
1
  6
CONTINUOUS
 62
     7
 10
-44.65001666675926
 20
493.8586597914761
  0
VERTEX
  8
1
  6
CONTINUOUS
 62
     7
 10
-44.64999999999999
 20
493.8627422517014
  0
SEQEND
  8
1
  6
CONTINUOUS
 62
     7
  0
LINE
  8
1
  6
CONTINUOUS
 62
     7
 10
-45.45246913580247
 20
493.4646060666003
 11
-47.15000000000001
 21
494.9041546193002
  0
LINE
  8
1
  6
CONTINUOUS
 62
     7
 10
-20.94447201642405
 20
496.198572146185
 11
-20.97895902890345
 21
496.1238233218467
  0
LINE
  8
1
  6
CONTINUOUS
 62
     7
 10
-20.94447201642405
 20
496.198572146185
 11
-20.81107062686542
 21
496.3153783379408
  0
LINE
  8
1
  6
CONTINUOUS
 62
     7
 10
-49.8281570172302
 20
522.3298668727908
 11
-48.02125986814591
 21
524.4872577482985
  0
LINE
  8
1
  6
CONTINUOUS
 62
     7
 10
-48.0212598681427
 20
524.4872577482985
 11
-47.74292760879739
 21
524.4872577482985
  0
LINE
  8
1
  6
CONTINUOUS
 62
     7
 10
-49.8281570172302
 20
522.3298668727908
 11
-49.8281570172302
 21
521.9872577482986
  0
LINE
  8
1
  6
CONTINUOUS
 62
     7
 10
-20.7229211220425
 20
522.164336626256
 11
-19.99530124334554
 21
522.891956504953
  0
LINE
  8
1
  6
CONTINUOUS
 62
     7
 10
-42.77755413158999
 20
524.0938669928161
 11
-43.36776996340659
 21
524.9367825565726
  0
LINE
  8
1
  6
CONTINUOUS
 62
     7
 10
-34.49059230514476
 20
528.1678109884729
 11
-34.40090818295408
 21
527.1427167811062
  0
LINE
  8
1
  6
CONTINUOUS
 62
     7
 10
-19.99530124334551
 20
497.082558991644
 11
-20.72292112204245
 21
497.810178870341
  0
POLYLINE
  8
1
  6
CONTINUOUS
 62
     7
 66
     1
  0
VERTEX
  8
1
  6
CONTINUOUS
 62
     7
 10
-34.40090818295408
 20
527.1427167811063
  0
VERTEX
  8
1
  6
CONTINUOUS
 62
     7
 10
-34.39814423724259
 20
527.1011119804596
  0
VERTEX
  8
1
  6
CONTINUOUS
 62
     7
 10
-34.39711621054624
 20
527.0593914792468
  0
VERTEX
  8
1
  6
CONTINUOUS
 62
     7
 10
-34.39782462361464
 20
527.0176634809161
  0
VERTEX
  8
1
  6
CONTINUOUS
 62
     7
 10
-34.40026999719743
 20
526.9760361889164
  0
VERTEX
  8
1
  6
CONTINUOUS
 62
     7
 10
-34.40460374448256
 20
526.933340373953
  0
VERTEX
  8
1
  6
CONTINUOUS
 62
     7
 10
-34.4107713836416
 20
526.8908288057406
  0
VERTEX
  8
1
  6
CONTINUOUS
 62
     7
 10
-34.41875376340028
 20
526.8486179743932
  0
VERTEX
  8
1
  6
CONTINUOUS
 62
     7
 10
-34.42853173248429
 20
526.806824370024
  0
VERTEX
  8
1
  6
CONTINUOUS
 62
     7
 10
-34.43975740868087
 20
526.7666270373908
  0
VERTEX
  8
1
  6
CONTINUOUS
 62
     7
 10
-34.45266284373506
 20
526.726895644382
  0
VERTEX
  8
1
  6
CONTINUOUS
 62
     7
 10
-34.46721270139218
 20
526.6877330007478
  0
VERTEX
  8
1
  6
CONTINUOUS
 62
     7
 10
-34.48337164539755
 20
526.6492419162378
  0
VERTEX
  8
1
  6
CONTINUOUS
 62
     7
 10
-34.50167448285502
 20
526.610364082349
  0
VERTEX
  8
1
  6
CONTINUOUS
 62
     7
 10
-34.52165112394021
 20
526.5722696057418
  0
VERTEX
  8
1
  6
CONTINUOUS
 62
     7
 10
-34.54324462162025
 20
526.5350627960096
  0
VERTEX
  8
1
  6
CONTINUOUS
 62
     7
 10
-34.56639802886227
 20
526.4988479627453
  0
VERTEX
  8
1
  6
CONTINUOUS
 62
     7
 10
-34.590331846469
 20
526.4647026059439
  0
VERTEX
  8
1
  6
CONTINUOUS
 62
     7
 10
-34.61569315224905
 20
526.4315524454771
  0
VERTEX
  8
1
  6
CONTINUOUS
 62
     7
 10
-34.64241448775302
 20
526.399482826681
  0
VERTEX
  8
1
  6
CONTINUOUS
 62
     7
 10
-34.67042839453148
 20
526.3685790948917
  0
VERTEX
  8
1
  6
CONTINUOUS
 62
     7
 10
-34.70059197587926
 20
526.3380201866527
  0
VERTEX
  8
1
  6
CONTINUOUS
 62
     7
 10
-34.73207206941635
 20
526.3087542680138
  0
VERTEX
  8
1
  6
CONTINUOUS
 62
     7
 10
-34.76478018204148
 20
526.280860889429
  0
VERTEX
  8
1
  6
CONTINUOUS
 62
     7
 10
-34.79862782065336
 20
526.2544196013524
  0
VERTEX
  8
1
  6
CONTINUOUS
 62
     7
 10
-34.83243015901883
 20
526.2302502148035
  0
VERTEX
  8
1
  6
CONTINUOUS
 62
     7
 10
-34.86724065798245
 20
526.2074843909683
  0
VERTEX
  8
1
  6
CONTINUOUS
 62
     7
 10
-34.90296792900811
 20
526.1861797130942
  0
VERTEX
  8
1
  6
CONTINUOUS
 62
     7
 10
-34.93952058355971
 20
526.1663937644289
  0
VERTEX
  8
1
  6
CONTINUOUS
 62
     7
 10
-34.97797100737007
 20
526.1476398632591
  0
VERTEX
  8
1
  6
CONTINUOUS
 62
     7
 10
-35.01722692916085
 20
526.1305309184359
  0
VERTEX
  8
1
  6
CONTINUOUS
 62
     7
 10
-35.05717931770264
 20
526.1151120181547
  0
VERTEX
  8
1
  6
CONTINUOUS
 62
     7
 10
-35.09771914176599
 20
526.101428250611
  0
VERTEX
  8
1
  6
CONTINUOUS
 62
     7
 10
-35.13569594898515
 20
526.0903326731775
  0
VERTEX
  8
1
  6
CONTINUOUS
 62
     7
 10
-35.17408274384882
 20
526.0807472005389
  0
VERTEX
  8
1
  6
CONTINUOUS
 62
     7
 10
-35.21306701968459
 20
526.072641831795
  0
VERTEX
  8
1
  6
CONTINUOUS
 62
     7
 10
-35.25234329373882
 20
526.0660941809638
  0
SEQEND
  8
1
  6
CONTINUOUS
 62
     7
  0
POLYLINE
  8
1
  6
CONTINUOUS
 62
     7
 66
     1
  0
VERTEX
  8
1
  6
CONTINUOUS
 62
     7
 10
-20.76272365442946
 20
520.7923039264161
  0
VERTEX
  8
1
  6
CONTINUOUS
 62
     7
 10
-20.78844239677462
 20
520.822371382087
  0
VERTEX
  8
1
  6
CONTINUOUS
 62
     7
 10
-20.81295186477905
 20
520.8534320577651
  0
VERTEX
  8
1
  6
CONTINUOUS
 62
     7
 10
-20.83635655302875
 20
520.885644468059
  0
VERTEX
  8
1
  6
CONTINUOUS
 62
     7
 10
-20.85846032465115
 20
520.9187618831686
  0
VERTEX
  8
1
  6
CONTINUOUS
 62
     7
 10
-20.88011031631098
 20
520.9542530237853
  0
VERTEX
  8
1
  6
CONTINUOUS
 62
     7
 10
-20.90028312967844
 20
520.9906434166012
  0
VERTEX
  8
1
  6
CONTINUOUS
 62
     7
 10
-20.91892849778297
 20
521.027837210277
  0
VERTEX
  8
1
  6
CONTINUOUS
 62
     7
 10
-20.93599615365402
 20
521.0657385534732
  0
VERTEX
  8
1
  6
CONTINUOUS
 62
     7
 10
-20.95189400747049
 20
521.1054525404985
  0
VERTEX
  8
1
  6
CONTINUOUS
 62
     7
 10
-20.96609086639079
 20
521.1458441806487
  0
VERTEX
  8
1
  6
CONTINUOUS
 62
     7
 10
-20.9785504866614
 20
521.1868014319994
  0
VERTEX
  8
1
  6
CONTINUOUS
 62
     7
 10
-20.98923662452884
 20
521.2282122526252
  0
VERTEX
  8
1
  6
CONTINUOUS
 62
     7
 10
-20.99794013373085
 20
521.269022295273
  0
VERTEX
  8
1
  6
CONTINUOUS
 62
     7
 10
-21.004939044226
 20
521.3101919400427
  0
VERTEX
  8
1
  6
CONTINUOUS
 62
     7
 10
-21.01021781725581
 20
521.3516131815188
  0
VERTEX
  8
1
  6
CONTINUOUS
 62
     7
 10
-21.01376091406177
 20
521.3931780142851
  0
VERTEX
  8
1
  6
CONTINUOUS
 62
     7
 10
-21.01558670173839
 20
521.4360737092629
  0
VERTEX
  8
1
  6
CONTINUOUS
 62
     7
 10
-21.01556959903308
 20
521.4790432837284
  0
VERTEX
  8
1
  6
CONTINUOUS
 62
     7
 10
-21.01371278630111
 20
521.5219681382445
  0
VERTEX
  8
1
  6
CONTINUOUS
 62
     7
 10
-21.01001944389773
 20
521.5647296733744
  0
VERTEX
  8
1
  6
CONTINUOUS
 62
     7
 10
-21.00466072491906
 20
521.6061459618604
  0
VERTEX
  8
1
  6
CONTINUOUS
 62
     7
 10
-20.99757206435576
 20
521.6473341412069
  0
VERTEX
  8
1
  6
CONTINUOUS
 62
     7
 10
-20.98877468584909
 20
521.6881873018451
  0
VERTEX
  8
1
  6
CONTINUOUS
 62
     7
 10
-20.97828981304033
 20
521.7285985342058
  0
VERTEX
  8
1
  6
CONTINUOUS
 62
     7
 10
-20.96574037322425
 20
521.7696925046001
  0
VERTEX
  8
1
  6
CONTINUOUS
 62
     7
 10
-20.95142536430335
 20
521.8102432439354
  0
VERTEX
  8
1
  6
CONTINUOUS
 62
     7
 10
-20.9353870603551
 20
521.8501400038261
  0
VERTEX
  8
1
  6
CONTINUOUS
 62
     7
 10
-20.91766773545702
 20
521.8892720358871
  0
VERTEX
  8
1
  6
CONTINUOUS
 62
     7
 10
-20.89886493097737
 20
521.9265004541729
  0
VERTEX
  8
1
  6
CONTINUOUS
 62
     7
 10
-20.8785097425309
 20
521.9629418548045
  0
VERTEX
  8
1
  6
CONTINUOUS
 62
     7
 10
-20.8566571854934
 20
521.9985029361934
  0
VERTEX
  8
1
  6
CONTINUOUS
 62
     7
 10
-20.83336227524062
 20
522.0330903967515
  0
VERTEX
  8
1
  6
CONTINUOUS
 62
     7
 10
-20.80789972141221
 20
522.067633965302
  0
VERTEX
  8
1
  6
CONTINUOUS
 62
     7
 10
-20.78095466049134
 20
522.1010829688089
  0
VERTEX
  8
1
  6
CONTINUOUS
 62
     7
 10
-20.75260311864557
 20
522.1333472436631
  0
VERTEX
  8
1
  6
CONTINUOUS
 62
     7
 10
-20.7229211220425
 20
522.164336626256
  0
SEQEND
  8
1
  6
CONTINUOUS
 62
     7
  0
POLYLINE
  8
1
  6
CONTINUOUS
 62
     7
 66
     1
  0
VERTEX
  8
1
  6
CONTINUOUS
 62
     7
 10
-20.72292112204245
 20
497.810178870341
  0
VERTEX
  8
1
  6
CONTINUOUS
 62
     7
 10
-20.75194353323088
 20
497.8404451631687
  0
VERTEX
  8
1
  6
CONTINUOUS
 62
     7
 10
-20.77967246330148
 20
497.8719014490761
  0
VERTEX
  8
1
  6
CONTINUOUS
 62
     7
 10
-20.80624029650261
 20
497.9047286983266
  0
VERTEX
  8
1
  6
CONTINUOUS
 62
     7
 10
-20.83139976109344
 20
497.9386489586918
  0
VERTEX
  8
1
  6
CONTINUOUS
 62
     7
 10
-20.8547049370972
 20
497.9729916656196
  0
VERTEX
  8
1
  6
CONTINUOUS
 62
     7
 10
-20.8765847350621
 20
498.0083037783446
  0
VERTEX
  8
1
  6
CONTINUOUS
 62
     7
 10
-20.89698457117271
 20
498.0444935180645
  0
VERTEX
  8
1
  6
CONTINUOUS
 62
     7
 10
-20.91584986161356
 20
498.0814691059779
  0
VERTEX
  8
1
  6
CONTINUOUS
 62
     7
 10
-20.93363568658555
 20
498.1203013573563
  0
VERTEX
  8
1
  6
CONTINUOUS
 62
     7
 10
-20.94976291113172
 20
498.1598967553281
  0
VERTEX
  8
1
  6
CONTINUOUS
 62
     7
 10
-20.9641894769372
 20
498.2001466362939
  0
VERTEX
  8
1
  6
CONTINUOUS
 62
     7
 10
-20.97687332568709
 20
498.2409423366541
  0
VERTEX
  8
1
  6
CONTINUOUS
 62
     7
 10
-20.98747286489271
 20
498.2809106305237
  0
VERTEX
  8
1
  6
CONTINUOUS
 62
     7
 10
-20.99641941066541
 20
498.3213212995696
  0
VERTEX
  8
1
  6
CONTINUOUS
 62
     7
 10
-21.00369172601338
 20
498.3620706037412
  0
VERTEX
  8
1
  6
CONTINUOUS
 62
     7
 10
-21.00926857394476
 20
498.403054802988
  0
VERTEX
  8
1
  6
CONTINUOUS
 62
     7
 10
-21.01322535998676
 20
498.4454255690662
  0
VERTEX
  8
1
  6
CONTINUOUS
 62
     7
 10
-21.0153779562612
 20
498.4879694283289
  0
VERTEX
  8
1
  6
CONTINUOUS
 62
     7
 10
-21.01572239580163
 20
498.5305708222952
  0
VERTEX
  8
1
  6
CONTINUOUS
 62
     7
 10
-21.01425471164159
 20
498.573114192484
  0
VERTEX
  8
1
  6
CONTINUOUS
 62
     7
 10
-21.0110931816729
 20
498.6143085493308
  0
VERTEX
  8
1
  6
CONTINUOUS
 62
     7
 10
-21.00622800154726
 20
498.655376447169
  0
VERTEX
  8
1
  6
CONTINUOUS
 62
     7
 10
-20.99967331342871
 20
498.6962128351674
  0
VERTEX
  8
1
  6
CONTINUOUS
 62
     7
 10
-20.99144325948132
 20
498.7367126624948
  0
VERTEX
  8
1
  6
CONTINUOUS
 62
     7
 10
-20.98122939889358
 20
498.777989224621
  0
VERTEX
  8
1
  6
CONTINUOUS
 62
     7
 10
-20.96925800983799
 20
498.8188349627284
  0
VERTEX
  8
1
  6
CONTINUOUS
 62
     7
 10
-20.95556356418006
 20
498.8591394006403
  0
VERTEX
  8
1
  6
CONTINUOUS
 62
     7
 10
-20.94018053378531
 20
498.8987920621803
  0
VERTEX
  8
1
  6
CONTINUOUS
 62
     7
 10
-20.92360726249552
 20
498.9366963758578
  0
VERTEX
  8
1
  6
CONTINUOUS
 62
     7
 10
-20.90546367042921
 20
498.9739170494012
  0
VERTEX
  8
1
  6
CONTINUOUS
 62
     7
 10
-20.88579823456143
 20
499.0103590432738
  0
VERTEX
  8
1
  6
CONTINUOUS
 62
     7
 10
-20.86465943186721
 20
499.0459273179389
  0
VERTEX
  8
1
  6
CONTINUOUS
 62
     7
 10
-20.84138542064311
 20
499.0815771702092
  0
VERTEX
  8
1
  6
CONTINUOUS
 62
     7
 10
-20.81659171881893
 20
499.1162366493356
  0
VERTEX
  8
1
  6
CONTINUOUS
 62
     7
 10
-20.79034792915945
 20
499.1498125258241
  0
VERTEX
  8
1
  6
CONTINUOUS
 62
     7
 10
-20.76272365442946
 20
499.1822115701809
  0
SEQEND
  8
1
  6
CONTINUOUS
 62
     7
  0
POLYLINE
  8
1
  6
CONTINUOUS
 62
     7
 66
     1
  0
VERTEX
  8
1
  6
CONTINUOUS
 62
     7
 10
-41.4332773286169
 20
523.8164181723052
  0
VERTEX
  8
1
  6
CONTINUOUS
 62
     7
 10
-41.468936058723
 20
523.7954248863343
  0
VERTEX
  8
1
  6
CONTINUOUS
 62
     7
 10
-41.5054639076458
 20
523.7759081543624
  0
VERTEX
  8
1
  6
CONTINUOUS
 62
     7
 10
-41.54276561281743
 20
523.7579162701344
  0
VERTEX
  8
1
  6
CONTINUOUS
 62
     7
 10
-41.58074591166999
 20
523.7414975273954
  0
VERTEX
  8
1
  6
CONTINUOUS
 62
     7
 10
-41.62050110517161
 20
523.72626572739
  0
VERTEX
  8
1
  6
CONTINUOUS
 62
     7
 10
-41.66090356935347
 20
523.7127280983109
  0
VERTEX
  8
1
  6
CONTINUOUS
 62
     7
 10
-41.70184225706743
 20
523.7009189376178
  0
VERTEX
  8
1
  6
CONTINUOUS
 62
     7
 10
-41.74320612116537
 20
523.6908725427697
  0
VERTEX
  8
1
  6
CONTINUOUS
 62
     7
 10
-41.78375477603598
 20
523.6828157326763
  0
VERTEX
  8
1
  6
CONTINUOUS
 62
     7
 10
-41.82463383810613
 20
523.6764367249367
  0
VERTEX
  8
1
  6
CONTINUOUS
 62
     7
 10
-41.8657379245169
 20
523.6717493316063
  0
VERTEX
  8
1
  6
CONTINUOUS
 62
     7
 10
-41.90696165240932
 20
523.6687673647408
  0
VERTEX
  8
1
  6
CONTINUOUS
 62
     7
 10
-41.9494606736349
 20
523.6674870934575
  0
VERTEX
  8
1
  6
CONTINUOUS
 62
     7
 10
-41.9920101432302
 20
523.6680149048273
  0
VERTEX
  8
1
  6
CONTINUOUS
 62
     7
 10
-42.03449471886867
 20
523.6703463766432
  0
VERTEX
  8
1
  6
CONTINUOUS
 62
     7
 10
-42.07679905822378
 20
523.6744770866981
  0
VERTEX
  8
1
  6
CONTINUOUS
 62
     7
 10
-42.11777644710162
 20
523.680228549361
  0
VERTEX
  8
1
  6
CONTINUOUS
 62
     7
 10
-42.15851152541666
 20
523.6876758633916
  0
VERTEX
  8
1
  6
CONTINUOUS
 62
     7
 10
-42.19890034259709
 20
523.6967972560914
  0
VERTEX
  8
1
  6
CONTINUOUS
 62
     7
 10
-42.23883894807105
 20
523.7075709547615
  0
VERTEX
  8
1
  6
CONTINUOUS
 62
     7
 10
-42.27941873966322
 20
523.7203737592398
  0
VERTEX
  8
1
  6
CONTINUOUS
 62
     7
 10
-42.31944927023431
 20
523.7349028889138
  0
VERTEX
  8
1
  6
CONTINUOUS
 62
     7
 10
-42.35882321961297
 20
523.7511162135315
  0
VERTEX
  8
1
  6
CONTINUOUS
 62
     7
 10
-42.39743326762784
 20
523.7689716028416
  0
VERTEX
  8
1
  6
CONTINUOUS
 62
     7
 10
-42.43435239102327
 20
523.7879750309867
  0
VERTEX
  8
1
  6
CONTINUOUS
 62
     7
 10
-42.47047881857765
 20
523.8085106017957
  0
VERTEX
  8
1
  6
CONTINUOUS
 62
     7
 10
-42.50572086791963
 20
523.8305231782912
  0
VERTEX
  8
1
  6
CONTINUOUS
 62
     7
 10
-42.53998685667786
 20
523.8539576234956
  0
VERTEX
  8
1
  6
CONTINUOUS
 62
     7
 10
-42.57418961529502
 20
523.8795358855897
  0
VERTEX
  8
1
  6
CONTINUOUS
 62
     7
 10
-42.6072970781023
 20
523.906574131929
  0
VERTEX
  8
1
  6
CONTINUOUS
 62
     7
 10
-42.63922094366264
 20
523.9349966660067
  0
VERTEX
  8
1
  6
CONTINUOUS
 62
     7
 10
-42.66987291053901
 20
523.9647277913157
  0
VERTEX
  8
1
  6
CONTINUOUS
 62
     7
 10
-42.69870914444975
 20
523.9951751082189
  0
VERTEX
  8
1
  6
CONTINUOUS
 62
     7
 10
-42.72624327982185
 20
524.0268032001243
  0
VERTEX
  8
1
  6
CONTINUOUS
 62
     7
 10
-42.75260673666454
 20
524.0597937047822
  0
VERTEX
  8
1
  6
CONTINUOUS
 62
     7
 10
-42.77755413158999
 20
524.0938669928161
  0
SEQEND
  8
1
  6
CONTINUOUS
 62
     7
  0
ARC
  8
1
  6
CONTINUOUS
 62
     7
 10
-32.9
 20
509.9872577482985
 40
16.25
 50
98.32335767398648
 51
121.6766423260135
  0
ARC
  8
1
  6
CONTINUOUS
 62
     7
 10
-32.9
 20
509.9872577482985
 40
16.25
 50
318.3233576739864
 51
41.67664232601351
  0
ENDBLK
  8
0
  0
ENDSEC
  0
SECTION
  2
ENTITIES
  0
LINE
  8
1
  6
CONTINUOUS
 62
     7
 10
32.85000000000002
 20
496.0230177045296
 11
32.85000000000002
 21
527.2589831977143
  0
LINE
  8
1
  6
CONTINUOUS
 62
     7
 10
42.00000000000001
 20
529.7372577482986
 11
42.00000000000001
 21
496.0230177045296
  0
LINE
  8
1
  6
CONTINUOUS
 62
     7
 10
32.35000000000002
 20
493.3627422517014
 11
32.35000000000002
 21
524.1741346729107
  0
INSERT
  8
1
  6
CONTINUOUS
 62
     7
  2
D_FRAME_VIEW_2890
 10
0.0
 20
0.0
 30
0.0
  0
LINE
  8
1
  6
CENTER
 62
     1
 10
-55.65
 20
509.9872577482985
 11
-10.15
 21
509.9872577482985
  0
LINE
  8
1
  6
CENTER
 62
     1
 10
-32.9
 20
487.2372577482985
 11
-32.9
 21
532.7372577482986
  0
TEXT
  8
1
  6
CONTINUOUS
 62
     7
 10
-14.00261973239965
 20
480.3784200325121
 40
3.0
  1
FRAK-28
  0
INSERT
  8
1
  6
CONTINUOUS
 62
     7
  2
D_FRAME_VIEW_2738
 10
0.0
 20
0.0
 30
0.0
  0
ENDSEC
  0
EOF
