  0
SECTION
  2
HEADER
  9
$ACADVER
  1
AC1004
  9
$INSBASE
 10
0.0
 20
0.0
  9
$EXTMIN
 10
27.0
 20
274.4704545454545
  9
$EXTMAX
 10
133.05
 20
332.9090773512972
  9
$LIMMIN
 10
0.0
 20
0.0
  9
$LIMMAX
 10
12.0
 20
9.0
  9
$ORTHOMODE
 70
     0
  9
$REGENMODE
 70
     1
  9
$FILLMODE
 70
     1
  9
$QTEXTMODE
 70
     0
  9
$DRAGMODE
 70
     2
  9
$LTSCALE
 40
1.0
  9
$OSMODE
 70
    37
  9
$ATTMODE
 70
     1
  9
$TEXTSIZE
 40
0.2
  9
$TRACEWID
 40
0.05
  9
$TEXTSTYLE
  7
STANDARD
  9
$CLAYER
  8
0
  9
$CELTYPE
  6
BYLAYER
  9
$CECOLOR
 62
   256
  9
$DIMSCALE
 40
1.0
  9
$DIMASZ
 40
3.0
  9
$DIMEXO
 40
0.0625
  9
$DIMDLI
 40
0.38
  9
$DIMRND
 40
0.0
  9
$DIMDLE
 40
0.0
  9
$DIMEXE
 40
1.5
  9
$DIMTP
 40
0.0
  9
$DIMTM
 40
0.0
  9
$DIMTXT
 40
3.0
  9
$DIMCEN
 40
0.09
  9
$DIMTSZ
 40
0.0
  9
$DIMTOL
 70
     0
  9
$DIMLIM
 70
     0
  9
$DIMTIH
 70
     1
  9
$DIMTOH
 70
     1
  9
$DIMSE1
 70
     0
  9
$DIMSE2
 70
     0
  9
$DIMTAD
 70
     1
  9
$DIMZIN
 70
     0
  9
$DIMBLK
  1

  9
$DIMASO
 70
     1
  9
$DIMSHO
 70
     1
  9
$DIMPOST
  1

  9
$DIMAPOST
  1

  9
$DIMALT
 70
     0
  9
$DIMALTD
 70
     2
  9
$DIMALTF
 40
25.4
  9
$DIMLFAC
 40
1.0
  9
$DIMTOFL
 70
     0
  9
$DIMTVP
 40
0.0
  9
$DIMTIX
 70
     0
  9
$DIMSOXD
 70
     0
  9
$DIMSAH
 70
     0
  9
$DIMBLK1
  1

  9
$DIMBLK2
  1

  9
$LUNITS
 70
     2
  9
$LUPREC
 70
     4
  9
$SKETCHINC
 40
0.1
  9
$FILLETRAD
 40
0.5
  9
$AUNITS
 70
     0
  9
$AUPREC
 70
     0
  9
$MENU
  1
.
  9
$ELEVATION
 40
0.0
  9
$THICKNESS
 40
0.0
  9
$LIMCHECK
 70
     0
  9
$CHAMFERA
 40
0.0
  9
$CHAMFERB
 40
0.0
  9
$SKPOLY
 70
     0
  9
$TDCREATE
 40
2459069.416703669
  9
$TDUPDATE
 40
2459069.416704028
  9
$TDINDWG
 40
0.0000000116
  9
$TDUSRTIMER
 40
0.0000000116
  9
$USRTIMER
 70
     1
  9
$ANGBASE
 50
0.0
  9
$ANGDIR
 70
     0
  9
$PDMODE
 70
     0
  9
$PDSIZE
 40
0.0
  9
$PLINEWID
 40
0.0
  9
$COORDS
 70
     1
  9
$SPLFRAME
 70
     0
  9
$SPLINETYPE
 70
     6
  9
$SPLINESEGS
 70
     8
  9
$ATTDIA
 70
     0
  9
$ATTREQ
 70
     1
  9
$SURFTAB1
 70
     6
  9
$SURFTAB2
 70
     6
  9
$SURFTYPE
 70
     6
  9
$SURFU
 70
     6
  9
$SURFV
 70
     6
  9
$UCSNAME
  2

  9
$UCSORG
 10
0.0
 20
0.0
 30
0.0
  9
$UCSXDIR
 10
1.0
 20
0.0
 30
0.0
  9
$UCSYDIR
 10
0.0
 20
1.0
 30
0.0
  9
$USERI1
 70
     0
  9
$USERI2
 70
     0
  9
$USERI3
 70
     0
  9
$USERI4
 70
     0
  9
$USERI5
 70
     0
  9
$USERR1
 40
0.0
  9
$USERR2
 40
0.0
  9
$USERR3
 40
0.0
  9
$USERR4
 40
0.0
  9
$USERR5
 40
0.0
  9
$WORLDVIEW
 70
     1
  0
ENDSEC
  0
SECTION
  2
TABLES
  0
TABLE
  2
LTYPE
 70
     2
  0
LTYPE
  2
CONTINUOUS
 70
     0
  3
Solid line
 72
    65
 73
     0
 40
0.0
  0
LTYPE
  2
CENTER
 70
     0
  3

 72
    65
 73
     0
 40
0.0
  0
ENDTAB
  0
TABLE
  2
LAYER
 70
     2
  0
LAYER
  2
0
 70
     0
 62
     7
  6
CONTINUOUS
  0
LAYER
  2
1
 70
     0
 62
     7
  6
CONTINUOUS
  0
ENDTAB
  0
TABLE
  2
STYLE
 70
     2
  0
STYLE
  2
STANDARD
 70
     0
 40
0.0
 41
1.0
 50
0.0
 71
     0
 42
0.2
  3
txt
  4

  0
STYLE
  2
ＭＳ_ゴシック
 70
     0
 40
0.0
 41
1.0
 50
0.0
 71
     0
 42
0.2
  3
ＭＳ ゴシック.shx
  4

  0
ENDTAB
  0
TABLE
  2
VIEW
 70
     0
  0
ENDTAB
  0
ENDSEC
  0
SECTION
  2
BLOCKS
  0
BLOCK
  8
0
  2
D_FRAME_VIEW_2920
 70
     0
 10
0.0
 20
0.0
  0
ARC
  8
1
  6
CONTINUOUS
 62
     7
 10
115.94507897203
 20
288.6310998026996
 40
2.647640788693375
 50
177.4793233052484
 51
229.6344602325045
  0
LINE
  8
1
  6
CONTINUOUS
 62
     7
 10
124.5
 20
295.1372303064421
 11
124.5
 21
325.5917766165748
  0
LINE
  8
1
  6
CONTINUOUS
 62
     7
 10
124.5
 20
325.5917766165749
 11
112.8
 21
325.5917766165749
  0
LINE
  8
1
  6
CONTINUOUS
 62
     7
 10
112.8
 20
325.5917766165748
 11
112.8
 21
288.7475428260095
  0
ARC
  8
1
  6
CONTINUOUS
 62
     7
 10
110.1549210279698
 20
288.6310998026997
 40
2.647640788693559
 50
310.3655397674964
 51
2.520676694749056
  0
LINE
  8
1
  6
CONTINUOUS
 62
     7
 10
102.1
 20
286.6137882102665
 11
102.1
 21
316.8359396401581
  0
LINE
  8
1
  6
CONTINUOUS
 62
     7
 10
97.55000000000003
 20
318.6590773512972
 11
99.05000000000003
 21
321.1590773512972
  0
LINE
  8
1
  6
CONTINUOUS
 62
     7
 10
96.05000000000003
 20
321.1590773512972
 11
97.55000000000003
 21
318.6590773512972
  0
LINE
  8
1
  6
CONTINUOUS
 62
     7
 10
124.5
 20
294.5691293670875
 11
124.5
 21
295.1372303064421
  0
LINE
  8
1
  6
CONTINUOUS
 62
     7
 10
112.8
 20
322.3117798346781
 11
124.5
 21
322.3117798346781
  0
LINE
  8
1
  6
CONTINUOUS
 62
     7
 10
101.6
 20
292.9885811100286
 11
101.6
 21
316.6916748390141
  0
LINE
  8
1
  6
CONTINUOUS
 62
     7
 10
93.05000000000003
 20
316.8761522080499
 11
93.05000000000003
 21
289.4140289978643
  0
LINE
  8
1
  6
CONTINUOUS
 62
     7
 10
93.05000000000003
 20
318.5677128621356
 11
93.05000000000003
 21
318.5096195089524
  0
LINE
  8
1
  6
CONTINUOUS
 62
     7
 10
93.05000000000003
 20
321.9206539527707
 11
93.05000000000003
 21
318.5677128621356
  0
LINE
  8
1
  6
CONTINUOUS
 62
     7
 10
93.05000000000003
 20
322.0809560973386
 11
93.05000000000003
 21
321.9206539527707
  0
POLYLINE
  8
1
  6
CONTINUOUS
 62
     7
 66
     1
  0
VERTEX
  8
1
  6
CONTINUOUS
 62
     7
 10
97.15000000000002
 20
289.7855916946196
  0
VERTEX
  8
1
  6
CONTINUOUS
 62
     7
 10
97.14974169674456
 20
289.7767338509045
  0
VERTEX
  8
1
  6
CONTINUOUS
 62
     7
 10
97.14896856072802
 20
289.7678883800855
  0
VERTEX
  8
1
  6
CONTINUOUS
 62
     7
 10
97.14768325257515
 20
289.7590781320843
  0
VERTEX
  8
1
  6
CONTINUOUS
 62
     7
 10
97.14588843291071
 20
289.7503259568225
  0
VERTEX
  8
1
  6
CONTINUOUS
 62
     7
 10
97.14350941725064
 20
289.7413878517389
  0
VERTEX
  8
1
  6
CONTINUOUS
 62
     7
 10
97.14059480561181
 20
289.7325272933217
  0
VERTEX
  8
1
  6
CONTINUOUS
 62
     7
 10
97.137153515602
 20
289.7237682538836
  0
VERTEX
  8
1
  6
CONTINUOUS
 62
     7
 10
97.13319446482903
 20
289.7151347057379
  0
VERTEX
  8
1
  6
CONTINUOUS
 62
     7
 10
97.12885363806699
 20
289.7068734193654
  0
VERTEX
  8
1
  6
CONTINUOUS
 62
     7
 10
97.12403170125339
 20
289.6987447321877
  0
VERTEX
  8
1
  6
CONTINUOUS
 62
     7
 10
97.11874201719351
 20
289.6907690831277
  0
VERTEX
  8
1
  6
CONTINUOUS
 62
     7
 10
97.1129979486927
 20
289.6829669111083
  0
VERTEX
  8
1
  6
CONTINUOUS
 62
     7
 10
97.10661797950975
 20
289.6751279079075
  0
VERTEX
  8
1
  6
CONTINUOUS
 62
     7
 10
97.09976883968461
 20
289.6674859547662
  0
VERTEX
  8
1
  6
CONTINUOUS
 62
     7
 10
97.09247013221021
 20
289.6600609785111
  0
VERTEX
  8
1
  6
CONTINUOUS
 62
     7
 10
97.0847414600795
 20
289.6528729059687
  0
VERTEX
  8
1
  6
CONTINUOUS
 62
     7
 10
97.07679674197072
 20
289.6460981166289
  0
VERTEX
  8
1
  6
CONTINUOUS
 62
     7
 10
97.06845747961486
 20
289.6395595458107
  0
VERTEX
  8
1
  6
CONTINUOUS
 62
     7
 10
97.05974585371149
 20
289.6332730460247
  0
VERTEX
  8
1
  6
CONTINUOUS
 62
     7
 10
97.05068404496012
 20
289.6272544697813
  0
VERTEX
  8
1
  6
CONTINUOUS
 62
     7
 10
97.04100519283145
 20
289.6213489990083
  0
VERTEX
  8
1
  6
CONTINUOUS
 62
     7
 10
97.03097347464413
 20
289.6157365488169
  0
VERTEX
  8
1
  6
CONTINUOUS
 62
     7
 10
97.02061657240283
 20
289.6104311576245
  0
VERTEX
  8
1
  6
CONTINUOUS
 62
     7
 10
97.00996216811217
 20
289.6054468638485
  0
VERTEX
  8
1
  6
CONTINUOUS
 62
     7
 10
96.99924384637625
 20
289.6008796639373
  0
VERTEX
  8
1
  6
CONTINUOUS
 62
     7
 10
96.98825884078397
 20
289.5966277443096
  0
VERTEX
  8
1
  6
CONTINUOUS
 62
     7
 10
96.97703574045343
 20
289.5927010537554
  0
VERTEX
  8
1
  6
CONTINUOUS
 62
     7
 10
96.96560313450269
 20
289.5891095410649
  0
VERTEX
  8
1
  6
CONTINUOUS
 62
     7
 10
96.95363455959999
 20
289.5857687342964
  0
VERTEX
  8
1
  6
CONTINUOUS
 62
     7
 10
96.9414657311646
 20
289.5827878797803
  0
VERTEX
  8
1
  6
CONTINUOUS
 62
     7
 10
96.92912971021723
 20
289.5801741020897
  0
VERTEX
  8
1
  6
CONTINUOUS
 62
     7
 10
96.91665955777852
 20
289.577934525798
  0
VERTEX
  8
1
  6
CONTINUOUS
 62
     7
 10
96.90312929424779
 20
289.5759500452543
  0
VERTEX
  8
1
  6
CONTINUOUS
 62
     7
 10
96.88946419994485
 20
289.5744009202601
  0
VERTEX
  8
1
  6
CONTINUOUS
 62
     7
 10
96.87570678891255
 20
289.5732903908882
  0
VERTEX
  8
1
  6
CONTINUOUS
 62
     7
 10
96.86189957519369
 20
289.5726216972116
  0
VERTEX
  8
1
  6
CONTINUOUS
 62
     7
 10
96.84808507283107
 20
289.5723980793032
  0
SEQEND
  8
1
  6
CONTINUOUS
 62
     7
  0
LINE
  8
1
  6
CONTINUOUS
 62
     7
 10
97.15000000000002
 20
311.2573770814146
 11
97.15000000000002
 21
289.7855916946196
  0
POLYLINE
  8
1
  6
CONTINUOUS
 62
     7
 66
     1
  0
VERTEX
  8
1
  6
CONTINUOUS
 62
     7
 10
96.84808507283107
 20
311.5472106273796
  0
VERTEX
  8
1
  6
CONTINUOUS
 62
     7
 10
96.86070173567667
 20
311.5469569317223
  0
VERTEX
  8
1
  6
CONTINUOUS
 62
     7
 10
96.87330751568146
 20
311.5461975193678
  0
VERTEX
  8
1
  6
CONTINUOUS
 62
     7
 10
96.88586996210167
 20
311.5449349022412
  0
VERTEX
  8
1
  6
CONTINUOUS
 62
     7
 10
96.89835662419347
 20
311.5431715922682
  0
VERTEX
  8
1
  6
CONTINUOUS
 62
     7
 10
96.9111140912733
 20
311.5408344146049
  0
VERTEX
  8
1
  6
CONTINUOUS
 62
     7
 10
96.92376817400161
 20
311.5379704360733
  0
VERTEX
  8
1
  6
CONTINUOUS
 62
     7
 10
96.93628436966645
 20
311.5345878990399
  0
VERTEX
  8
1
  6
CONTINUOUS
 62
     7
 10
96.94862817555587
 20
311.5306950458718
  0
VERTEX
  8
1
  6
CONTINUOUS
 62
     7
 10
96.96044839783363
 20
311.5264242048643
  0
VERTEX
  8
1
  6
CONTINUOUS
 62
     7
 10
96.97208463043577
 20
311.5216777098731
  0
VERTEX
  8
1
  6
CONTINUOUS
 62
     7
 10
96.98350676900642
 20
311.5164680665047
  0
VERTEX
  8
1
  6
CONTINUOUS
 62
     7
 10
96.99468470918976
 20
311.510807780366
  0
VERTEX
  8
1
  6
CONTINUOUS
 62
     7
 10
97.00592312144042
 20
311.5045146774739
  0
VERTEX
  8
1
  6
CONTINUOUS
 62
     7
 10
97.01688165048311
 20
311.4977541881785
  0
VERTEX
  8
1
  6
CONTINUOUS
 62
     7
 10
97.02753006567706
 20
311.490545117189
  0
VERTEX
  8
1
  6
CONTINUOUS
 62
     7
 10
97.03783813638151
 20
311.4829062692145
  0
VERTEX
  8
1
  6
CONTINUOUS
 62
     7
 10
97.04748171602269
 20
311.4751074683859
  0
VERTEX
  8
1
  6
CONTINUOUS
 62
     7
 10
97.05678832955394
 20
311.4669184303966
  0
VERTEX
  8
1
  6
CONTINUOUS
 62
     7
 10
97.06573372161537
 20
311.4583605817483
  0
VERTEX
  8
1
  6
CONTINUOUS
 62
     7
 10
97.07429363684706
 20
311.4494553489426
  0
VERTEX
  8
1
  6
CONTINUOUS
 62
     7
 10
97.08269360477136
 20
311.4399312423525
  0
VERTEX
  8
1
  6
CONTINUOUS
 62
     7
 10
97.09066831249572
 20
311.4300551402667
  0
VERTEX
  8
1
  6
CONTINUOUS
 62
     7
 10
97.09819563130638
 20
311.4198546760913
  0
VERTEX
  8
1
  6
CONTINUOUS
 62
     7
 10
97.10525343248959
 20
311.4093574832328
  0
VERTEX
  8
1
  6
CONTINUOUS
 62
     7
 10
97.11160314250245
 20
311.3989678517282
  0
VERTEX
  8
1
  6
CONTINUOUS
 62
     7
 10
97.11750425601191
 20
311.3883201848558
  0
VERTEX
  8
1
  6
CONTINUOUS
 62
     7
 10
97.12294157275869
 20
311.3774423813917
  0
VERTEX
  8
1
  6
CONTINUOUS
 62
     7
 10
97.12789989248348
 20
311.3663623401121
  0
VERTEX
  8
1
  6
CONTINUOUS
 62
     7
 10
97.1324973045622
 20
311.354754074797
  0
VERTEX
  8
1
  6
CONTINUOUS
 62
     7
 10
97.1365774768521
 20
311.3429521770234
  0
VERTEX
  8
1
  6
CONTINUOUS
 62
     7
 10
97.14012950986975
 20
311.3309896277605
  0
VERTEX
  8
1
  6
CONTINUOUS
 62
     7
 10
97.14314250413167
 20
311.3188994079775
  0
VERTEX
  8
1
  6
CONTINUOUS
 62
     7
 10
97.14560099262137
 20
311.30674669006
  0
VERTEX
  8
1
  6
CONTINUOUS
 62
     7
 10
97.14751981521164
 20
311.2944839772628
  0
VERTEX
  8
1
  6
CONTINUOUS
 62
     7
 10
97.1488951431439
 20
311.2821453907682
  0
VERTEX
  8
1
  6
CONTINUOUS
 62
     7
 10
97.14972314765956
 20
311.269765051758
  0
VERTEX
  8
1
  6
CONTINUOUS
 62
     7
 10
97.15000000000002
 20
311.2573770814146
  0
SEQEND
  8
1
  6
CONTINUOUS
 62
     7
  0
LINE
  8
1
  6
CONTINUOUS
 62
     7
 10
96.84808507283107
 20
311.5472106273796
 11
95.65191492716896
 21
311.5472106273796
  0
POLYLINE
  8
1
  6
CONTINUOUS
 62
     7
 66
     1
  0
VERTEX
  8
1
  6
CONTINUOUS
 62
     7
 10
95.35000000000001
 20
311.2573770814146
  0
VERTEX
  8
1
  6
CONTINUOUS
 62
     7
 10
95.35025830325547
 20
311.2693643679562
  0
VERTEX
  8
1
  6
CONTINUOUS
 62
     7
 10
95.35103143927202
 20
311.2813395948243
  0
VERTEX
  8
1
  6
CONTINUOUS
 62
     7
 10
95.3523167474249
 20
311.2932717727596
  0
VERTEX
  8
1
  6
CONTINUOUS
 62
     7
 10
95.35411156708935
 20
311.3051299125025
  0
VERTEX
  8
1
  6
CONTINUOUS
 62
     7
 10
95.3564905827494
 20
311.3172447585914
  0
VERTEX
  8
1
  6
CONTINUOUS
 62
     7
 10
95.35940519438823
 20
311.3292592445705
  0
VERTEX
  8
1
  6
CONTINUOUS
 62
     7
 10
95.36284648439805
 20
311.3411407047486
  0
VERTEX
  8
1
  6
CONTINUOUS
 62
     7
 10
95.36680553517101
 20
311.3528564734344
  0
VERTEX
  8
1
  6
CONTINUOUS
 62
     7
 10
95.37114636193306
 20
311.3640713380142
  0
VERTEX
  8
1
  6
CONTINUOUS
 62
     7
 10
95.37596829874666
 20
311.3751102330577
  0
VERTEX
  8
1
  6
CONTINUOUS
 62
     7
 10
95.38125798280653
 20
311.3859451790269
  0
VERTEX
  8
1
  6
CONTINUOUS
 62
     7
 10
95.38700205130735
 20
311.3965481963835
  0
VERTEX
  8
1
  6
CONTINUOUS
 62
     7
 10
95.3933820204903
 20
311.407205025187
  0
VERTEX
  8
1
  6
CONTINUOUS
 62
     7
 10
95.40023116031543
 20
311.4175975773133
  0
VERTEX
  8
1
  6
CONTINUOUS
 62
     7
 10
95.40752986778982
 20
311.4276984551306
  0
VERTEX
  8
1
  6
CONTINUOUS
 62
     7
 10
95.41525853992053
 20
311.437480261007
  0
VERTEX
  8
1
  6
CONTINUOUS
 62
     7
 10
95.4232032580293
 20
311.446702567224
  0
VERTEX
  8
1
  6
CONTINUOUS
 62
     7
 10
95.43154252038515
 20
311.4556059842571
  0
VERTEX
  8
1
  6
CONTINUOUS
 62
     7
 10
95.44025414628852
 20
311.4641686290723
  0
VERTEX
  8
1
  6
CONTINUOUS
 62
     7
 10
95.44931595503988
 20
311.4723686186355
  0
VERTEX
  8
1
  6
CONTINUOUS
 62
     7
 10
95.45899480716855
 20
311.4804166804316
  0
VERTEX
  8
1
  6
CONTINUOUS
 62
     7
 10
95.46902652535587
 20
311.4880673999974
  0
VERTEX
  8
1
  6
CONTINUOUS
 62
     7
 10
95.47938342759718
 20
311.4953013308803
  0
VERTEX
  8
1
  6
CONTINUOUS
 62
     7
 10
95.49003783188785
 20
311.5020990266278
  0
VERTEX
  8
1
  6
CONTINUOUS
 62
     7
 10
95.50075615362377
 20
311.5083292248364
  0
VERTEX
  8
1
  6
CONTINUOUS
 62
     7
 10
95.51174115921604
 20
311.5141305031885
  0
VERTEX
  8
1
  6
CONTINUOUS
 62
     7
 10
95.52296425954658
 20
311.5194890409359
  0
VERTEX
  8
1
  6
CONTINUOUS
 62
     7
 10
95.53439686549733
 20
311.5243910173303
  0
VERTEX
  8
1
  6
CONTINUOUS
 62
     7
 10
95.54636544040004
 20
311.5289515176268
  0
VERTEX
  8
1
  6
CONTINUOUS
 62
     7
 10
95.55853426883544
 20
311.533021235726
  0
VERTEX
  8
1
  6
CONTINUOUS
 62
     7
 10
95.57087028978283
 20
311.5365902535984
  0
VERTEX
  8
1
  6
CONTINUOUS
 62
     7
 10
95.58334044222154
 20
311.5396486532146
  0
VERTEX
  8
1
  6
CONTINUOUS
 62
     7
 10
95.59687070575227
 20
311.542358920432
  0
VERTEX
  8
1
  6
CONTINUOUS
 62
     7
 10
95.6105358000552
 20
311.5444747677629
  0
VERTEX
  8
1
  6
CONTINUOUS
 62
     7
 10
95.6242932110875
 20
311.5459916789017
  0
VERTEX
  8
1
  6
CONTINUOUS
 62
     7
 10
95.63810042480635
 20
311.5469051375425
  0
VERTEX
  8
1
  6
CONTINUOUS
 62
     7
 10
95.65191492716896
 20
311.5472106273796
  0
SEQEND
  8
1
  6
CONTINUOUS
 62
     7
  0
LINE
  8
1
  6
CONTINUOUS
 62
     7
 10
95.35000000000002
 20
311.2573770814146
 11
95.35000000000002
 21
289.7855916946196
  0
POLYLINE
  8
1
  6
CONTINUOUS
 62
     7
 66
     1
  0
VERTEX
  8
1
  6
CONTINUOUS
 62
     7
 10
95.65191492716896
 20
289.5723980793032
  0
VERTEX
  8
1
  6
CONTINUOUS
 62
     7
 10
95.63929826432336
 20
289.5725837913226
  0
VERTEX
  8
1
  6
CONTINUOUS
 62
     7
 10
95.62669248431857
 20
289.5731397261737
  0
VERTEX
  8
1
  6
CONTINUOUS
 62
     7
 10
95.61413003789836
 20
289.5740640820464
  0
VERTEX
  8
1
  6
CONTINUOUS
 62
     7
 10
95.60164337580656
 20
289.5753550571304
  0
VERTEX
  8
1
  6
CONTINUOUS
 62
     7
 10
95.58888590872672
 20
289.5770662802106
  0
VERTEX
  8
1
  6
CONTINUOUS
 62
     7
 10
95.57623182599842
 20
289.5791633983646
  0
VERTEX
  8
1
  6
CONTINUOUS
 62
     7
 10
95.56371563033356
 20
289.5816404939586
  0
VERTEX
  8
1
  6
CONTINUOUS
 62
     7
 10
95.55137182444416
 20
289.5844916493589
  0
VERTEX
  8
1
  6
CONTINUOUS
 62
     7
 10
95.5395516021664
 20
289.5876200601641
  0
VERTEX
  8
1
  6
CONTINUOUS
 62
     7
 10
95.52791536956425
 20
289.5910974126265
  0
VERTEX
  8
1
  6
CONTINUOUS
 62
     7
 10
95.51649323099359
 20
289.5949147121369
  0
VERTEX
  8
1
  6
CONTINUOUS
 62
     7
 10
95.50531529081027
 20
289.5990629640859
  0
VERTEX
  8
1
  6
CONTINUOUS
 62
     7
 10
95.4940768785596
 20
289.6036758995465
  0
VERTEX
  8
1
  6
CONTINUOUS
 62
     7
 10
95.48311834951691
 20
289.6086325109058
  0
VERTEX
  8
1
  6
CONTINUOUS
 62
     7
 10
95.47246993432297
 20
289.6139192372959
  0
VERTEX
  8
1
  6
CONTINUOUS
 62
     7
 10
95.4621618636185
 20
289.6195225178493
  0
VERTEX
  8
1
  6
CONTINUOUS
 62
     7
 10
95.45251828397734
 20
289.6252445944949
  0
VERTEX
  8
1
  6
CONTINUOUS
 62
     7
 10
95.44321167044608
 20
289.6312545847383
  0
VERTEX
  8
1
  6
CONTINUOUS
 62
     7
 10
95.43426627838464
 20
289.6375369854891
  0
VERTEX
  8
1
  6
CONTINUOUS
 62
     7
 10
95.42570636315297
 20
289.644076293657
  0
VERTEX
  8
1
  6
CONTINUOUS
 62
     7
 10
95.41730639522865
 20
289.6510721974281
  0
VERTEX
  8
1
  6
CONTINUOUS
 62
     7
 10
95.40933168750429
 20
289.658328984063
  0
VERTEX
  8
1
  6
CONTINUOUS
 62
     7
 10
95.40180436869363
 20
289.6658265812917
  0
VERTEX
  8
1
  6
CONTINUOUS
 62
     7
 10
95.39474656751042
 20
289.6735449168447
  0
VERTEX
  8
1
  6
CONTINUOUS
 62
     7
 10
95.38839685749757
 20
289.6811868147889
  0
VERTEX
  8
1
  6
CONTINUOUS
 62
     7
 10
95.38249574398812
 20
289.6890212204266
  0
VERTEX
  8
1
  6
CONTINUOUS
 62
     7
 10
95.37705842724134
 20
289.6970277812111
  0
VERTEX
  8
1
  6
CONTINUOUS
 62
     7
 10
95.37210010751654
 20
289.7051861445955
  0
VERTEX
  8
1
  6
CONTINUOUS
 62
     7
 10
95.36750269543784
 20
289.7137366596152
  0
VERTEX
  8
1
  6
CONTINUOUS
 62
     7
 10
95.36342252314793
 20
289.7224331447017
  0
VERTEX
  8
1
  6
CONTINUOUS
 62
     7
 10
95.35987049013028
 20
289.7312514292013
  0
VERTEX
  8
1
  6
CONTINUOUS
 62
     7
 10
95.35685749586834
 20
289.7401673424612
  0
VERTEX
  8
1
  6
CONTINUOUS
 62
     7
 10
95.35439900737866
 20
289.7491329485767
  0
VERTEX
  8
1
  6
CONTINUOUS
 62
     7
 10
95.35248018478839
 20
289.7581833289588
  0
VERTEX
  8
1
  6
CONTINUOUS
 62
     7
 10
95.35110485685613
 20
289.767293341499
  0
VERTEX
  8
1
  6
CONTINUOUS
 62
     7
 10
95.35027685234047
 20
289.7764378440888
  0
VERTEX
  8
1
  6
CONTINUOUS
 62
     7
 10
95.35000000000002
 20
289.7855916946196
  0
SEQEND
  8
1
  6
CONTINUOUS
 62
     7
  0
LINE
  8
1
  6
CONTINUOUS
 62
     7
 10
95.65191492716896
 20
289.5723980793032
 11
96.84808507283107
 21
289.5723980793032
  0
LINE
  8
1
  6
CONTINUOUS
 62
     7
 10
119.55
 20
315.5442752659179
 11
119.54073278849
 21
315.4778769749236
  0
LINE
  8
1
  6
CONTINUOUS
 62
     7
 10
119.55
 20
322.3117798346781
 11
119.55
 21
315.5442752659179
  0
LINE
  8
1
  6
CONTINUOUS
 62
     7
 10
117.75
 20
322.3117798346781
 11
117.75
 21
315.5442752659179
  0
LINE
  8
1
  6
CONTINUOUS
 62
     7
 10
93.53287400375714
 20
316.6916748402201
 11
93.50891242370737
 21
316.6931940637129
  0
POLYLINE
  8
1
  6
CONTINUOUS
 62
     7
 66
     1
  0
VERTEX
  8
1
  6
CONTINUOUS
 62
     7
 10
93.50891242370737
 20
316.6931940637129
  0
VERTEX
  8
1
  6
CONTINUOUS
 62
     7
 10
93.47237705148414
 20
316.6984950208868
  0
VERTEX
  8
1
  6
CONTINUOUS
 62
     7
 10
93.43722172093788
 20
316.7040969603465
  0
VERTEX
  8
1
  6
CONTINUOUS
 62
     7
 10
93.40335273167535
 20
316.7100069879872
  0
VERTEX
  8
1
  6
CONTINUOUS
 62
     7
 10
93.37095956967751
 20
316.7161838051674
  0
VERTEX
  8
1
  6
CONTINUOUS
 62
     7
 10
93.33946524806127
 20
316.7227416895637
  0
VERTEX
  8
1
  6
CONTINUOUS
 62
     7
 10
93.30956314184827
 20
316.7295405691098
  0
VERTEX
  8
1
  6
CONTINUOUS
 62
     7
 10
93.28117375486136
 20
316.7365884187486
  0
VERTEX
  8
1
  6
CONTINUOUS
 62
     7
 10
93.25442166187982
 20
316.7438440718498
  0
VERTEX
  8
1
  6
CONTINUOUS
 62
     7
 10
93.23033758917374
 20
316.7509747309373
  0
VERTEX
  8
1
  6
CONTINUOUS
 62
     7
 10
93.20777159207256
 20
316.758266792304
  0
VERTEX
  8
1
  6
CONTINUOUS
 62
     7
 10
93.18655005640424
 20
316.7657722697692
  0
VERTEX
  8
1
  6
CONTINUOUS
 62
     7
 10
93.16689942647291
 20
316.7734057213409
  0
VERTEX
  8
1
  6
CONTINUOUS
 62
     7
 10
93.14872401255002
 20
316.7811944254206
  0
VERTEX
  8
1
  6
CONTINUOUS
 62
     7
 10
93.13211733826054
 20
316.789088115179
  0
VERTEX
  8
1
  6
CONTINUOUS
 62
     7
 10
93.11693492373325
 20
316.7971514590024
  0
VERTEX
  8
1
  6
CONTINUOUS
 62
     7
 10
93.10331572909472
 20
316.8053087238226
  0
VERTEX
  8
1
  6
CONTINUOUS
 62
     7
 10
93.09088310686892
 20
316.81382284905
  0
VERTEX
  8
1
  6
CONTINUOUS
 62
     7
 10
93.08010761720973
 20
316.8224152064277
  0
VERTEX
  8
1
  6
CONTINUOUS
 62
     7
 10
93.07096520133636
 20
316.8310949523687
  0
VERTEX
  8
1
  6
CONTINUOUS
 62
     7
 10
93.06347752547859
 20
316.8398322330846
  0
VERTEX
  8
1
  6
CONTINUOUS
 62
     7
 10
93.05758392788721
 20
316.848716362561
  0
VERTEX
  8
1
  6
CONTINUOUS
 62
     7
 10
93.0533746907799
 20
316.8576391045324
  0
VERTEX
  8
1
  6
CONTINUOUS
 62
     7
 10
93.05084356689882
 20
316.8666100720674
  0
VERTEX
  8
1
  6
CONTINUOUS
 62
     7
 10
93.05000000000001
 20
316.8756002128112
  0
SEQEND
  8
1
  6
CONTINUOUS
 62
     7
  0
LINE
  8
1
  6
CONTINUOUS
 62
     7
 10
93.05000000000001
 20
316.8756002128112
 11
93.05000000000001
 21
318.5096195089524
  0
LINE
  8
1
  6
CONTINUOUS
 62
     7
 10
93.05061827420407
 20
322.0755325106792
 11
93.05000000000001
 21
322.0755325106792
  0
LINE
  8
1
  6
CONTINUOUS
 62
     7
 10
93.05000000000001
 20
322.0755325106792
 11
93.05000000000001
 21
329.9090773512971
  0
LINE
  8
1
  6
CONTINUOUS
 62
     7
 10
124.5
 20
294.5691293670875
 11
124.5
 21
294.3291284509981
  0
LINE
  8
1
  6
CONTINUOUS
 62
     7
 10
97.55000000000003
 20
319.0433965345803
 11
98.84957876206603
 21
321.1590773512972
  0
LINE
  8
1
  6
CONTINUOUS
 62
     7
 10
98.84957876206921
 20
321.1590773512972
 11
99.05000000000003
 21
321.1590773512972
  0
LINE
  8
1
  6
CONTINUOUS
 62
     7
 10
97.55000000000003
 20
319.0433965345803
 11
97.55000000000003
 21
318.6590773512972
  0
LINE
  8
1
  6
CONTINUOUS
 62
     7
 10
96.25042123829986
 20
321.1590773513014
 11
97.55000000000003
 21
319.0433965345803
  0
LINE
  8
1
  6
CONTINUOUS
 62
     7
 10
98.84957876206603
 20
321.1590773512972
 11
96.25042123829986
 21
321.1590773513014
  0
LINE
  8
1
  6
CONTINUOUS
 62
     7
 10
96.05000000000003
 20
321.1590773512972
 11
96.25042123829986
 21
321.1590773512972
  0
LINE
  8
1
  6
CONTINUOUS
 62
     7
 10
124.5
 20
294.3291284509981
 11
124.5
 21
294.0825115345087
  0
LINE
  8
1
  6
CONTINUOUS
 62
     7
 10
111.8696967232106
 20
286.6137882102665
 11
111.4580344244185
 21
286.4909226826923
  0
LINE
  8
1
  6
CONTINUOUS
 62
     7
 10
133.05
 20
289.2426221919152
 11
124.6711984146077
 21
289.2426221919152
  0
LINE
  8
1
  6
CONTINUOUS
 62
     7
 10
102.1
 20
286.4909226487027
 11
102.1
 21
286.6137882102665
  0
LINE
  8
1
  6
CONTINUOUS
 62
     7
 10
119.2817107720577
 20
315.194100245638
 11
119.2817107720577
 21
322.3117798346781
  0
LINE
  8
1
  6
CONTINUOUS
 62
     7
 10
118.0182892279423
 20
322.3117798346781
 11
118.0182892279423
 21
315.194100245638
  0
LINE
  8
1
  6
CONTINUOUS
 62
     7
 10
124.5
 20
322.0755325106792
 11
124.0
 21
322.0755325106792
  0
LINE
  8
1
  6
CONTINUOUS
 62
     7
 10
114.2303032767894
 20
286.6137882102665
 11
114.6416896173812
 21
286.4909226487045
  0
LINE
  8
1
  6
CONTINUOUS
 62
     7
 10
99.37466583986325
 20
289.2426221919152
 11
93.05000000000001
 21
289.2426221919152
  0
LINE
  8
1
  6
CONTINUOUS
 62
     7
 10
93.05000000000001
 20
289.4140289978643
 11
93.05000000000001
 21
289.2426221919152
  0
LINE
  8
1
  6
CONTINUOUS
 62
     7
 10
119.3489936636732
 20
314.8044743784105
 11
119.3538996565055
 21
314.8198232801345
  0
LINE
  8
1
  6
CONTINUOUS
 62
     7
 10
117.9461003400745
 20
314.8198232922
 11
117.9510062716321
 21
314.8044745598439
  0
LINE
  8
1
  6
CONTINUOUS
 62
     7
 10
117.759267308413
 20
315.4778766329756
 11
117.7500000000009
 21
315.5442752659179
  0
LINE
  8
1
  6
CONTINUOUS
 62
     7
 10
132.05
 20
330.9090773512972
 11
94.05000000000005
 21
330.9090773512972
  0
ARC
  8
1
  6
CONTINUOUS
 62
     7
 10
132.05
 20
329.9090773512972
 40
1.000000000000001
 50
0.0
 51
90.0
  0
LINE
  8
1
  6
CONTINUOUS
 62
     7
 10
93.53288412239031
 20
316.6916748390141
 11
102.1
 21
316.6916748390141
  0
ARC
  8
1
  6
CONTINUOUS
 62
     7
 10
94.05000000000003
 20
329.9090773512972
 40
1.000000000000001
 50
89.99999999999962
 51
180.0000000000004
  0
LINE
  8
1
  6
CONTINUOUS
 62
     7
 10
102.1
 20
286.4909226487027
 11
111.4579117666963
 21
286.4909226487027
  0
LINE
  8
1
  6
CONTINUOUS
 62
     7
 10
114.641690451451
 20
286.4909226487027
 11
124.0
 21
286.4909226487027
  0
POLYLINE
  8
1
  6
CONTINUOUS
 62
     7
 66
     1
  0
VERTEX
  8
1
  6
CONTINUOUS
 62
     7
 10
119.0299283705123
 20
314.5360737745266
  0
VERTEX
  8
1
  6
CONTINUOUS
 62
     7
 10
119.0398194564679
 20
314.5362345044567
  0
VERTEX
  8
1
  6
CONTINUOUS
 62
     7
 10
119.0497786873062
 20
314.5367205027756
  0
VERTEX
  8
1
  6
CONTINUOUS
 62
     7
 10
119.059797066356
 20
314.5375408349973
  0
VERTEX
  8
1
  6
CONTINUOUS
 62
     7
 10
119.0698653547537
 20
314.5387048164498
  0
VERTEX
  8
1
  6
CONTINUOUS
 62
     7
 10
119.0799740704649
 20
314.540221977478
  0
VERTEX
  8
1
  6
CONTINUOUS
 62
     7
 10
119.0899322147587
 20
314.5420652150804
  0
VERTEX
  8
1
  6
CONTINUOUS
 62
     7
 10
119.0999105310615
 20
314.5442678241704
  0
VERTEX
  8
1
  6
CONTINUOUS
 62
     7
 10
119.1098993486842
 20
314.5468392253986
  0
VERTEX
  8
1
  6
CONTINUOUS
 62
     7
 10
119.1198887699768
 20
314.5497888928706
  0
VERTEX
  8
1
  6
CONTINUOUS
 62
     7
 10
119.1328463015814
 20
314.5541998230383
  0
VERTEX
  8
1
  6
CONTINUOUS
 62
     7
 10
119.145765012172
 20
314.5592854421905
  0
VERTEX
  8
1
  6
CONTINUOUS
 62
     7
 10
119.1586215248325
 20
314.5650662122798
  0
VERTEX
  8
1
  6
CONTINUOUS
 62
     7
 10
119.1713918359368
 20
314.5715622023999
  0
VERTEX
  8
1
  6
CONTINUOUS
 62
     7
 10
119.1840513257104
 20
314.5787929287763
  0
VERTEX
  8
1
  6
CONTINUOUS
 62
     7
 10
119.1965747715621
 20
314.5867771946985
  0
VERTEX
  8
1
  6
CONTINUOUS
 62
     7
 10
119.2089363644656
 20
314.5955329320197
  0
VERTEX
  8
1
  6
CONTINUOUS
 62
     7
 10
119.2231184402824
 20
314.6067455023383
  0
VERTEX
  8
1
  6
CONTINUOUS
 62
     7
 10
119.237001479274
 20
314.6190558929993
  0
VERTEX
  8
1
  6
CONTINUOUS
 62
     7
 10
119.2505417211025
 20
314.6324864194007
  0
VERTEX
  8
1
  6
CONTINUOUS
 62
     7
 10
119.2636945309058
 20
314.6470566316552
  0
VERTEX
  8
1
  6
CONTINUOUS
 62
     7
 10
119.276414483138
 20
314.6627830682544
  0
VERTEX
  8
1
  6
CONTINUOUS
 62
     7
 10
119.2886503504369
 20
314.6796668056128
  0
VERTEX
  8
1
  6
CONTINUOUS
 62
     7
 10
119.3003459152719
 20
314.6976905632204
  0
VERTEX
  8
1
  6
CONTINUOUS
 62
     7
 10
119.3114520076028
 20
314.7168471907891
  0
VERTEX
  8
1
  6
CONTINUOUS
 62
     7
 10
119.3219192689906
 20
314.7371244191281
  0
VERTEX
  8
1
  6
CONTINUOUS
 62
     7
 10
119.3316982228658
 20
314.7585045234217
  0
VERTEX
  8
1
  6
CONTINUOUS
 62
     7
 10
119.3407394859043
 20
314.7809643320393
  0
VERTEX
  8
1
  6
CONTINUOUS
 62
     7
 10
119.3489940028584
 20
314.8044753296446
  0
SEQEND
  8
1
  6
CONTINUOUS
 62
     7
  0
LINE
  8
1
  6
CONTINUOUS
 62
     7
 10
118.2700876356241
 20
314.5360737298136
 11
119.0299086510012
 21
314.5360737298136
  0
POLYLINE
  8
1
  6
CONTINUOUS
 62
     7
 66
     1
  0
VERTEX
  8
1
  6
CONTINUOUS
 62
     7
 10
117.9510059971416
 20
314.8044753296448
  0
VERTEX
  8
1
  6
CONTINUOUS
 62
     7
 10
117.960754985823
 20
314.7762739719712
  0
VERTEX
  8
1
  6
CONTINUOUS
 62
     7
 10
117.9718825458682
 20
314.7488069616907
  0
VERTEX
  8
1
  6
CONTINUOUS
 62
     7
 10
117.9845733774854
 20
314.7221188460767
  0
VERTEX
  8
1
  6
CONTINUOUS
 62
     7
 10
117.999004709306
 20
314.6963026722424
  0
VERTEX
  8
1
  6
CONTINUOUS
 62
     7
 10
118.0090411688312
 20
314.6805823254655
  0
VERTEX
  8
1
  6
CONTINUOUS
 62
     7
 10
118.0198679850441
 20
314.665304390167
  0
VERTEX
  8
1
  6
CONTINUOUS
 62
     7
 10
118.0315188956482
 20
314.650519269771
  0
VERTEX
  8
1
  6
CONTINUOUS
 62
     7
 10
118.0440233602129
 20
314.6362838384696
  0
VERTEX
  8
1
  6
CONTINUOUS
 62
     7
 10
118.0574058092304
 20
314.6226611607445
  0
VERTEX
  8
1
  6
CONTINUOUS
 62
     7
 10
118.0689267683499
 20
314.6121016456019
  0
VERTEX
  8
1
  6
CONTINUOUS
 62
     7
 10
118.0810453272954
 20
314.6020306816047
  0
VERTEX
  8
1
  6
CONTINUOUS
 62
     7
 10
118.09376506075
 20
314.5924900321185
  0
VERTEX
  8
1
  6
CONTINUOUS
 62
     7
 10
118.10708604024
 20
314.5835235137478
  0
VERTEX
  8
1
  6
CONTINUOUS
 62
     7
 10
118.1210045168691
 20
314.5751768007113
  0
VERTEX
  8
1
  6
CONTINUOUS
 62
     7
 10
118.1355110694625
 20
314.5674985071464
  0
VERTEX
  8
1
  6
CONTINUOUS
 62
     7
 10
118.1505903697452
 20
314.5605389918402
  0
VERTEX
  8
1
  6
CONTINUOUS
 62
     7
 10
118.1642417060186
 20
314.5550766883471
  0
VERTEX
  8
1
  6
CONTINUOUS
 62
     7
 10
118.1783047576401
 20
314.5502341806881
  0
VERTEX
  8
1
  6
CONTINUOUS
 62
     7
 10
118.1927621512035
 20
314.5460448099753
  0
VERTEX
  8
1
  6
CONTINUOUS
 62
     7
 10
118.2075931940635
 20
314.5425422596199
  0
VERTEX
  8
1
  6
CONTINUOUS
 62
     7
 10
118.2197109422041
 20
314.5402574561418
  0
VERTEX
  8
1
  6
CONTINUOUS
 62
     7
 10
118.2320384130248
 20
314.5384511454869
  0
VERTEX
  8
1
  6
CONTINUOUS
 62
     7
 10
118.2445600691334
 20
314.537140495579
  0
VERTEX
  8
1
  6
CONTINUOUS
 62
     7
 10
118.2572588197259
 20
314.5363424761659
  0
VERTEX
  8
1
  6
CONTINUOUS
 62
     7
 10
118.2701159871445
 20
314.5360737714265
  0
SEQEND
  8
1
  6
CONTINUOUS
 62
     7
  0
LINE
  8
1
  6
CONTINUOUS
 62
     7
 10
117.7580816805206
 20
315.4820525627374
 11
117.9461002590825
 21
314.81982357794
  0
LINE
  8
1
  6
CONTINUOUS
 62
     7
 10
119.3538997407134
 20
314.8198235772203
 11
119.5419371827136
 21
315.4821190013863
  0
LINE
  8
1
  6
CONTINUOUS
 62
     7
 10
124.0
 20
316.6916748390141
 11
124.5
 21
316.6916748390141
  0
ENDBLK
  8
0
  0
BLOCK
  8
0
  2
D_FRAME_VIEW_2738
 70
     0
 10
0.0
 20
0.0
  0
LINE
  8
1
  6
CONTINUOUS
 62
     7
 10
76.78452586076575
 20
316.6931940637129
 11
75.75004918359801
 21
316.8756002128112
  0
LINE
  8
1
  6
CONTINUOUS
 62
     7
 10
74.81516633179334
 20
318.5096195089524
 11
74.8997970034887
 21
318.5625026219263
  0
LINE
  8
1
  6
CONTINUOUS
 62
     7
 10
74.89979700348869
 20
318.5625026219263
 11
74.93139154555433
 21
318.700647185465
  0
ARC
  8
1
  6
CONTINUOUS
 62
     7
 10
54.25
 20
305.6590773512972
 40
24.45000000000002
 50
32.23530160397957
 51
41.64935713514659
  0
LINE
  8
1
  6
CONTINUOUS
 62
     7
 10
72.51967270506509
 20
321.9078175870755
 11
72.14605976631121
 21
322.0755325106792
  0
LINE
  8
1
  6
CONTINUOUS
 62
     7
 10
72.1460597663112
 20
322.0755325106792
 11
72.09831924860151
 21
322.0755325106792
  0
LINE
  8
1
  6
CONTINUOUS
 62
     7
 10
32.74995081640203
 20
294.4425544897832
 11
32.03210901592592
 21
294.5691293670875
  0
ARC
  8
1
  6
CONTINUOUS
 62
     7
 10
32.20575719359287
 20
295.5539371200998
 40
1.000000000000035
 50
236.139540703024
 51
259.9999999999991
  0
POLYLINE
  8
1
  6
CONTINUOUS
 62
     7
 66
     1
  0
VERTEX
  8
1
  6
CONTINUOUS
 62
     7
 10
31.64858502169022
 20
294.7235401241651
  0
VERTEX
  8
1
  6
CONTINUOUS
 62
     7
 10
31.56025735645056
 20
294.7901778136887
  0
VERTEX
  8
1
  6
CONTINUOUS
 62
     7
 10
31.48144429468275
 20
294.8644657106296
  0
VERTEX
  8
1
  6
CONTINUOUS
 62
     7
 10
31.41036310491789
 20
294.9478459985272
  0
VERTEX
  8
1
  6
CONTINUOUS
 62
     7
 10
31.34944806695952
 20
295.0374734915212
  0
VERTEX
  8
1
  6
CONTINUOUS
 62
     7
 10
31.29864662703455
 20
295.1330447109987
  0
VERTEX
  8
1
  6
CONTINUOUS
 62
     7
 10
31.29671625312243
 20
295.1372303064421
  0
SEQEND
  8
1
  6
CONTINUOUS
 62
     7
  0
ARC
  8
1
  6
CONTINUOUS
 62
     7
 10
54.25
 20
305.6590773512972
 40
25.25
 50
26.2729571300672
 51
204.6268487440934
  0
LINE
  8
1
  6
CONTINUOUS
 62
     7
 10
76.89156022397391
 20
316.8359396401581
 11
76.90166676774041
 21
316.7849866387805
  0
LINE
  8
1
  6
CONTINUOUS
 62
     7
 10
76.90166676774041
 20
316.7849866387805
 11
76.87222322822906
 21
316.7205880438045
  0
LINE
  8
1
  6
CONTINUOUS
 62
     7
 10
76.87222322822906
 20
316.7205880438045
 11
76.78452586076575
 21
316.693194063713
  0
ARC
  8
1
  6
CONTINUOUS
 62
     7
 10
75.19360224079819
 20
317.4814301281024
 40
0.5000000000000013
 50
209.4440833648555
 51
260.0000000000002
  0
ARC
  8
1
  6
CONTINUOUS
 62
     7
 10
54.25000000000002
 20
305.6590773512972
 40
23.55
 50
29.44408336485554
 51
31.75773382560608
  0
ARC
  8
1
  6
CONTINUOUS
 62
     7
 10
74.35915010836919
 20
318.106751106625
 40
0.100000000000001
 50
122.0000000000008
 51
211.7577338256058
  0
LINE
  8
1
  6
CONTINUOUS
 62
     7
 10
74.30615818194586
 20
318.1915559162406
 11
74.81516633179334
 21
318.5096195089524
  0
LINE
  8
1
  6
CONTINUOUS
 62
     7
 10
75.75004918359801
 20
316.8756002128113
 11
75.10677815196473
 21
316.9890262515963
  0
ARC
  8
1
  6
CONTINUOUS
 62
     7
 10
70.39712326333193
 20
323.0755325106792
 40
0.9999999999999996
 50
227.1658214249933
 51
270.0
  0
ARC
  8
1
  6
CONTINUOUS
 62
     7
 10
54.25
 20
305.6590773512972
 40
22.75
 50
47.16582142499328
 51
225.5668752312037
  0
ARC
  8
1
  6
CONTINUOUS
 62
     7
 10
38.25325686172724
 20
289.3426221919152
 40
0.100000000000003
 50
270.0
 51
45.56687523120257
  0
LINE
  8
1
  6
CONTINUOUS
 62
     7
 10
36.35394023368883
 20
289.2426221919152
 11
38.25325686172724
 21
289.2426221919152
  0
ARC
  8
1
  6
CONTINUOUS
 62
     7
 10
36.35394023368883
 20
289.7426221919152
 40
0.4999999999999964
 50
221.6493571351467
 51
270.0
  0
ARC
  8
1
  6
CONTINUOUS
 62
     7
 10
54.25000000000002
 20
305.6590773512972
 40
24.45
 50
220.2353016039795
 51
221.6493571351467
  0
ARC
  8
1
  6
CONTINUOUS
 62
     7
 10
35.66125387033841
 20
289.9307266009168
 40
0.0999999999999967
 50
130.0000000000001
 51
220.2353016039814
  0
LINE
  8
1
  6
CONTINUOUS
 62
     7
 10
36.1332108753878
 20
290.4572862787186
 11
35.59697510936977
 21
290.0073310452288
  0
ARC
  8
1
  6
CONTINUOUS
 62
     7
 10
36.06893211441915
 20
290.5338907230304
 40
0.1000000000000002
 50
310.0000000000001
 51
39.75773382560646
  0
ARC
  8
1
  6
CONTINUOUS
 62
     7
 10
33.30639775920184
 20
293.836724574492
 40
0.5000000000000006
 50
29.4440833648556
 51
79.99999999999659
  0
ARC
  8
1
  6
CONTINUOUS
 62
     7
 10
54.25000000000002
 20
305.6590773512972
 40
23.55
 50
209.4440833648555
 51
219.757733825606
  0
LINE
  8
1
  6
CONTINUOUS
 62
     7
 10
72.09831924860153
 20
322.0755325106792
 11
70.39712326333193
 21
322.0755325106792
  0
LINE
  8
1
  6
CONTINUOUS
 62
     7
 10
33.39322184803534
 20
294.329128450998
 11
32.74995081640203
 21
294.4425544897832
  0
LINE
  8
1
  6
CONTINUOUS
 62
     7
 10
39.24062792785789
 20
290.6497052791551
 11
38.16332072800606
 21
289.5723980793033
  0
LINE
  8
1
  6
CONTINUOUS
 62
     7
 10
32.27518745192371
 20
311.5472106273796
 11
33.74681645460119
 21
311.1528888245539
  0
POLYLINE
  8
1
  6
CONTINUOUS
 62
     7
 66
     1
  0
VERTEX
  8
1
  6
CONTINUOUS
 62
     7
 10
33.74681645460119
 20
311.1528888245539
  0
VERTEX
  8
1
  6
CONTINUOUS
 62
     7
 10
33.7869225205344
 20
311.141236031824
  0
VERTEX
  8
1
  6
CONTINUOUS
 62
     7
 10
33.82654204326708
 20
311.1279069479436
  0
VERTEX
  8
1
  6
CONTINUOUS
 62
     7
 10
33.86557286978571
 20
311.1129381689727
  0
VERTEX
  8
1
  6
CONTINUOUS
 62
     7
 10
33.9039128470768
 20
311.0963662909709
  0
VERTEX
  8
1
  6
CONTINUOUS
 62
     7
 10
33.94261190684003
 20
311.0776470394085
  0
VERTEX
  8
1
  6
CONTINUOUS
 62
     7
 10
33.9805080012198
 20
311.0572616854527
  0
VERTEX
  8
1
  6
CONTINUOUS
 62
     7
 10
34.01749783090813
 20
311.0352681952695
  0
VERTEX
  8
1
  6
CONTINUOUS
 62
     7
 10
34.05347809659705
 20
311.0117245350249
  0
VERTEX
  8
1
  6
CONTINUOUS
 62
     7
 10
34.08746547439906
 20
310.9873574086934
  0
VERTEX
  8
1
  6
CONTINUOUS
 62
     7
 10
34.12043650221665
 20
310.9615652532043
  0
VERTEX
  8
1
  6
CONTINUOUS
 62
     7
 10
34.15230618756804
 20
310.934416690503
  0
VERTEX
  8
1
  6
CONTINUOUS
 62
     7
 10
34.18298953797145
 20
310.905980342535
  0
VERTEX
  8
1
  6
CONTINUOUS
 62
     7
 10
34.21330154856472
 20
310.8753859730733
  0
VERTEX
  8
1
  6
CONTINUOUS
 62
     7
 10
34.24229893822157
 20
310.8434806951472
  0
VERTEX
  8
1
  6
CONTINUOUS
 62
     7
 10
34.26990259726932
 20
310.8103541804044
  0
VERTEX
  8
1
  6
CONTINUOUS
 62
     7
 10
34.29603341603536
 20
310.7760961004924
  0
VERTEX
  8
1
  6
CONTINUOUS
 62
     7
 10
34.31992677331366
 20
310.7418383685471
  0
VERTEX
  8
1
  6
CONTINUOUS
 62
     7
 10
34.34239162728268
 20
310.7065766304646
  0
VERTEX
  8
1
  6
CONTINUOUS
 62
     7
 10
34.36337049482911
 20
310.6704039010163
  0
VERTEX
  8
1
  6
CONTINUOUS
 62
     7
 10
34.38280589283962
 20
310.6334131949737
  0
VERTEX
  8
1
  6
CONTINUOUS
 62
     7
 10
34.40117698119036
 20
310.5945109238405
  0
VERTEX
  8
1
  6
CONTINUOUS
 62
     7
 10
34.41787569607426
 20
310.5548115749958
  0
VERTEX
  8
1
  6
CONTINUOUS
 62
     7
 10
34.4328572216252
 20
310.5144262472894
  0
VERTEX
  8
1
  6
CONTINUOUS
 62
     7
 10
34.44607674197705
 20
310.4734660395711
  0
VERTEX
  8
1
  6
CONTINUOUS
 62
     7
 10
34.45715133661746
 20
310.4334054424443
  0
VERTEX
  8
1
  6
CONTINUOUS
 62
     7
 10
34.46656091106753
 20
310.3928790086215
  0
VERTEX
  8
1
  6
CONTINUOUS
 62
     7
 10
34.4742825928509
 20
310.3519925452576
  0
VERTEX
  8
1
  6
CONTINUOUS
 62
     7
 10
34.48029350949115
 20
310.3108518595072
  0
VERTEX
  8
1
  6
CONTINUOUS
 62
     7
 10
34.48468190521751
 20
310.2682794257888
  0
VERTEX
  8
1
  6
CONTINUOUS
 62
     7
 10
34.4872471966771
 20
310.225514904023
  0
VERTEX
  8
1
  6
CONTINUOUS
 62
     7
 10
34.48798439590091
 20
310.1826765567794
  0
VERTEX
  8
1
  6
CONTINUOUS
 62
     7
 10
34.4868885149199
 20
310.1398826466269
  0
VERTEX
  8
1
  6
CONTINUOUS
 62
     7
 10
34.48405213521963
 20
310.0982262388151
  0
VERTEX
  8
1
  6
CONTINUOUS
 62
     7
 10
34.47947988587253
 20
310.0567228391603
  0
VERTEX
  8
1
  6
CONTINUOUS
 62
     7
 10
34.47312708726339
 20
310.0151528577119
  0
VERTEX
  8
1
  6
CONTINUOUS
 62
     7
 10
34.46503282552226
 20
309.9738860266429
  0
SEQEND
  8
1
  6
CONTINUOUS
 62
     7
  0
POLYLINE
  8
1
  6
CONTINUOUS
 62
     7
 66
     1
  0
VERTEX
  8
1
  6
CONTINUOUS
 62
     7
 10
39.27312015153385
 20
292.0298598387396
  0
VERTEX
  8
1
  6
CONTINUOUS
 62
     7
 10
39.30028448859556
 20
291.9987367644757
  0
VERTEX
  8
1
  6
CONTINUOUS
 62
     7
 10
39.32616216207567
 20
291.9664909841306
  0
VERTEX
  8
1
  6
CONTINUOUS
 62
     7
 10
39.35068834524873
 20
291.9332069922539
  0
VERTEX
  8
1
  6
CONTINUOUS
 62
     7
 10
39.37379821138927
 20
291.8989692833953
  0
VERTEX
  8
1
  6
CONTINUOUS
 62
     7
 10
39.39607209237818
 20
291.8627749353422
  0
VERTEX
  8
1
  6
CONTINUOUS
 62
     7
 10
39.41680556715745
 20
291.8256354892324
  0
VERTEX
  8
1
  6
CONTINUOUS
 62
     7
 10
39.43594469713005
 20
291.7876534456402
  0
VERTEX
  8
1
  6
CONTINUOUS
 62
     7
 10
39.45343554369896
 20
291.74893130514
  0
VERTEX
  8
1
  6
CONTINUOUS
 62
     7
 10
39.46882362269298
 20
291.7106519945969
  0
VERTEX
  8
1
  6
CONTINUOUS
 62
     7
 10
39.48263012060931
 20
291.6717413426031
  0
VERTEX
  8
1
  6
CONTINUOUS
 62
     7
 10
39.49482227542448
 20
291.6322999169076
  0
VERTEX
  8
1
  6
CONTINUOUS
 62
     7
 10
39.50536732511495
 20
291.5924282852598
  0
VERTEX
  8
1
  6
CONTINUOUS
 62
     7
 10
39.51448220409165
 20
291.5509977533658
  0
VERTEX
  8
1
  6
CONTINUOUS
 62
     7
 10
39.52183748074532
 20
291.509185949114
  0
VERTEX
  8
1
  6
CONTINUOUS
 62
     7
 10
39.52741643538535
 20
291.46710636006
  0
VERTEX
  8
1
  6
CONTINUOUS
 62
     7
 10
39.53120234832115
 20
291.4248724737591
  0
VERTEX
  8
1
  6
CONTINUOUS
 62
     7
 10
39.5331587223768
 20
291.3836107293836
  0
VERTEX
  8
1
  6
CONTINUOUS
 62
     7
 10
39.53340964132612
 20
291.3422741903628
  0
VERTEX
  8
1
  6
CONTINUOUS
 62
     7
 10
39.5319573962031
 20
291.3009684831843
  0
VERTEX
  8
1
  6
CONTINUOUS
 62
     7
 10
39.52880427804173
 20
291.2597992343356
  0
VERTEX
  8
1
  6
CONTINUOUS
 62
     7
 10
39.52378438810818
 20
291.2176307623566
  0
VERTEX
  8
1
  6
CONTINUOUS
 62
     7
 10
39.51697368386352
 20
291.1756818336019
  0
VERTEX
  8
1
  6
CONTINUOUS
 62
     7
 10
39.50839366662662
 20
291.1340649194297
  0
VERTEX
  8
1
  6
CONTINUOUS
 62
     7
 10
39.4980658377163
 20
291.0928924911981
  0
VERTEX
  8
1
  6
CONTINUOUS
 62
     7
 10
39.48627872652148
 20
291.0530911751941
  0
VERTEX
  8
1
  6
CONTINUOUS
 62
     7
 10
39.47284018098281
 20
291.013784393716
  0
VERTEX
  8
1
  6
CONTINUOUS
 62
     7
 10
39.45778737280804
 20
290.9750721964173
  0
VERTEX
  8
1
  6
CONTINUOUS
 62
     7
 10
39.44115747370491
 20
290.9370546329516
  0
VERTEX
  8
1
  6
CONTINUOUS
 62
     7
 10
39.42241306913341
 20
290.8987031537786
  0
VERTEX
  8
1
  6
CONTINUOUS
 62
     7
 10
39.40203244421708
 20
290.8611559303965
  0
VERTEX
  8
1
  6
CONTINUOUS
 62
     7
 10
39.38007342899581
 20
290.8245134109219
  0
VERTEX
  8
1
  6
CONTINUOUS
 62
     7
 10
39.35659385350945
 20
290.7888760434716
  0
VERTEX
  8
1
  6
CONTINUOUS
 62
     7
 10
39.33011051223158
 20
290.7522921213161
  0
VERTEX
  8
1
  6
CONTINUOUS
 62
     7
 10
39.3020045042705
 20
290.7169422852365
  0
VERTEX
  8
1
  6
CONTINUOUS
 62
     7
 10
39.27208106935558
 20
290.6826250082445
  0
VERTEX
  8
1
  6
CONTINUOUS
 62
     7
 10
39.24062792785789
 20
290.6497052791551
  0
SEQEND
  8
1
  6
CONTINUOUS
 62
     7
  0
ARC
  8
1
  6
CONTINUOUS
 62
     7
 10
54.25000000000002
 20
305.6590773512972
 40
20.25
 50
180.0
 51
222.3027318660633
  0
ARC
  8
1
  6
CONTINUOUS
 62
     7
 10
54.25000000000002
 20
305.6590773512972
 40
20.25
 50
167.6972681339366
 51
180.0
  0
LINE
  8
1
  6
CONTINUOUS
 62
     7
 10
74.43545268256004
 20
321.1590773513014
 11
75.89630453449271
 21
319.0433965345803
  0
LINE
  8
1
  6
CONTINUOUS
 62
     7
 10
75.89630453449271
 20
319.0433965345803
 11
75.89630453449271
 21
318.6590773512972
  0
LINE
  8
1
  6
CONTINUOUS
 62
     7
 10
74.18269926527762
 20
321.1590773512972
 11
74.43545268256003
 21
321.1590773512972
  0
ARC
  8
1
  6
CONTINUOUS
 62
     7
 10
70.5
 20
286.9909226487027
 40
0.5000000000000004
 50
180.0
 51
311.0384732076377
  0
LINE
  8
1
  6
CONTINUOUS
 62
     7
 10
70.0
 20
288.8216191108145
 11
70.0
 21
286.9909226487027
  0
ARC
  8
1
  6
CONTINUOUS
 62
     7
 10
71.0
 20
288.8216191108145
 40
0.9999999999999968
 50
134.8508080991965
 51
180.0
  0
ARC
  8
1
  6
CONTINUOUS
 62
     7
 10
54.25
 20
305.6590773512972
 40
25.25
 50
311.0384732076377
 51
26.2729571300672
  0
ARC
  8
1
  6
CONTINUOUS
 62
     7
 10
54.25
 20
305.6590773512972
 40
22.75
 50
314.8508080991965
 51
47.16582142499328
  0
LINE
  8
1
  6
CONTINUOUS
 62
     7
 10
56.10000767342153
 20
326.804761819015
 11
56.23279314750923
 21
328.3225067328844
  0
LINE
  8
1
  6
CONTINUOUS
 62
     7
 10
74.86850215508379
 20
315.2736428058981
 11
73.48770376616437
 21
314.6297659427769
  0
POLYLINE
  8
1
  6
CONTINUOUS
 62
     7
 66
     1
  0
VERTEX
  8
1
  6
CONTINUOUS
 62
     7
 10
56.96226343638325
 20
325.72661648921
  0
VERTEX
  8
1
  6
CONTINUOUS
 62
     7
 10
56.92100938095946
 20
325.7330723568583
  0
VERTEX
  8
1
  6
CONTINUOUS
 62
     7
 10
56.88006118721093
 20
325.7412439567398
  0
VERTEX
  8
1
  6
CONTINUOUS
 62
     7
 10
56.8392039535245
 20
325.7511946627959
  0
VERTEX
  8
1
  6
CONTINUOUS
 62
     7
 10
56.79880255148864
 20
325.7628530469193
  0
VERTEX
  8
1
  6
CONTINUOUS
 62
     7
 10
56.75936039628459
 20
325.7760485028833
  0
VERTEX
  8
1
  6
CONTINUOUS
 62
     7
 10
56.72046959886322
 20
325.7908845682232
  0
VERTEX
  8
1
  6
CONTINUOUS
 62
     7
 10
56.68223061994207
 20
325.8073200947343
  0
VERTEX
  8
1
  6
CONTINUOUS
 62
     7
 10
56.64474392023867
 20
325.8253139342125
  0
VERTEX
  8
1
  6
CONTINUOUS
 62
     7
 10
56.60698256957697
 20
325.845449915342
  0
VERTEX
  8
1
  6
CONTINUOUS
 62
     7
 10
56.57008729666503
 20
325.8672006552657
  0
VERTEX
  8
1
  6
CONTINUOUS
 62
     7
 10
56.5341581422686
 20
325.8905035032748
  0
VERTEX
  8
1
  6
CONTINUOUS
 62
     7
 10
56.49929514715343
 20
325.9152958086607
  0
VERTEX
  8
1
  6
CONTINUOUS
 62
     7
 10
56.46628193277888
 20
325.9409508540015
  0
VERTEX
  8
1
  6
CONTINUOUS
 62
     7
 10
56.43434624321052
 20
325.9679833845319
  0
VERTEX
  8
1
  6
CONTINUOUS
 62
     7
 10
56.40356991092469
 20
325.9963201648462
  0
VERTEX
  8
1
  6
CONTINUOUS
 62
     7
 10
56.37403476839772
 20
326.0258879595388
  0
VERTEX
  8
1
  6
CONTINUOUS
 62
     7
 10
56.34495726443009
 20
326.0575885845469
  0
VERTEX
  8
1
  6
CONTINUOUS
 62
     7
 10
56.31724849967822
 20
326.0905357701978
  0
VERTEX
  8
1
  6
CONTINUOUS
 62
     7
 10
56.29098261516702
 20
326.1246360585489
  0
VERTEX
  8
1
  6
CONTINUOUS
 62
     7
 10
56.2662337519214
 20
326.1597959916572
  0
VERTEX
  8
1
  6
CONTINUOUS
 62
     7
 10
56.24362039967124
 20
326.1950191338162
  0
VERTEX
  8
1
  6
CONTINUOUS
 62
     7
 10
56.22248535070762
 20
326.2311840895521
  0
VERTEX
  8
1
  6
CONTINUOUS
 62
     7
 10
56.20288129310703
 20
326.2681947056261
  0
VERTEX
  8
1
  6
CONTINUOUS
 62
     7
 10
56.18486091494596
 20
326.3059548287994
  0
VERTEX
  8
1
  6
CONTINUOUS
 62
     7
 10
56.16798655907895
 20
326.3455741668127
  0
VERTEX
  8
1
  6
CONTINUOUS
 62
     7
 10
56.15282139518023
 20
326.3859154058335
  0
VERTEX
  8
1
  6
CONTINUOUS
 62
     7
 10
56.13940432639353
 20
326.4268659257414
  0
VERTEX
  8
1
  6
CONTINUOUS
 62
     7
 10
56.12777425586257
 20
326.4683131064162
  0
VERTEX
  8
1
  6
CONTINUOUS
 62
     7
 10
56.11820960666384
 20
326.5089834968961
  0
VERTEX
  8
1
  6
CONTINUOUS
 62
     7
 10
56.11034593017899
 20
326.5500500167727
  0
VERTEX
  8
1
  6
CONTINUOUS
 62
     7
 10
56.10420104354882
 20
326.5914054701175
  0
VERTEX
  8
1
  6
CONTINUOUS
 62
     7
 10
56.09979276391416
 20
326.6329426610021
  0
VERTEX
  8
1
  6
CONTINUOUS
 62
     7
 10
56.09707859296641
 20
326.6758436961773
  0
VERTEX
  8
1
  6
CONTINUOUS
 62
     7
 10
56.09620989696648
 20
326.7188594249093
  0
VERTEX
  8
1
  6
CONTINUOUS
 62
     7
 10
56.09718636181724
 20
326.7618715611911
  0
VERTEX
  8
1
  6
CONTINUOUS
 62
     7
 10
56.10000767342153
 20
326.804761819015
  0
SEQEND
  8
1
  6
CONTINUOUS
 62
     7
  0
POLYLINE
  8
1
  6
CONTINUOUS
 62
     7
 66
     1
  0
VERTEX
  8
1
  6
CONTINUOUS
 62
     7
 10
73.48770376616437
 20
314.6297659427769
  0
VERTEX
  8
1
  6
CONTINUOUS
 62
     7
 10
73.44635499627668
 20
314.6116103452924
  0
VERTEX
  8
1
  6
CONTINUOUS
 62
     7
 10
73.40422827995046
 20
314.5953388161382
  0
VERTEX
  8
1
  6
CONTINUOUS
 62
     7
 10
73.36105350267229
 20
314.5808764287968
  0
VERTEX
  8
1
  6
CONTINUOUS
 62
     7
 10
73.31726334339474
 20
314.5683928229379
  0
VERTEX
  8
1
  6
CONTINUOUS
 62
     7
 10
73.27691307719016
 20
314.5587700454426
  0
VERTEX
  8
1
  6
CONTINUOUS
 62
     7
 10
73.2361607935705
 20
314.5508217166433
  0
VERTEX
  8
1
  6
CONTINUOUS
 62
     7
 10
73.19511129151867
 20
314.544566438968
  0
VERTEX
  8
1
  6
CONTINUOUS
 62
     7
 10
73.15386937001747
 20
314.5400228148446
  0
VERTEX
  8
1
  6
CONTINUOUS
 62
     7
 10
73.11127590885965
 20
314.5371447878861
  0
VERTEX
  8
1
  6
CONTINUOUS
 62
     7
 10
73.06855489540612
 20
314.5360863420117
  0
VERTEX
  8
1
  6
CONTINUOUS
 62
     7
 10
73.02582254239232
 20
314.5368485269316
  0
VERTEX
  8
1
  6
CONTINUOUS
 62
     7
 10
72.9831950625537
 20
314.5394323923555
  0
VERTEX
  8
1
  6
CONTINUOUS
 62
     7
 10
72.94214605327014
 20
314.5436628327739
  0
VERTEX
  8
1
  6
CONTINUOUS
 62
     7
 10
72.90126625067408
 20
314.549589219904
  0
VERTEX
  8
1
  6
CONTINUOUS
 62
     7
 10
72.86065955262406
 20
314.557195019622
  0
VERTEX
  8
1
  6
CONTINUOUS
 62
     7
 10
72.82042985697852
 20
314.5664636978041
  0
VERTEX
  8
1
  6
CONTINUOUS
 62
     7
 10
72.77948010462062
 20
314.577730251406
  0
VERTEX
  8
1
  6
CONTINUOUS
 62
     7
 10
72.73900299878164
 20
314.5907393132284
  0
VERTEX
  8
1
  6
CONTINUOUS
 62
     7
 10
72.699107499943
 20
314.6054541676573
  0
VERTEX
  8
1
  6
CONTINUOUS
 62
     7
 10
72.65990256858612
 20
314.6218380990783
  0
VERTEX
  8
1
  6
CONTINUOUS
 62
     7
 10
72.62257145889289
 20
314.6393158017396
  0
VERTEX
  8
1
  6
CONTINUOUS
 62
     7
 10
72.58595591664219
 20
314.6583361769154
  0
VERTEX
  8
1
  6
CONTINUOUS
 62
     7
 10
72.55014876665574
 20
314.6788493601442
  0
VERTEX
  8
1
  6
CONTINUOUS
 62
     7
 10
72.51524283375528
 20
314.7008054869644
  0
VERTEX
  8
1
  6
CONTINUOUS
 62
     7
 10
72.48031076668381
 20
314.7248825458181
  0
VERTEX
  8
1
  6
CONTINUOUS
 62
     7
 10
72.44639649191848
 20
314.7504460821428
  0
VERTEX
  8
1
  6
CONTINUOUS
 62
     7
 10
72.41359085205765
 20
314.777425359007
  0
VERTEX
  8
1
  6
CONTINUOUS
 62
     7
 10
72.38198468969973
 20
314.8057496394788
  0
VERTEX
  8
1
  6
CONTINUOUS
 62
     7
 10
72.35241655987859
 20
314.8345779418114
  0
VERTEX
  8
1
  6
CONTINUOUS
 62
     7
 10
72.32403710839161
 20
314.8646308988851
  0
VERTEX
  8
1
  6
CONTINUOUS
 62
     7
 10
72.29691801683721
 20
314.8958299660093
  0
VERTEX
  8
1
  6
CONTINUOUS
 62
     7
 10
72.27113096681376
 20
314.9280965984931
  0
VERTEX
  8
1
  6
CONTINUOUS
 62
     7
 10
72.24601741972373
 20
314.9623839027508
  0
VERTEX
  8
1
  6
CONTINUOUS
 62
     7
 10
72.2223609833911
 20
314.9977410048431
  0
VERTEX
  8
1
  6
CONTINUOUS
 62
     7
 10
72.20022422606142
 20
315.0340702291962
  0
VERTEX
  8
1
  6
CONTINUOUS
 62
     7
 10
72.17966971598022
 20
315.0712739002363
  0
SEQEND
  8
1
  6
CONTINUOUS
 62
     7
  0
ARC
  8
1
  6
CONTINUOUS
 62
     7
 10
54.25000000000002
 20
305.6590773512972
 40
20.25
 50
27.69726813393675
 51
82.30273186606334
  0
ARC
  8
1
  6
CONTINUOUS
 62
     7
 10
54.25
 20
305.6590773512972
 40
25.25
 50
204.6268487440934
 51
204.9062631838104
  0
ARC
  8
1
  6
CONTINUOUS
 62
     7
 10
54.25
 20
305.6590773512972
 40
25.24999999999999
 50
204.9062631838104
 51
222.0488330379575
  0
LINE
  8
1
  6
CONTINUOUS
 62
     7
 10
38.49999999999999
 20
288.8216191108145
 11
38.31399371791033
 21
289.4024927865844
  0
LINE
  8
1
  6
CONTINUOUS
 62
     7
 10
38.50000000000002
 20
286.9909226487027
 11
38.5
 21
288.8216191108145
  0
POLYLINE
  8
1
  6
CONTINUOUS
 62
     7
 66
     1
  0
VERTEX
  8
1
  6
CONTINUOUS
 62
     7
 10
37.67171717171718
 20
286.6137882102665
  0
VERTEX
  8
1
  6
CONTINUOUS
 62
     7
 10
37.69045434892826
 20
286.5982637375296
  0
VERTEX
  8
1
  6
CONTINUOUS
 62
     7
 10
37.70948753656452
 20
286.5839809749484
  0
VERTEX
  8
1
  6
CONTINUOUS
 62
     7
 10
37.72872663641646
 20
286.5709105887764
  0
VERTEX
  8
1
  6
CONTINUOUS
 62
     7
 10
37.74808155027461
 20
286.5590232452672
  0
VERTEX
  8
1
  6
CONTINUOUS
 62
     7
 10
37.77471358729055
 20
286.5445523194562
  0
VERTEX
  8
1
  6
CONTINUOUS
 62
     7
 10
37.8013721855207
 20
286.5320683116968
  0
VERTEX
  8
1
  6
CONTINUOUS
 62
     7
 10
37.82791423523607
 20
286.5214692542474
  0
VERTEX
  8
1
  6
CONTINUOUS
 62
     7
 10
37.85752311191939
 20
286.5116492142104
  0
VERTEX
  8
1
  6
CONTINUOUS
 62
     7
 10
37.88680494586417
 20
286.5038999886719
  0
VERTEX
  8
1
  6
CONTINUOUS
 62
     7
 10
37.9156531843639
 20
286.4980863102571
  0
VERTEX
  8
1
  6
CONTINUOUS
 62
     7
 10
37.94396127471202
 20
286.4940729115909
  0
VERTEX
  8
1
  6
CONTINUOUS
 62
     7
 10
37.98175832551471
 20
286.4912523647016
  0
VERTEX
  8
1
  6
CONTINUOUS
 62
     7
 10
38.01840447789504
 20
286.4912587213628
  0
VERTEX
  8
1
  6
CONTINUOUS
 62
     7
 10
38.05378112914913
 20
286.4938234733389
  0
VERTEX
  8
1
  6
CONTINUOUS
 62
     7
 10
38.09503358904288
 20
286.5000273943137
  0
VERTEX
  8
1
  6
CONTINUOUS
 62
     7
 10
38.13432171308408
 20
286.5092873619534
  0
VERTEX
  8
1
  6
CONTINUOUS
 62
     7
 10
38.17158092031768
 20
286.5212767816644
  0
VERTEX
  8
1
  6
CONTINUOUS
 62
     7
 10
38.20674662978869
 20
286.5356690588531
  0
VERTEX
  8
1
  6
CONTINUOUS
 62
     7
 10
38.2514915489087
 20
286.5587670464118
  0
VERTEX
  8
1
  6
CONTINUOUS
 62
     7
 10
38.2924156895694
 20
286.5853385870506
  0
VERTEX
  8
1
  6
CONTINUOUS
 62
     7
 10
38.32950865802993
 20
286.614858765455
  0
VERTEX
  8
1
  6
CONTINUOUS
 62
     7
 10
38.3688518916498
 20
286.6533583575451
  0
VERTEX
  8
1
  6
CONTINUOUS
 62
     7
 10
38.40290392630089
 20
286.6948341042229
  0
VERTEX
  8
1
  6
CONTINUOUS
 62
     7
 10
38.4319517911003
 20
286.7390927886041
  0
VERTEX
  8
1
  6
CONTINUOUS
 62
     7
 10
38.45577608626234
 20
286.7853304329178
  0
VERTEX
  8
1
  6
CONTINUOUS
 62
     7
 10
38.47478837221794
 20
286.834154573926
  0
VERTEX
  8
1
  6
CONTINUOUS
 62
     7
 10
38.48846845997977
 20
286.8841585929287
  0
VERTEX
  8
1
  6
CONTINUOUS
 62
     7
 10
38.4968928639324
 20
286.9352673914291
  0
VERTEX
  8
1
  6
CONTINUOUS
 62
     7
 10
38.4999828570589
 20
286.9867822806897
  0
VERTEX
  8
1
  6
CONTINUOUS
 62
     7
 10
38.50000000000002
 20
286.9909226487027
  0
SEQEND
  8
1
  6
CONTINUOUS
 62
     7
  0
LINE
  8
1
  6
CONTINUOUS
 62
     7
 10
37.67171717171718
 20
286.6137882102665
 11
35.5
 21
288.7475428260095
  0
LINE
  8
1
  6
CONTINUOUS
 62
     7
 10
35.01229623383556
 20
314.6297659427769
 11
33.63149784491623
 21
315.2736428058981
  0
LINE
  8
1
  6
CONTINUOUS
 62
     7
 10
52.26720685249079
 20
328.3225067328844
 11
52.3999923265785
 21
326.804761819015
  0
POLYLINE
  8
1
  6
CONTINUOUS
 62
     7
 66
     1
  0
VERTEX
  8
1
  6
CONTINUOUS
 62
     7
 10
36.32033028401979
 20
315.0712739002363
  0
VERTEX
  8
1
  6
CONTINUOUS
 62
     7
 10
36.300154034881
 20
315.0347158055555
  0
VERTEX
  8
1
  6
CONTINUOUS
 62
     7
 10
36.27847013567759
 20
314.9990319418181
  0
VERTEX
  8
1
  6
CONTINUOUS
 62
     7
 10
36.25514553370378
 20
314.9640420427287
  0
VERTEX
  8
1
  6
CONTINUOUS
 62
     7
 10
36.23037214285777
 20
314.930064545575
  0
VERTEX
  8
1
  6
CONTINUOUS
 62
     7
 10
36.20448245868449
 20
314.897514155122
  0
VERTEX
  8
1
  6
CONTINUOUS
 62
     7
 10
36.17723968145506
 20
314.8660429929625
  0
VERTEX
  8
1
  6
CONTINUOUS
 62
     7
 10
36.14871683742253
 20
314.835731387777
  0
VERTEX
  8
1
  6
CONTINUOUS
 62
     7
 10
36.11898695283995
 20
314.8066596682453
  0
VERTEX
  8
1
  6
CONTINUOUS
 62
     7
 10
36.08715017739473
 20
314.7780625168296
  0
VERTEX
  8
1
  6
CONTINUOUS
 62
     7
 10
36.05409224106247
 20
314.7508314923185
  0
VERTEX
  8
1
  6
CONTINUOUS
 62
     7
 10
36.01990623220877
 20
314.725039174477
  0
VERTEX
  8
1
  6
CONTINUOUS
 62
     7
 10
35.98468523919927
 20
314.7007581430703
  0
VERTEX
  8
1
  6
CONTINUOUS
 62
     7
 10
35.94928619809456
 20
314.6785104114186
  0
VERTEX
  8
1
  6
CONTINUOUS
 62
     7
 10
35.91296127951065
 20
314.657746349558
  0
VERTEX
  8
1
  6
CONTINUOUS
 62
     7
 10
35.87580729057305
 20
314.6385178068786
  0
VERTEX
  8
1
  6
CONTINUOUS
 62
     7
 10
35.83792103840726
 20
314.6208766327707
  0
VERTEX
  8
1
  6
CONTINUOUS
 62
     7
 10
35.79818710293829
 20
314.6043949691702
  0
VERTEX
  8
1
  6
CONTINUOUS
 62
     7
 10
35.75774992001459
 20
314.5896258485604
  0
VERTEX
  8
1
  6
CONTINUOUS
 62
     7
 10
35.71672266909934
 20
314.5766069762161
  0
VERTEX
  8
1
  6
CONTINUOUS
 62
     7
 10
35.67521852965569
 20
314.5653760574124
  0
VERTEX
  8
1
  6
CONTINUOUS
 62
     7
 10
35.63438538091028
 20
314.5561734813012
  0
VERTEX
  8
1
  6
CONTINUOUS
 62
     7
 10
35.59317282639854
 20
314.5486821750944
  0
VERTEX
  8
1
  6
CONTINUOUS
 62
     7
 10
35.55168924099281
 20
314.5429187630438
  0
VERTEX
  8
1
  6
CONTINUOUS
 62
     7
 10
35.51004299956542
 20
314.5388998694018
  0
VERTEX
  8
1
  6
CONTINUOUS
 62
     7
 10
35.46704163038173
 20
314.5365937733789
  0
VERTEX
  8
1
  6
CONTINUOUS
 62
     7
 10
35.42394647423031
 20
314.5361406971221
  0
VERTEX
  8
1
  6
CONTINUOUS
 62
     7
 10
35.38087666506602
 20
314.5375386792788
  0
VERTEX
  8
1
  6
CONTINUOUS
 62
     7
 10
35.33795133684371
 20
314.5407857584964
  0
VERTEX
  8
1
  6
CONTINUOUS
 62
     7
 10
35.29646236833548
 20
314.545708021005
  0
VERTEX
  8
1
  6
CONTINUOUS
 62
     7
 10
35.25518292688762
 20
314.5523641592541
  0
VERTEX
  8
1
  6
CONTINUOUS
 62
     7
 10
35.21421983754423
 20
314.5607342527125
  0
VERTEX
  8
1
  6
CONTINUOUS
 62
     7
 10
35.1736799253494
 20
314.5707983808491
  0
VERTEX
  8
1
  6
CONTINUOUS
 62
     7
 10
35.1324378380347
 20
314.5829209126373
  0
VERTEX
  8
1
  6
CONTINUOUS
 62
     7
 10
35.09171916363698
 20
314.5968168511227
  0
VERTEX
  8
1
  6
CONTINUOUS
 62
     7
 10
35.051634947217
 20
314.6124454449533
  0
VERTEX
  8
1
  6
CONTINUOUS
 62
     7
 10
35.01229623383556
 20
314.6297659427769
  0
SEQEND
  8
1
  6
CONTINUOUS
 62
     7
  0
POLYLINE
  8
1
  6
CONTINUOUS
 62
     7
 66
     1
  0
VERTEX
  8
1
  6
CONTINUOUS
 62
     7
 10
52.39999232657849
 20
326.804761819015
  0
VERTEX
  8
1
  6
CONTINUOUS
 62
     7
 10
52.40291089535738
 20
326.7596971050191
  0
VERTEX
  8
1
  6
CONTINUOUS
 62
     7
 10
52.4037929456768
 20
326.714545749816
  0
VERTEX
  8
1
  6
CONTINUOUS
 62
     7
 10
52.40261650082765
 20
326.6690283024123
  0
VERTEX
  8
1
  6
CONTINUOUS
 62
     7
 10
52.39937013658176
 20
326.623609368211
  0
VERTEX
  8
1
  6
CONTINUOUS
 62
     7
 10
52.39461198575503
 20
326.5824013370737
  0
VERTEX
  8
1
  6
CONTINUOUS
 62
     7
 10
52.38814286979081
 20
326.541388228321
  0
VERTEX
  8
1
  6
CONTINUOUS
 62
     7
 10
52.37998115148802
 20
326.5006748831889
  0
VERTEX
  8
1
  6
CONTINUOUS
 62
     7
 10
52.37014519364554
 20
326.4603661429133
  0
VERTEX
  8
1
  6
CONTINUOUS
 62
     7
 10
52.35828183265097
 20
326.4193570385767
  0
VERTEX
  8
1
  6
CONTINUOUS
 62
     7
 10
52.3446649992842
 20
326.3788504076724
  0
VERTEX
  8
1
  6
CONTINUOUS
 62
     7
 10
52.32933345423696
 20
326.338955813472
  0
VERTEX
  8
1
  6
CONTINUOUS
 62
     7
 10
52.31232595820098
 20
326.2997828192475
  0
VERTEX
  8
1
  6
CONTINUOUS
 62
     7
 10
52.29431105651864
 20
326.2626562639714
  0
VERTEX
  8
1
  6
CONTINUOUS
 62
     7
 10
52.27476035832149
 20
326.2262687589084
  0
VERTEX
  8
1
  6
CONTINUOUS
 62
     7
 10
52.2537249357642
 20
326.1907122811059
  0
VERTEX
  8
1
  6
CONTINUOUS
 62
     7
 10
52.23125586100143
 20
326.1560788076116
  0
VERTEX
  8
1
  6
CONTINUOUS
 62
     7
 10
52.20666312354945
 20
326.1214520157756
  0
VERTEX
  8
1
  6
CONTINUOUS
 62
     7
 10
52.1805946186111
 20
326.087865339297
  0
VERTEX
  8
1
  6
CONTINUOUS
 62
     7
 10
52.15312211425756
 20
326.0554086100565
  0
VERTEX
  8
1
  6
CONTINUOUS
 62
     7
 10
52.12431737856002
 20
326.0241716599348
  0
VERTEX
  8
1
  6
CONTINUOUS
 62
     7
 10
52.0951257188531
 20
325.9950696179996
  0
VERTEX
  8
1
  6
CONTINUOUS
 62
     7
 10
52.06472915964724
 20
325.9671676145843
  0
VERTEX
  8
1
  6
CONTINUOUS
 62
     7
 10
52.03320630616786
 20
325.9405358218386
  0
VERTEX
  8
1
  6
CONTINUOUS
 62
     7
 10
52.0006357636404
 20
325.9152444119123
  0
VERTEX
  8
1
  6
CONTINUOUS
 62
     7
 10
51.96606325851893
 20
325.8906538453765
  0
VERTEX
  8
1
  6
CONTINUOUS
 62
     7
 10
51.9304420269573
 20
325.8675280959979
  0
VERTEX
  8
1
  6
CONTINUOUS
 62
     7
 10
51.89386960992685
 20
325.8459283344404
  0
VERTEX
  8
1
  6
CONTINUOUS
 62
     7
 10
51.85644354839886
 20
325.8259157313678
  0
VERTEX
  8
1
  6
CONTINUOUS
 62
     7
 10
51.81924090942774
 20
325.8079906380601
  0
VERTEX
  8
1
  6
CONTINUOUS
 62
     7
 10
51.78129402336766
 20
325.7916013936016
  0
VERTEX
  8
1
  6
CONTINUOUS
 62
     7
 10
51.74270121463545
 20
325.7767884927949
  0
VERTEX
  8
1
  6
CONTINUOUS
 62
     7
 10
51.70356080764786
 20
325.7635924304428
  0
VERTEX
  8
1
  6
CONTINUOUS
 62
     7
 10
51.66275194187511
 20
325.751720364277
  0
VERTEX
  8
1
  6
CONTINUOUS
 62
     7
 10
51.62143615620151
 20
325.7415834267463
  0
VERTEX
  8
1
  6
CONTINUOUS
 62
     7
 10
51.57972663524331
 20
325.7332070057557
  0
VERTEX
  8
1
  6
CONTINUOUS
 62
     7
 10
51.53773656361679
 20
325.7266164892099
  0
SEQEND
  8
1
  6
CONTINUOUS
 62
     7
  0
ARC
  8
1
  6
CONTINUOUS
 62
     7
 10
54.25000000000002
 20
305.6590773512972
 40
20.25
 50
97.69726813393663
 51
152.3027318660634
  0
LINE
  8
1
  6
CONTINUOUS
 62
     7
 10
70.17673550965885
 20
289.4140289978644
 11
70.14674325291239
 21
289.3424707681604
  0
LINE
  8
1
  6
CONTINUOUS
 62
     7
 10
70.17673550965885
 20
289.4140289978644
 11
70.29471775035584
 21
289.5305457283808
  0
LINE
  8
1
  6
CONTINUOUS
 62
     7
 10
32.60369546550731
 20
319.0433965345803
 11
34.06454731743677
 21
321.1590773512972
  0
LINE
  8
1
  6
CONTINUOUS
 62
     7
 10
34.06454731743421
 20
321.1590773512972
 11
34.31730073472239
 21
321.1590773512972
  0
LINE
  8
1
  6
CONTINUOUS
 62
     7
 10
32.60369546550731
 20
319.0433965345803
 11
32.60369546550731
 21
318.6590773512973
  0
LINE
  8
1
  6
CONTINUOUS
 62
     7
 10
74.75318354539884
 20
311.1528888245539
 11
76.22481254807632
 21
311.5472106273796
  0
LINE
  8
1
  6
CONTINUOUS
 62
     7
 10
70.33667927199397
 20
289.5723980793032
 11
69.25937207214211
 21
290.6497052791551
  0
POLYLINE
  8
1
  6
CONTINUOUS
 62
     7
 66
     1
  0
VERTEX
  8
1
  6
CONTINUOUS
 62
     7
 10
74.03496717447777
 20
309.9738860266428
  0
VERTEX
  8
1
  6
CONTINUOUS
 62
     7
 10
74.02692398771893
 20
310.0148601948804
  0
VERTEX
  8
1
  6
CONTINUOUS
 62
     7
 10
74.02059767273273
 20
310.0561337621431
  0
VERTEX
  8
1
  6
CONTINUOUS
 62
     7
 10
74.01597428086387
 20
310.0979303450554
  0
VERTEX
  8
1
  6
CONTINUOUS
 62
     7
 10
74.01311148508013
 20
310.1398826466269
  0
VERTEX
  8
1
  6
CONTINUOUS
 62
     7
 10
74.0120211461015
 20
310.1814592605601
  0
VERTEX
  8
1
  6
CONTINUOUS
 62
     7
 10
74.01266105111472
 20
310.2230788891073
  0
VERTEX
  8
1
  6
CONTINUOUS
 62
     7
 10
74.01502689304476
 20
310.2646330565589
  0
VERTEX
  8
1
  6
CONTINUOUS
 62
     7
 10
74.0191143648166
 20
310.3060132872051
  0
VERTEX
  8
1
  6
CONTINUOUS
 62
     7
 10
74.02512085513085
 20
310.3483842609247
  0
VERTEX
  8
1
  6
CONTINUOUS
 62
     7
 10
74.03294093840435
 20
310.3904936678081
  0
VERTEX
  8
1
  6
CONTINUOUS
 62
     7
 10
74.04254995818557
 20
310.4322260724815
  0
VERTEX
  8
1
  6
CONTINUOUS
 62
     7
 10
74.05392325802296
 20
310.4734660395711
  0
VERTEX
  8
1
  6
CONTINUOUS
 62
     7
 10
74.06673993050363
 20
310.5132628557918
  0
VERTEX
  8
1
  6
CONTINUOUS
 62
     7
 10
74.08121955084079
 20
310.5525182575853
  0
VERTEX
  8
1
  6
CONTINUOUS
 62
     7
 10
74.09732128861953
 20
310.5911302995937
  0
VERTEX
  8
1
  6
CONTINUOUS
 62
     7
 10
74.11500431342486
 20
310.6289970364587
  0
VERTEX
  8
1
  6
CONTINUOUS
 62
     7
 10
74.13484806474472
 20
310.6671632046768
  0
VERTEX
  8
1
  6
CONTINUOUS
 62
     7
 10
74.15633133628478
 20
310.7044695276037
  0
VERTEX
  8
1
  6
CONTINUOUS
 62
     7
 10
74.17939166402985
 20
310.7408143709666
  0
VERTEX
  8
1
  6
CONTINUOUS
 62
     7
 10
74.20396658396466
 20
310.7760961004924
  0
VERTEX
  8
1
  6
CONTINUOUS
 62
     7
 10
74.22933128875472
 20
310.8093927248627
  0
VERTEX
  8
1
  6
CONTINUOUS
 62
     7
 10
74.256086618315
 20
310.8416223177579
  0
VERTEX
  8
1
  6
CONTINUOUS
 62
     7
 10
74.2841602385401
 20
310.8727024822368
  0
VERTEX
  8
1
  6
CONTINUOUS
 62
     7
 10
74.31347981532461
 20
310.9025508213583
  0
VERTEX
  8
1
  6
CONTINUOUS
 62
     7
 10
74.34493844528397
 20
310.9319581407128
  0
VERTEX
  8
1
  6
CONTINUOUS
 62
     7
 10
74.37766001837501
 20
310.9600062496733
  0
VERTEX
  8
1
  6
CONTINUOUS
 62
     7
 10
74.41155201196042
 20
310.9866200728929
  0
VERTEX
  8
1
  6
CONTINUOUS
 62
     7
 10
74.44652190340297
 20
311.0117245350248
  0
VERTEX
  8
1
  6
CONTINUOUS
 62
     7
 10
74.48146826653158
 20
311.0346224580783
  0
VERTEX
  8
1
  6
CONTINUOUS
 62
     7
 10
74.5173686364626
 20
311.0560574738575
  0
VERTEX
  8
1
  6
CONTINUOUS
 62
     7
 10
74.55412837579406
 20
311.0759761765597
  0
VERTEX
  8
1
  6
CONTINUOUS
 62
     7
 10
74.59165284712395
 20
311.0943251603825
  0
VERTEX
  8
1
  6
CONTINUOUS
 62
     7
 10
74.63103833216553
 20
311.111548664993
  0
VERTEX
  8
1
  6
CONTINUOUS
 62
     7
 10
74.67116278350245
 20
311.1270772179201
  0
VERTEX
  8
1
  6
CONTINUOUS
 62
     7
 10
74.71191494121884
 20
311.1408706581212
  0
VERTEX
  8
1
  6
CONTINUOUS
 62
     7
 10
74.75318354539884
 20
311.1528888245539
  0
SEQEND
  8
1
  6
CONTINUOUS
 62
     7
  0
POLYLINE
  8
1
  6
CONTINUOUS
 62
     7
 66
     1
  0
VERTEX
  8
1
  6
CONTINUOUS
 62
     7
 10
69.25937207214211
 20
290.6497052791551
  0
VERTEX
  8
1
  6
CONTINUOUS
 62
     7
 10
69.22816927895659
 20
290.6823508330433
  0
VERTEX
  8
1
  6
CONTINUOUS
 62
     7
 10
69.1984708575257
 20
290.7163718067795
  0
VERTEX
  8
1
  6
CONTINUOUS
 62
     7
 10
69.17011401534938
 20
290.7519963986006
  0
VERTEX
  8
1
  6
CONTINUOUS
 62
     7
 10
69.14340614649056
 20
290.7888760434716
  0
VERTEX
  8
1
  6
CONTINUOUS
 62
     7
 10
69.12056308965623
 20
290.8235017071327
  0
VERTEX
  8
1
  6
CONTINUOUS
 62
     7
 10
69.09915600185157
 20
290.8590778387752
  0
VERTEX
  8
1
  6
CONTINUOUS
 62
     7
 10
69.07923820700393
 20
290.8955123219732
  0
VERTEX
  8
1
  6
CONTINUOUS
 62
     7
 10
69.06086302904068
 20
290.932713040301
  0
VERTEX
  8
1
  6
CONTINUOUS
 62
     7
 10
69.0435907466554
 20
290.9717534582518
  0
VERTEX
  8
1
  6
CONTINUOUS
 62
     7
 10
69.02798468573337
 20
291.011536069537
  0
VERTEX
  8
1
  6
CONTINUOUS
 62
     7
 10
69.01408557977575
 20
291.0519520289284
  0
VERTEX
  8
1
  6
CONTINUOUS
 62
     7
 10
69.0019341622837
 20
291.0928924911981
  0
VERTEX
  8
1
  6
CONTINUOUS
 62
     7
 10
68.99186988788895
 20
291.1329128381506
  0
VERTEX
  8
1
  6
CONTINUOUS
 62
     7
 10
68.98345715420005
 20
291.173354230765
  0
VERTEX
  8
1
  6
CONTINUOUS
 62
     7
 10
68.97671595938323
 20
291.2141133819867
  0
VERTEX
  8
1
  6
CONTINUOUS
 62
     7
 10
68.97166630160474
 20
291.2550870047616
  0
VERTEX
  8
1
  6
CONTINUOUS
 62
     7
 10
68.96824775871552
 20
291.297420573153
  0
VERTEX
  8
1
  6
CONTINUOUS
 62
     7
 10
68.96662829257295
 20
291.3399059720097
  0
VERTEX
  8
1
  6
CONTINUOUS
 62
     7
 10
68.96681066846482
 20
291.3824282544917
  0
VERTEX
  8
1
  6
CONTINUOUS
 62
     7
 10
68.96879765167884
 20
291.424872473759
  0
VERTEX
  8
1
  6
CONTINUOUS
 62
     7
 10
68.9724533284102
 20
291.4659299684327
  0
VERTEX
  8
1
  6
CONTINUOUS
 62
     7
 10
68.97780338159899
 20
291.5068426747356
  0
VERTEX
  8
1
  6
CONTINUOUS
 62
     7
 10
68.98483270193746
 20
291.5475063112171
  0
VERTEX
  8
1
  6
CONTINUOUS
 62
     7
 10
68.99352618011787
 20
291.5878165964273
  0
VERTEX
  8
1
  6
CONTINUOUS
 62
     7
 10
69.00420374406646
 20
291.6288768412031
  0
VERTEX
  8
1
  6
CONTINUOUS
 62
     7
 10
69.01662624539603
 20
291.6694890792972
  0
VERTEX
  8
1
  6
CONTINUOUS
 62
     7
 10
69.0307582831323
 20
291.7095437531344
  0
VERTEX
  8
1
  6
CONTINUOUS
 62
     7
 10
69.04656445630104
 20
291.74893130514
  0
VERTEX
  8
1
  6
CONTINUOUS
 62
     7
 10
69.06354130327355
 20
291.7865761186391
  0
VERTEX
  8
1
  6
CONTINUOUS
 62
     7
 10
69.08207550120348
 20
291.823522796469
  0
VERTEX
  8
1
  6
CONTINUOUS
 62
     7
 10
69.10211775877511
 20
291.8596771160945
  0
VERTEX
  8
1
  6
CONTINUOUS
 62
     7
 10
69.12361878467274
 20
291.8949448549802
  0
VERTEX
  8
1
  6
CONTINUOUS
 62
     7
 10
69.1472489724952
 20
291.9302708185789
  0
VERTEX
  8
1
  6
CONTINUOUS
 62
     7
 10
69.17238280267868
 20
291.96459343836
  0
VERTEX
  8
1
  6
CONTINUOUS
 62
     7
 10
69.19894988980755
 20
291.997820512391
  0
VERTEX
  8
1
  6
CONTINUOUS
 62
     7
 10
69.22687984846617
 20
292.0298598387395
  0
SEQEND
  8
1
  6
CONTINUOUS
 62
     7
  0
ARC
  8
1
  6
CONTINUOUS
 62
     7
 10
54.25000000000002
 20
305.6590773512972
 40
20.25
 50
317.6972681339366
 51
12.30273186606337
  0
ENDBLK
  8
0
  0
ENDSEC
  0
SECTION
  2
ENTITIES
  0
LINE
  8
1
  6
CONTINUOUS
 62
     7
 10
101.6
 20
289.2426221919152
 11
99.37466583986325
 21
289.2426221919152
  0
LINE
  8
1
  6
CONTINUOUS
 62
     7
 10
133.05
 20
329.9090773512972
 11
133.05
 21
289.2426221919152
  0
LINE
  8
1
  6
CONTINUOUS
 62
     7
 10
124.0
 20
286.4909226487027
 11
124.0
 21
322.3422080829158
  0
LINE
  8
1
  6
CONTINUOUS
 62
     7
 10
124.5
 20
289.2426221919152
 11
124.5
 21
294.0825115345087
  0
LINE
  8
1
  6
CONTINUOUS
 62
     7
 10
113.3
 20
322.3117798346781
 11
113.3
 21
288.7475428260092
  0
LINE
  8
1
  6
CONTINUOUS
 62
     7
 10
101.6
 20
289.2426221919152
 11
101.6
 21
292.9885811100286
  0
INSERT
  8
1
  6
CONTINUOUS
 62
     7
  2
D_FRAME_VIEW_2920
 10
0.0
 20
0.0
 30
0.0
  0
LINE
  8
1
  6
CENTER
 62
     1
 10
27.0
 20
305.6590773512972
 11
81.49999999999999
 21
305.6590773512972
  0
LINE
  8
1
  6
CENTER
 62
     1
 10
54.25
 20
278.4090773512972
 11
54.25
 21
332.9090773512972
  0
TEXT
  8
1
  6
CONTINUOUS
 62
     7
 10
81.05419844941854
 20
274.1284200325122
 40
3.0
  1
FRAK-36
  0
INSERT
  8
1
  6
CONTINUOUS
 62
     7
  2
D_FRAME_VIEW_2738
 10
0.0
 20
0.0
 30
0.0
  0
ENDSEC
  0
EOF
