  0
SECTION
  2
HEADER
  9
$ACADVER
  1
AC1004
  9
$INSBASE
 10
0.0
 20
0.0
  9
$EXTMIN
 10
44.75
 20
271.3204545454545
  9
$EXTMAX
 10
164.25
 20
338.0238052947636
  9
$LIMMIN
 10
0.0
 20
0.0
  9
$LIMMAX
 10
12.0
 20
9.0
  9
$ORTHOMODE
 70
     0
  9
$REGENMODE
 70
     1
  9
$FILLMODE
 70
     1
  9
$QTEXTMODE
 70
     0
  9
$DRAGMODE
 70
     2
  9
$LTSCALE
 40
1.0
  9
$OSMODE
 70
    37
  9
$ATTMODE
 70
     1
  9
$TEXTSIZE
 40
0.2
  9
$TRACEWID
 40
0.05
  9
$TEXTSTYLE
  7
STANDARD
  9
$CLAYER
  8
0
  9
$CELTYPE
  6
BYLAYER
  9
$CECOLOR
 62
   256
  9
$DIMSCALE
 40
1.0
  9
$DIMASZ
 40
3.0
  9
$DIMEXO
 40
0.0625
  9
$DIMDLI
 40
0.38
  9
$DIMRND
 40
0.0
  9
$DIMDLE
 40
0.0
  9
$DIMEXE
 40
1.5
  9
$DIMTP
 40
0.0
  9
$DIMTM
 40
0.0
  9
$DIMTXT
 40
3.0
  9
$DIMCEN
 40
0.09
  9
$DIMTSZ
 40
0.0
  9
$DIMTOL
 70
     0
  9
$DIMLIM
 70
     0
  9
$DIMTIH
 70
     1
  9
$DIMTOH
 70
     1
  9
$DIMSE1
 70
     0
  9
$DIMSE2
 70
     0
  9
$DIMTAD
 70
     1
  9
$DIMZIN
 70
     0
  9
$DIMBLK
  1

  9
$DIMASO
 70
     1
  9
$DIMSHO
 70
     1
  9
$DIMPOST
  1

  9
$DIMAPOST
  1

  9
$DIMALT
 70
     0
  9
$DIMALTD
 70
     2
  9
$DIMALTF
 40
25.4
  9
$DIMLFAC
 40
1.0
  9
$DIMTOFL
 70
     0
  9
$DIMTVP
 40
0.0
  9
$DIMTIX
 70
     0
  9
$DIMSOXD
 70
     0
  9
$DIMSAH
 70
     0
  9
$DIMBLK1
  1

  9
$DIMBLK2
  1

  9
$LUNITS
 70
     2
  9
$LUPREC
 70
     4
  9
$SKETCHINC
 40
0.1
  9
$FILLETRAD
 40
0.5
  9
$AUNITS
 70
     0
  9
$AUPREC
 70
     0
  9
$MENU
  1
.
  9
$ELEVATION
 40
0.0
  9
$THICKNESS
 40
0.0
  9
$LIMCHECK
 70
     0
  9
$CHAMFERA
 40
0.0
  9
$CHAMFERB
 40
0.0
  9
$SKPOLY
 70
     0
  9
$TDCREATE
 40
2459069.418320683
  9
$TDUPDATE
 40
2459069.418320868
  9
$TDINDWG
 40
0.0000000116
  9
$TDUSRTIMER
 40
0.0000000116
  9
$USRTIMER
 70
     1
  9
$ANGBASE
 50
0.0
  9
$ANGDIR
 70
     0
  9
$PDMODE
 70
     0
  9
$PDSIZE
 40
0.0
  9
$PLINEWID
 40
0.0
  9
$COORDS
 70
     1
  9
$SPLFRAME
 70
     0
  9
$SPLINETYPE
 70
     6
  9
$SPLINESEGS
 70
     8
  9
$ATTDIA
 70
     0
  9
$ATTREQ
 70
     1
  9
$SURFTAB1
 70
     6
  9
$SURFTAB2
 70
     6
  9
$SURFTYPE
 70
     6
  9
$SURFU
 70
     6
  9
$SURFV
 70
     6
  9
$UCSNAME
  2

  9
$UCSORG
 10
0.0
 20
0.0
 30
0.0
  9
$UCSXDIR
 10
1.0
 20
0.0
 30
0.0
  9
$UCSYDIR
 10
0.0
 20
1.0
 30
0.0
  9
$USERI1
 70
     0
  9
$USERI2
 70
     0
  9
$USERI3
 70
     0
  9
$USERI4
 70
     0
  9
$USERI5
 70
     0
  9
$USERR1
 40
0.0
  9
$USERR2
 40
0.0
  9
$USERR3
 40
0.0
  9
$USERR4
 40
0.0
  9
$USERR5
 40
0.0
  9
$WORLDVIEW
 70
     1
  0
ENDSEC
  0
SECTION
  2
TABLES
  0
TABLE
  2
LTYPE
 70
     2
  0
LTYPE
  2
CONTINUOUS
 70
     0
  3
Solid line
 72
    65
 73
     0
 40
0.0
  0
LTYPE
  2
CENTER
 70
     0
  3

 72
    65
 73
     0
 40
0.0
  0
ENDTAB
  0
TABLE
  2
LAYER
 70
     2
  0
LAYER
  2
0
 70
     0
 62
     7
  6
CONTINUOUS
  0
LAYER
  2
1
 70
     0
 62
     7
  6
CONTINUOUS
  0
ENDTAB
  0
TABLE
  2
STYLE
 70
     2
  0
STYLE
  2
STANDARD
 70
     0
 40
0.0
 41
1.0
 50
0.0
 71
     0
 42
0.2
  3
txt
  4

  0
STYLE
  2
ＭＳ_ゴシック
 70
     0
 40
0.0
 41
1.0
 50
0.0
 71
     0
 42
0.2
  3
ＭＳ ゴシック.shx
  4

  0
ENDTAB
  0
TABLE
  2
VIEW
 70
     0
  0
ENDTAB
  0
ENDSEC
  0
SECTION
  2
BLOCKS
  0
BLOCK
  8
0
  2
D_FRAME_VIEW_2738
 70
     0
 10
0.0
 20
0.0
  0
LINE
  8
1
  6
CONTINUOUS
 62
     7
 10
100.4133682508906
 20
320.5588953257979
 11
99.36384802715664
 21
320.7439540580414
  0
LINE
  8
1
  6
CONTINUOUS
 62
     7
 10
98.31344061849916
 20
322.5013787576769
 11
98.39715574172116
 21
322.5557439943627
  0
LINE
  8
1
  6
CONTINUOUS
 62
     7
 10
98.39715574172115
 20
322.5557439943627
 11
98.42636101154653
 21
322.6943784633181
  0
ARC
  8
1
  6
CONTINUOUS
 62
     7
 10
75.25
 20
307.5238052947636
 40
27.7
 50
33.20759385823252
 51
43.51638077667138
  0
LINE
  8
1
  6
CONTINUOUS
 62
     7
 10
95.33741790891226
 20
326.5969707832899
 11
94.97482913799327
 21
326.7526898177931
  0
LINE
  8
1
  6
CONTINUOUS
 62
     7
 10
94.97482913799327
 20
326.7526898177931
 11
94.90960325133746
 21
326.7526898177931
  0
LINE
  8
1
  6
CONTINUOUS
 62
     7
 10
51.13615197284342
 20
294.3036565314858
 11
50.38262540455257
 21
294.4365235961562
  0
POLYLINE
  8
1
  6
CONTINUOUS
 62
     7
 66
     1
  0
VERTEX
  8
1
  6
CONTINUOUS
 62
     7
 10
50.38262540455257
 20
294.4365235961562
  0
VERTEX
  8
1
  6
CONTINUOUS
 62
     7
 10
50.33013723779439
 20
294.4472383029077
  0
VERTEX
  8
1
  6
CONTINUOUS
 62
     7
 10
50.27913946904831
 20
294.4605051607072
  0
VERTEX
  8
1
  6
CONTINUOUS
 62
     7
 10
50.22974084058885
 20
294.4761485376493
  0
VERTEX
  8
1
  6
CONTINUOUS
 62
     7
 10
50.18205009469056
 20
294.4939928018291
  0
VERTEX
  8
1
  6
CONTINUOUS
 62
     7
 10
50.13433630597251
 20
294.514706949467
  0
VERTEX
  8
1
  6
CONTINUOUS
 62
     7
 10
50.08839835233163
 20
294.537538263238
  0
VERTEX
  8
1
  6
CONTINUOUS
 62
     7
 10
50.04428863535501
 20
294.5623379323864
  0
VERTEX
  8
1
  6
CONTINUOUS
 62
     7
 10
50.00205955662976
 20
294.5889571461566
  0
VERTEX
  8
1
  6
CONTINUOUS
 62
     7
 10
49.95626565490946
 20
294.6213375995326
  0
VERTEX
  8
1
  6
CONTINUOUS
 62
     7
 10
49.91282332355436
 20
294.6558443666011
  0
VERTEX
  8
1
  6
CONTINUOUS
 62
     7
 10
49.87177540195508
 20
294.6923175509697
  0
VERTEX
  8
1
  6
CONTINUOUS
 62
     7
 10
49.83316472950226
 20
294.7305972562464
  0
VERTEX
  8
1
  6
CONTINUOUS
 62
     7
 10
49.79596783659966
 20
294.7717665855133
  0
VERTEX
  8
1
  6
CONTINUOUS
 62
     7
 10
49.761299810362
 20
294.8146889368157
  0
VERTEX
  8
1
  6
CONTINUOUS
 62
     7
 10
49.72920461911957
 20
294.8592318608939
  0
VERTEX
  8
1
  6
CONTINUOUS
 62
     7
 10
49.69972623120265
 20
294.9052629084883
  0
VERTEX
  8
1
  6
CONTINUOUS
 62
     7
 10
49.67930207202073
 20
294.9407889781961
  0
VERTEX
  8
1
  6
CONTINUOUS
 62
     7
 10
49.66035078361809
 20
294.9771215575764
  0
VERTEX
  8
1
  6
CONTINUOUS
 62
     7
 10
49.65831989430021
 20
294.9812413875105
  0
SEQEND
  8
1
  6
CONTINUOUS
 62
     7
  0
ARC
  8
1
  6
CONTINUOUS
 62
     7
 10
75.25
 20
307.5238052947636
 40
28.5
 50
27.54529395022013
 51
206.1096211848079
  0
LINE
  8
1
  6
CONTINUOUS
 62
     7
 10
100.519397621716
 20
320.703621068727
 11
100.5307059429858
 21
320.6550470672879
  0
LINE
  8
1
  6
CONTINUOUS
 62
     7
 10
100.5307059429858
 20
320.6550470672879
 11
100.4998044062339
 21
320.5850632369228
  0
LINE
  8
1
  6
CONTINUOUS
 62
     7
 10
100.4998044062339
 20
320.5850632369228
 11
100.4133682508906
 21
320.5588953257979
  0
ARC
  8
1
  6
CONTINUOUS
 62
     7
 10
98.78800621669816
 20
321.3532038117881
 40
0.4999999999999991
 50
210.4357193499906
 51
260.0
  0
ARC
  8
1
  6
CONTINUOUS
 62
     7
 10
75.25000000000003
 20
307.5238052947636
 40
26.79999999999997
 50
30.43571934999072
 51
32.78700404653777
  0
ARC
  8
1
  6
CONTINUOUS
 62
     7
 10
97.86454629397214
 20
322.0906270455022
 40
0.1000000000000009
 50
123.0000000000005
 51
212.7870040465384
  0
LINE
  8
1
  6
CONTINUOUS
 62
     7
 10
97.81008239047064
 20
322.1744941022968
 11
98.31344061849914
 21
322.5013787576769
  0
LINE
  8
1
  6
CONTINUOUS
 62
     7
 10
99.36384802715664
 20
320.7439540580414
 11
98.70118212786471
 21
320.8607999352819
  0
ARC
  8
1
  6
CONTINUOUS
 62
     7
 10
75.25
 20
307.5238052947636
 40
27.7
 50
222.2075938582325
 51
223.5163807766714
  0
LINE
  8
1
  6
CONTINUOUS
 62
     7
 10
55.5251708620067
 20
288.2949207717342
 11
57.4934300354881
 21
288.2949207717342
  0
ARC
  8
1
  6
CONTINUOUS
 62
     7
 10
55.19262926550788
 20
289.5986308404064
 40
0.1000000000000028
 50
312.0000000000003
 51
41.78700404653813
  0
ARC
  8
1
  6
CONTINUOUS
 62
     7
 10
75.25
 20
307.5238052947636
 40
26.8
 50
210.4357193499906
 51
221.7870040465376
  0
LINE
  8
1
  6
CONTINUOUS
 62
     7
 10
55.25954232614378
 20
289.5243163578587
 11
54.73933744495152
 21
289.0559217789697
  0
ARC
  8
1
  6
CONTINUOUS
 62
     7
 10
93.13273555566765
 20
327.7526898177931
 40
1.0
 50
228.5226792409321
 51
270.0
  0
ARC
  8
1
  6
CONTINUOUS
 62
     7
 10
51.71199378330178
 20
293.6944067777392
 40
0.4999999999999992
 50
30.43571934999067
 51
79.99999999999716
  0
ARC
  8
1
  6
CONTINUOUS
 62
     7
 10
75.25
 20
307.5238052947636
 40
26.0
 50
48.52267924093217
 51
227.13069310997
  0
ARC
  8
1
  6
CONTINUOUS
 62
     7
 10
55.5251708620067
 20
288.7949207717342
 40
0.5000000000000019
 50
223.5163807766713
 51
270.0
  0
ARC
  8
1
  6
CONTINUOUS
 62
     7
 10
57.4934300354881
 20
288.3949207717342
 40
0.1000000000000008
 50
270.0
 51
47.13069310996968
  0
ARC
  8
1
  6
CONTINUOUS
 62
     7
 10
54.80625050558741
 20
288.9816072964219
 40
0.100000000000004
 50
132.0000000000002
 51
222.2075938582332
  0
LINE
  8
1
  6
CONTINUOUS
 62
     7
 10
94.90960325133747
 20
326.7526898177931
 11
93.13273555566765
 21
326.7526898177931
  0
LINE
  8
1
  6
CONTINUOUS
 62
     7
 10
51.13615197284342
 20
294.3036565314858
 11
51.79881787213526
 21
294.1868106542452
  0
LINE
  8
1
  6
CONTINUOUS
 62
     7
 10
58.29417504218684
 20
290.5679803369504
 11
56.86522368914977
 21
289.1390289839134
  0
LINE
  8
1
  6
CONTINUOUS
 62
     7
 10
50.13592851648421
 20
314.2531004674291
 11
52.08791236550498
 21
313.7300679714455
  0
POLYLINE
  8
1
  6
CONTINUOUS
 62
     7
 66
     1
  0
VERTEX
  8
1
  6
CONTINUOUS
 62
     7
 10
52.08791236550499
 20
313.7300679714455
  0
VERTEX
  8
1
  6
CONTINUOUS
 62
     7
 10
52.12795505628938
 20
313.7184350362926
  0
VERTEX
  8
1
  6
CONTINUOUS
 62
     7
 10
52.16751266925332
 20
313.7051311758041
  0
VERTEX
  8
1
  6
CONTINUOUS
 62
     7
 10
52.20648333779368
 20
313.6901929182187
  0
VERTEX
  8
1
  6
CONTINUOUS
 62
     7
 10
52.24476519530731
 20
313.6736567917748
  0
VERTEX
  8
1
  6
CONTINUOUS
 62
     7
 10
52.2834052711662
 20
313.6549805576374
  0
VERTEX
  8
1
  6
CONTINUOUS
 62
     7
 10
52.32124486605264
 20
313.6346439460314
  0
VERTEX
  8
1
  6
CONTINUOUS
 62
     7
 10
52.35818105733629
 20
313.6127048082532
  0
VERTEX
  8
1
  6
CONTINUOUS
 62
     7
 10
52.39411092238683
 20
313.5892209955991
  0
VERTEX
  8
1
  6
CONTINUOUS
 62
     7
 10
52.42804505345028
 20
313.5649230337335
  0
VERTEX
  8
1
  6
CONTINUOUS
 62
     7
 10
52.46096673015618
 20
313.5392059610433
  0
VERTEX
  8
1
  6
CONTINUOUS
 62
     7
 10
52.49279142979184
 20
313.5121381549745
  0
VERTEX
  8
1
  6
CONTINUOUS
 62
     7
 10
52.52343462964455
 20
313.4837879929734
  0
VERTEX
  8
1
  6
CONTINUOUS
 62
     7
 10
52.55370787052917
 20
313.4532909679235
  0
VERTEX
  8
1
  6
CONTINUOUS
 62
     7
 10
52.58267242148487
 20
313.4214890297611
  0
VERTEX
  8
1
  6
CONTINUOUS
 62
     7
 10
52.61024974729839
 20
313.3884713727504
  0
VERTEX
  8
1
  6
CONTINUOUS
 62
     7
 10
52.63636131275639
 20
313.3543271911554
  0
VERTEX
  8
1
  6
CONTINUOUS
 62
     7
 10
52.66026230876222
 20
313.3201559056057
  0
VERTEX
  8
1
  6
CONTINUOUS
 62
     7
 10
52.68273968747503
 20
313.2849835486251
  0
VERTEX
  8
1
  6
CONTINUOUS
 62
     7
 10
52.7037363238885
 20
313.2489027117073
  0
VERTEX
  8
1
  6
CONTINUOUS
 62
     7
 10
52.72319509299631
 20
313.2120059863457
  0
VERTEX
  8
1
  6
CONTINUOUS
 62
     7
 10
52.7415943745711
 20
313.1732071050371
  0
VERTEX
  8
1
  6
CONTINUOUS
 62
     7
 10
52.75832815732388
 20
313.1336133228826
  0
VERTEX
  8
1
  6
CONTINUOUS
 62
     7
 10
52.77335195822512
 20
313.0933350091435
  0
VERTEX
  8
1
  6
CONTINUOUS
 62
     7
 10
52.78662129424531
 20
313.0524825330808
  0
VERTEX
  8
1
  6
CONTINUOUS
 62
     7
 10
52.79777201948618
 20
313.0124460208482
  0
VERTEX
  8
1
  6
CONTINUOUS
 62
     7
 10
52.80725851386654
 20
312.9719421126583
  0
VERTEX
  8
1
  6
CONTINUOUS
 62
     7
 10
52.81505791874361
 20
312.9310764095727
  0
VERTEX
  8
1
  6
CONTINUOUS
 62
     7
 10
52.8211473754746
 20
312.8899545126532
  0
VERTEX
  8
1
  6
CONTINUOUS
 62
     7
 10
52.82561737615776
 20
312.8474019309821
  0
VERTEX
  8
1
  6
CONTINUOUS
 62
     7
 10
52.82826555972952
 20
312.8046550326109
  0
VERTEX
  8
1
  6
CONTINUOUS
 62
     7
 10
52.82908684459847
 20
312.7618317287263
  0
VERTEX
  8
1
  6
CONTINUOUS
 62
     7
 10
52.8280761491732
 20
312.7190499305153
  0
VERTEX
  8
1
  6
CONTINUOUS
 62
     7
 10
52.82516243270241
 20
312.6755678106902
  0
VERTEX
  8
1
  6
CONTINUOUS
 62
     7
 10
52.8203577341465
 20
312.6322525623809
  0
VERTEX
  8
1
  6
CONTINUOUS
 62
     7
 10
52.81361017947772
 20
312.5888549111473
  0
VERTEX
  8
1
  6
CONTINUOUS
 62
     7
 10
52.80496443205236
 20
312.54579477639
  0
SEQEND
  8
1
  6
CONTINUOUS
 62
     7
  0
POLYLINE
  8
1
  6
CONTINUOUS
 62
     7
 66
     1
  0
VERTEX
  8
1
  6
CONTINUOUS
 62
     7
 10
58.32302375012524
 20
291.9521170421631
  0
VERTEX
  8
1
  6
CONTINUOUS
 62
     7
 10
58.35040246482149
 20
291.9210857442118
  0
VERTEX
  8
1
  6
CONTINUOUS
 62
     7
 10
58.37649610601949
 20
291.8889208230791
  0
VERTEX
  8
1
  6
CONTINUOUS
 62
     7
 10
58.4012391764159
 20
291.8557066595528
  0
VERTEX
  8
1
  6
CONTINUOUS
 62
     7
 10
58.42456617870734
 20
291.8215276344208
  0
VERTEX
  8
1
  6
CONTINUOUS
 62
     7
 10
58.44706432848416
 20
291.7853804677954
  0
VERTEX
  8
1
  6
CONTINUOUS
 62
     7
 10
58.46802160617258
 20
291.7482762268108
  0
VERTEX
  8
1
  6
CONTINUOUS
 62
     7
 10
58.48738325871584
 20
291.7103174513013
  0
VERTEX
  8
1
  6
CONTINUOUS
 62
     7
 10
58.5050945330572
 20
291.6716066811011
  0
VERTEX
  8
1
  6
CONTINUOUS
 62
     7
 10
58.52069757280845
 20
291.633318453857
  0
VERTEX
  8
1
  6
CONTINUOUS
 62
     7
 10
58.53471564086015
 20
291.5943874027377
  0
VERTEX
  8
1
  6
CONTINUOUS
 62
     7
 10
58.54711517201609
 20
291.554914403047
  0
VERTEX
  8
1
  6
CONTINUOUS
 62
     7
 10
58.55786260108004
 20
291.5150003300892
  0
VERTEX
  8
1
  6
CONTINUOUS
 62
     7
 10
58.5671808186668
 20
291.4735108887244
  0
VERTEX
  8
1
  6
CONTINUOUS
 62
     7
 10
58.57473295888634
 20
291.4316288523177
  0
VERTEX
  8
1
  6
CONTINUOUS
 62
     7
 10
58.58050147513109
 20
291.3894683492813
  0
VERTEX
  8
1
  6
CONTINUOUS
 62
     7
 10
58.58446882079352
 20
291.3471435080277
  0
VERTEX
  8
1
  6
CONTINUOUS
 62
     7
 10
58.58659268285436
 20
291.3058171238542
  0
VERTEX
  8
1
  6
CONTINUOUS
 62
     7
 10
58.58700535961314
 20
291.26440700406
  0
VERTEX
  8
1
  6
CONTINUOUS
 62
     7
 10
58.5857085120055
 20
291.2230193656222
  0
VERTEX
  8
1
  6
CONTINUOUS
 62
     7
 10
58.58270380096705
 20
291.1817604255181
  0
VERTEX
  8
1
  6
CONTINUOUS
 62
     7
 10
58.57782818742299
 20
291.1394869124447
  0
VERTEX
  8
1
  6
CONTINUOUS
 62
     7
 10
58.57115322416398
 20
291.097425340872
  0
VERTEX
  8
1
  6
CONTINUOUS
 62
     7
 10
58.56269993189493
 20
291.0556891034186
  0
VERTEX
  8
1
  6
CONTINUOUS
 62
     7
 10
58.55248933132075
 20
291.0143915927032
  0
VERTEX
  8
1
  6
CONTINUOUS
 62
     7
 10
58.54083206760088
 20
290.9745410213835
  0
VERTEX
  8
1
  6
CONTINUOUS
 62
     7
 10
58.52752033931159
 20
290.9351782051639
  0
VERTEX
  8
1
  6
CONTINUOUS
 62
     7
 10
58.51259089993183
 20
290.8964036107052
  0
VERTEX
  8
1
  6
CONTINUOUS
 62
     7
 10
58.49608050294059
 20
290.8583177046687
  0
VERTEX
  8
1
  6
CONTINUOUS
 62
     7
 10
58.47745347350446
 20
290.819887435666
  0
VERTEX
  8
1
  6
CONTINUOUS
 62
     7
 10
58.45718548238608
 20
290.7822556876744
  0
VERTEX
  8
1
  6
CONTINUOUS
 62
     7
 10
58.435334109426
 20
290.7455234986177
  0
VERTEX
  8
1
  6
CONTINUOUS
 62
     7
 10
58.41195693446477
 20
290.7097919064202
  0
VERTEX
  8
1
  6
CONTINUOUS
 62
     7
 10
58.38511509730063
 20
290.6724926087321
  0
VERTEX
  8
1
  6
CONTINUOUS
 62
     7
 10
58.35658986967479
 20
290.6364663435118
  0
VERTEX
  8
1
  6
CONTINUOUS
 62
     7
 10
58.32617549519778
 20
290.6015001865062
  0
VERTEX
  8
1
  6
CONTINUOUS
 62
     7
 10
58.29417504218684
 20
290.5679803369504
  0
SEQEND
  8
1
  6
CONTINUOUS
 62
     7
  0
ARC
  8
1
  6
CONTINUOUS
 62
     7
 10
75.25
 20
307.5238052947636
 40
23.00000000000001
 50
180.0
 51
222.6119845367312
  0
ARC
  8
1
  6
CONTINUOUS
 62
     7
 10
75.25
 20
307.5238052947636
 40
23.0
 50
167.3880154632687
 51
180.0
  0
LINE
  8
1
  6
CONTINUOUS
 62
     7
 10
97.9973075329788
 20
325.0238052947661
 11
99.48324163210526
 21
322.900410901984
  0
LINE
  8
1
  6
CONTINUOUS
 62
     7
 10
99.48324163210526
 20
322.9004109019839
 11
99.48324163210526
 21
322.5238052947636
  0
LINE
  8
1
  6
CONTINUOUS
 62
     7
 10
97.74444375840399
 20
325.0238052947636
 11
97.9973075329788
 21
325.0238052947636
  0
ARC
  8
1
  6
CONTINUOUS
 62
     7
 10
93.24999999999999
 20
286.0761947052364
 40
0.5000000000000004
 50
180.0
 51
310.0052008848601
  0
LINE
  8
1
  6
CONTINUOUS
 62
     7
 10
92.74999999999999
 20
287.8578448554665
 11
92.74999999999999
 21
286.0761947052364
  0
ARC
  8
1
  6
CONTINUOUS
 62
     7
 10
93.74999999999999
 20
287.8578448554665
 40
1.000000000000002
 50
133.2501726542254
 51
180.0
  0
ARC
  8
1
  6
CONTINUOUS
 62
     7
 10
75.25
 20
307.5238052947636
 40
28.50000000000001
 50
310.0052008848602
 51
27.54529395022007
  0
ARC
  8
1
  6
CONTINUOUS
 62
     7
 10
75.25
 20
307.5238052947636
 40
26.0
 50
313.2501726542254
 51
48.52267924093223
  0
LINE
  8
1
  6
CONTINUOUS
 62
     7
 10
77.33992129253475
 20
331.4117149770906
 11
77.5160493114391
 21
333.4248674451491
  0
LINE
  8
1
  6
CONTINUOUS
 62
     7
 10
98.81400246295291
 20
318.5118801000218
 11
96.98249727447079
 21
317.657835204682
  0
POLYLINE
  8
1
  6
CONTINUOUS
 62
     7
 66
     1
  0
VERTEX
  8
1
  6
CONTINUOUS
 62
     7
 10
78.20752782435041
 20
330.3328611535271
  0
VERTEX
  8
1
  6
CONTINUOUS
 62
     7
 10
78.16443988888422
 20
330.3394062488427
  0
VERTEX
  8
1
  6
CONTINUOUS
 62
     7
 10
78.12167829905601
 20
330.3478215641193
  0
VERTEX
  8
1
  6
CONTINUOUS
 62
     7
 10
78.07899896816451
 20
330.3581794449043
  0
VERTEX
  8
1
  6
CONTINUOUS
 62
     7
 10
78.03681656170355
 20
330.3703999961408
  0
VERTEX
  8
1
  6
CONTINUOUS
 62
     7
 10
77.99741119449624
 20
330.3836701466876
  0
VERTEX
  8
1
  6
CONTINUOUS
 62
     7
 10
77.95855950761086
 20
330.398579195339
  0
VERTEX
  8
1
  6
CONTINUOUS
 62
     7
 10
77.92036164733163
 20
330.4150860134536
  0
VERTEX
  8
1
  6
CONTINUOUS
 62
     7
 10
77.88291775994283
 20
330.4331494723897
  0
VERTEX
  8
1
  6
CONTINUOUS
 62
     7
 10
77.84520471408393
 20
330.453354016965
  0
VERTEX
  8
1
  6
CONTINUOUS
 62
     7
 10
77.80835933046434
 20
330.4751715660742
  0
VERTEX
  8
1
  6
CONTINUOUS
 62
     7
 10
77.77248142184013
 20
330.4985395712265
  0
VERTEX
  8
1
  6
CONTINUOUS
 62
     7
 10
77.73767080096728
 20
330.5233954839312
  0
VERTEX
  8
1
  6
CONTINUOUS
 62
     7
 10
77.70476862797184
 20
330.5490634814118
  0
VERTEX
  8
1
  6
CONTINUOUS
 62
     7
 10
77.67294117616007
 20
330.5761028292329
  0
VERTEX
  8
1
  6
CONTINUOUS
 62
     7
 10
77.64226977910796
 20
330.6044407797993
  0
VERTEX
  8
1
  6
CONTINUOUS
 62
     7
 10
77.6128357703915
 20
330.6340045855156
  0
VERTEX
  8
1
  6
CONTINUOUS
 62
     7
 10
77.58386188798423
 20
330.6656919333308
  0
VERTEX
  8
1
  6
CONTINUOUS
 62
     7
 10
77.55625234948022
 20
330.6986206567578
  0
VERTEX
  8
1
  6
CONTINUOUS
 62
     7
 10
77.53008096472294
 20
330.732697856423
  0
VERTEX
  8
1
  6
CONTINUOUS
 62
     7
 10
77.50542154355593
 20
330.7678306329526
  0
VERTEX
  8
1
  6
CONTINUOUS
 62
     7
 10
77.4829037384095
 20
330.8030019182543
  0
VERTEX
  8
1
  6
CONTINUOUS
 62
     7
 10
77.4618577713782
 20
330.8391105372808
  0
VERTEX
  8
1
  6
CONTINUOUS
 62
     7
 10
77.44233611138665
 20
330.8760609540394
  0
VERTEX
  8
1
  6
CONTINUOUS
 62
     7
 10
77.42439122735948
 20
330.9137576325376
  0
VERTEX
  8
1
  6
CONTINUOUS
 62
     7
 10
77.40758905552575
 20
330.9533044552427
  0
VERTEX
  8
1
  6
CONTINUOUS
 62
     7
 10
77.3924885983101
 20
330.9935701245187
  0
VERTEX
  8
1
  6
CONTINUOUS
 62
     7
 10
77.37912866930095
 20
331.0344426271266
  0
VERTEX
  8
1
  6
CONTINUOUS
 62
     7
 10
77.36754808208676
 20
331.0758099498275
  0
VERTEX
  8
1
  6
CONTINUOUS
 62
     7
 10
77.3580210782706
 20
331.1164160366828
  0
VERTEX
  8
1
  6
CONTINUOUS
 62
     7
 10
77.35018925664231
 20
331.1574171799151
  0
VERTEX
  8
1
  6
CONTINUOUS
 62
     7
 10
77.34407045481086
 20
331.1987065328905
  0
VERTEX
  8
1
  6
CONTINUOUS
 62
     7
 10
77.33968251038527
 20
331.2401772489756
  0
VERTEX
  8
1
  6
CONTINUOUS
 62
     7
 10
77.33698340592319
 20
331.2830078568952
  0
VERTEX
  8
1
  6
CONTINUOUS
 62
     7
 10
77.33612368623606
 20
331.3259529828828
  0
VERTEX
  8
1
  6
CONTINUOUS
 62
     7
 10
77.33710307416091
 20
331.3688946739455
  0
VERTEX
  8
1
  6
CONTINUOUS
 62
     7
 10
77.33992129253475
 20
331.4117149770906
  0
SEQEND
  8
1
  6
CONTINUOUS
 62
     7
  0
POLYLINE
  8
1
  6
CONTINUOUS
 62
     7
 66
     1
  0
VERTEX
  8
1
  6
CONTINUOUS
 62
     7
 10
96.98249727447079
 20
317.657835204682
  0
VERTEX
  8
1
  6
CONTINUOUS
 62
     7
 10
96.9404168097065
 20
317.6393782209071
  0
VERTEX
  8
1
  6
CONTINUOUS
 62
     7
 10
96.89753272122337
 20
317.622872587881
  0
VERTEX
  8
1
  6
CONTINUOUS
 62
     7
 10
96.85355943238805
 20
317.608239927264
  0
VERTEX
  8
1
  6
CONTINUOUS
 62
     7
 10
96.8089542094199
 20
317.5956588429615
  0
VERTEX
  8
1
  6
CONTINUOUS
 62
     7
 10
96.76855460901366
 20
317.5861614624206
  0
VERTEX
  8
1
  6
CONTINUOUS
 62
     7
 10
96.72775877519227
 20
317.5783414877787
  0
VERTEX
  8
1
  6
CONTINUOUS
 62
     7
 10
96.68667191750329
 20
317.5722171194084
  0
VERTEX
  8
1
  6
CONTINUOUS
 62
     7
 10
96.6453992454943
 20
317.5678065576823
  0
VERTEX
  8
1
  6
CONTINUOUS
 62
     7
 10
96.60277817361826
 20
317.5650673116118
  0
VERTEX
  8
1
  6
CONTINUOUS
 62
     7
 10
96.5600368053569
 20
317.5641496265795
  0
VERTEX
  8
1
  6
CONTINUOUS
 62
     7
 10
96.51729165114355
 20
317.5650539714316
  0
VERTEX
  8
1
  6
CONTINUOUS
 62
     7
 10
96.47465922141151
 20
317.567780815014
  0
VERTEX
  8
1
  6
CONTINUOUS
 62
     7
 10
96.43353977291555
 20
317.5721592057502
  0
VERTEX
  8
1
  6
CONTINUOUS
 62
     7
 10
96.39259766083025
 20
317.578239713199
  0
VERTEX
  8
1
  6
CONTINUOUS
 62
     7
 10
96.35193739319367
 20
317.5860051081444
  0
VERTEX
  8
1
  6
CONTINUOUS
 62
     7
 10
96.31166347804393
 20
317.5954381613701
  0
VERTEX
  8
1
  6
CONTINUOUS
 62
     7
 10
96.27067308033247
 20
317.6068799461268
  0
VERTEX
  8
1
  6
CONTINUOUS
 62
     7
 10
96.23016563071941
 20
317.6200688722694
  0
VERTEX
  8
1
  6
CONTINUOUS
 62
     7
 10
96.19025050337154
 20
317.6349673482478
  0
VERTEX
  8
1
  6
CONTINUOUS
 62
     7
 10
96.15103707245571
 20
317.6515377825111
  0
VERTEX
  8
1
  6
CONTINUOUS
 62
     7
 10
96.11368670761291
 20
317.6692095655326
  0
VERTEX
  8
1
  6
CONTINUOUS
 62
     7
 10
96.07706330275737
 20
317.6884277003278
  0
VERTEX
  8
1
  6
CONTINUOUS
 62
     7
 10
96.04125995262314
 20
317.7091414231772
  0
VERTEX
  8
1
  6
CONTINUOUS
 62
     7
 10
96.00636975194438
 20
317.7312999703607
  0
VERTEX
  8
1
  6
CONTINUOUS
 62
     7
 10
95.9714628025704
 20
317.7555893767758
  0
VERTEX
  8
1
  6
CONTINUOUS
 62
     7
 10
95.937586439227
 20
317.7813666729922
  0
VERTEX
  8
1
  6
CONTINUOUS
 62
     7
 10
95.90483155132367
 20
317.8085601642865
  0
VERTEX
  8
1
  6
CONTINUOUS
 62
     7
 10
95.87328902826982
 20
317.8370981559355
  0
VERTEX
  8
1
  6
CONTINUOUS
 62
     7
 10
95.84380560398698
 20
317.8661227796306
  0
VERTEX
  8
1
  6
CONTINUOUS
 62
     7
 10
95.8155219965903
 20
317.896369981077
  0
VERTEX
  8
1
  6
CONTINUOUS
 62
     7
 10
95.78850965902927
 20
317.9277605092114
  0
VERTEX
  8
1
  6
CONTINUOUS
 62
     7
 10
95.76284004425324
 20
317.9602151129702
  0
VERTEX
  8
1
  6
CONTINUOUS
 62
     7
 10
95.73785729846976
 20
317.9946934097154
  0
VERTEX
  8
1
  6
CONTINUOUS
 62
     7
 10
95.71434279943871
 20
318.03023736557
  0
VERTEX
  8
1
  6
CONTINUOUS
 62
     7
 10
95.69235875855155
 20
318.0667486471352
  0
VERTEX
  8
1
  6
CONTINUOUS
 62
     7
 10
95.67196738719966
 20
318.1041289210122
  0
SEQEND
  8
1
  6
CONTINUOUS
 62
     7
  0
ARC
  8
1
  6
CONTINUOUS
 62
     7
 10
75.25
 20
307.5238052947636
 40
23.00000000000001
 50
27.38801546326877
 51
82.61198453673124
  0
ARC
  8
1
  6
CONTINUOUS
 62
     7
 10
75.25
 20
307.5238052947636
 40
28.5
 50
206.1096211848078
 51
206.3851799977305
  0
ARC
  8
1
  6
CONTINUOUS
 62
     7
 10
75.25
 20
307.5238052947636
 40
28.5
 50
206.3851799977305
 51
224.0034273488997
  0
POLYLINE
  8
1
  6
CONTINUOUS
 62
     7
 66
     1
  0
VERTEX
  8
1
  6
CONTINUOUS
 62
     7
 10
57.74999999999999
 20
287.8578448554665
  0
VERTEX
  8
1
  6
CONTINUOUS
 62
     7
 10
57.74998499994376
 20
287.8633220707701
  0
VERTEX
  8
1
  6
CONTINUOUS
 62
     7
 10
57.74734249734474
 20
287.9307004866156
  0
VERTEX
  8
1
  6
CONTINUOUS
 62
     7
 10
57.74013696259604
 20
287.9979476581058
  0
VERTEX
  8
1
  6
CONTINUOUS
 62
     7
 10
57.72830317117757
 20
288.065023293688
  0
VERTEX
  8
1
  6
CONTINUOUS
 62
     7
 10
57.7118088248799
 20
288.1315669488085
  0
VERTEX
  8
1
  6
CONTINUOUS
 62
     7
 10
57.69240051484764
 20
288.1923316491479
  0
VERTEX
  8
1
  6
CONTINUOUS
 62
     7
 10
57.66895255955989
 20
288.2522129491073
  0
VERTEX
  8
1
  6
CONTINUOUS
 62
     7
 10
57.6412843770039
 20
288.3112899428672
  0
VERTEX
  8
1
  6
CONTINUOUS
 62
     7
 10
57.60944170202883
 20
288.3690786188407
  0
VERTEX
  8
1
  6
CONTINUOUS
 62
     7
 10
57.57276766123366
 20
288.4262231524738
  0
VERTEX
  8
1
  6
CONTINUOUS
 62
     7
 10
57.53165828928999
 20
288.4815517728437
  0
VERTEX
  8
1
  6
CONTINUOUS
 62
     7
 10
57.4857431058027
 20
288.5351061597833
  0
VERTEX
  8
1
  6
CONTINUOUS
 62
     7
 10
57.43518518518517
 20
288.5862137606256
  0
SEQEND
  8
1
  6
CONTINUOUS
 62
     7
  0
LINE
  8
1
  6
CONTINUOUS
 62
     7
 10
57.74999999999999
 20
286.0761947052364
 11
57.74999999999999
 21
287.8578448554665
  0
POLYLINE
  8
1
  6
CONTINUOUS
 62
     7
 66
     1
  0
VERTEX
  8
1
  6
CONTINUOUS
 62
     7
 10
56.92857142857142
 20
285.6932016589948
  0
VERTEX
  8
1
  6
CONTINUOUS
 62
     7
 10
56.94741628833602
 20
285.6781460362506
  0
VERTEX
  8
1
  6
CONTINUOUS
 62
     7
 10
56.96652752894324
 20
285.6643178020182
  0
VERTEX
  8
1
  6
CONTINUOUS
 62
     7
 10
56.9858187706613
 20
285.6516858534537
  0
VERTEX
  8
1
  6
CONTINUOUS
 62
     7
 10
57.00520363375846
 20
285.640219087713
  0
VERTEX
  8
1
  6
CONTINUOUS
 62
     7
 10
57.03181640310532
 20
285.6263098280398
  0
VERTEX
  8
1
  6
CONTINUOUS
 62
     7
 10
57.05842346460862
 20
285.614351882181
  0
VERTEX
  8
1
  6
CONTINUOUS
 62
     7
 10
57.084888563996
 20
285.6042432101644
  0
VERTEX
  8
1
  6
CONTINUOUS
 62
     7
 10
57.11496537565675
 20
285.5947712621938
  0
VERTEX
  8
1
  6
CONTINUOUS
 62
     7
 10
57.14467756706583
 20
285.5874087730166
  0
VERTEX
  8
1
  6
CONTINUOUS
 62
     7
 10
57.17391849987941
 20
285.5820147735354
  0
VERTEX
  8
1
  6
CONTINUOUS
 62
     7
 10
57.20258153575362
 20
285.5784482946532
  0
VERTEX
  8
1
  6
CONTINUOUS
 62
     7
 10
57.24080445997577
 20
285.5762759818891
  0
VERTEX
  8
1
  6
CONTINUOUS
 62
     7
 10
57.27781038247887
 20
285.5769658327635
  0
VERTEX
  8
1
  6
CONTINUOUS
 62
     7
 10
57.31348282340412
 20
285.5802411478012
  0
VERTEX
  8
1
  6
CONTINUOUS
 62
     7
 10
57.3550466626087
 20
285.5873440096346
  0
VERTEX
  8
1
  6
CONTINUOUS
 62
     7
 10
57.39455608159037
 20
285.5975311420163
  0
VERTEX
  8
1
  6
CONTINUOUS
 62
     7
 10
57.43194996400212
 20
285.6104677030931
  0
VERTEX
  8
1
  6
CONTINUOUS
 62
     7
 10
57.467167193497
 20
285.6258188510117
  0
VERTEX
  8
1
  6
CONTINUOUS
 62
     7
 10
57.51185410443008
 20
285.6502382000418
  0
VERTEX
  8
1
  6
CONTINUOUS
 62
     7
 10
57.55257696258029
 20
285.6781336993702
  0
VERTEX
  8
1
  6
CONTINUOUS
 62
     7
 10
57.58933082102502
 20
285.7089691697647
  0
VERTEX
  8
1
  6
CONTINUOUS
 62
     7
 10
57.62642123708032
 20
285.7470926191946
  0
VERTEX
  8
1
  6
CONTINUOUS
 62
     7
 10
57.6585269239721
 20
285.7879140218902
  0
VERTEX
  8
1
  6
CONTINUOUS
 62
     7
 10
57.68590128844762
 20
285.8312649418982
  0
VERTEX
  8
1
  6
CONTINUOUS
 62
     7
 10
57.70835482133914
 20
285.8764176851486
  0
VERTEX
  8
1
  6
CONTINUOUS
 62
     7
 10
57.72624972214535
 20
285.9239239219525
  0
VERTEX
  8
1
  6
CONTINUOUS
 62
     7
 10
57.73913036869713
 20
285.9725053498596
  0
VERTEX
  8
1
  6
CONTINUOUS
 62
     7
 10
57.74706455525246
 20
286.0220943398078
  0
VERTEX
  8
1
  6
CONTINUOUS
 62
     7
 10
57.7499828570589
 20
286.0720543372302
  0
VERTEX
  8
1
  6
CONTINUOUS
 62
     7
 10
57.74999999999999
 20
286.0761947052364
  0
SEQEND
  8
1
  6
CONTINUOUS
 62
     7
  0
LINE
  8
1
  6
CONTINUOUS
 62
     7
 10
56.92857142857142
 20
285.6932016589948
 11
54.75000000000001
 21
287.7248154215403
  0
LINE
  8
1
  6
CONTINUOUS
 62
     7
 10
53.5175027255292
 20
317.657835204682
 11
51.6859975370471
 21
318.5118801000219
  0
LINE
  8
1
  6
CONTINUOUS
 62
     7
 10
72.98395068856088
 20
333.4248674451491
 11
73.16007870746523
 21
331.4117149770906
  0
POLYLINE
  8
1
  6
CONTINUOUS
 62
     7
 66
     1
  0
VERTEX
  8
1
  6
CONTINUOUS
 62
     7
 10
54.82803261280031
 20
318.1041289210121
  0
VERTEX
  8
1
  6
CONTINUOUS
 62
     7
 10
54.80714529316614
 20
318.0658780604476
  0
VERTEX
  8
1
  6
CONTINUOUS
 62
     7
 10
54.78461215841732
 20
318.02857351737
  0
VERTEX
  8
1
  6
CONTINUOUS
 62
     7
 10
54.76028174340808
 20
317.9920106689418
  0
VERTEX
  8
1
  6
CONTINUOUS
 62
     7
 10
54.73437094888558
 20
317.9565518475489
  0
VERTEX
  8
1
  6
CONTINUOUS
 62
     7
 10
54.70842365700008
 20
317.9240615735568
  0
VERTEX
  8
1
  6
CONTINUOUS
 62
     7
 10
54.6811256744824
 20
317.8926521250421
  0
VERTEX
  8
1
  6
CONTINUOUS
 62
     7
 10
54.65254990166002
 20
317.8624035419053
  0
VERTEX
  8
1
  6
CONTINUOUS
 62
     7
 10
54.62276923886042
 20
317.8333958640468
  0
VERTEX
  8
1
  6
CONTINUOUS
 62
     7
 10
54.59088455606681
 20
317.8048675543773
  0
VERTEX
  8
1
  6
CONTINUOUS
 62
     7
 10
54.55778090277884
 20
317.7777062605533
  0
VERTEX
  8
1
  6
CONTINUOUS
 62
     7
 10
54.52355119332483
 20
317.7519843830413
  0
VERTEX
  8
1
  6
CONTINUOUS
 62
     7
 10
54.48828834203313
 20
317.7277743223079
  0
VERTEX
  8
1
  6
CONTINUOUS
 62
     7
 10
54.45291510828666
 20
317.7056353653134
  0
VERTEX
  8
1
  6
CONTINUOUS
 62
     7
 10
54.4166208030379
 20
317.6849753453247
  0
VERTEX
  8
1
  6
CONTINUOUS
 62
     7
 10
54.3795016043867
 20
317.6658458097599
  0
VERTEX
  8
1
  6
CONTINUOUS
 62
     7
 10
54.34165369043291
 20
317.6482983060372
  0
VERTEX
  8
1
  6
CONTINUOUS
 62
     7
 10
54.30196767210512
 20
317.631909473785
  0
VERTEX
  8
1
  6
CONTINUOUS
 62
     7
 10
54.26158177537251
 20
317.6172272808955
  0
VERTEX
  8
1
  6
CONTINUOUS
 62
     7
 10
54.22060854154436
 20
317.604289312477
  0
VERTEX
  8
1
  6
CONTINUOUS
 62
     7
 10
54.17916051192999
 20
317.5931331536375
  0
VERTEX
  8
1
  6
CONTINUOUS
 62
     7
 10
54.1384087717248
 20
317.584002626345
  0
VERTEX
  8
1
  6
CONTINUOUS
 62
     7
 10
54.09727962421837
 20
317.5765757614831
  0
VERTEX
  8
1
  6
CONTINUOUS
 62
     7
 10
54.05588078930706
 20
317.5708691884793
  0
VERTEX
  8
1
  6
CONTINUOUS
 62
     7
 10
54.01431998688731
 20
317.5668995367609
  0
VERTEX
  8
1
  6
CONTINUOUS
 62
     7
 10
53.97141144819697
 20
317.5646364698453
  0
VERTEX
  8
1
  6
CONTINUOUS
 62
     7
 10
53.92840943536613
 20
317.5642183516061
  0
VERTEX
  8
1
  6
CONTINUOUS
 62
     7
 10
53.8854324814379
 20
317.565643344102
  0
VERTEX
  8
1
  6
CONTINUOUS
 62
     7
 10
53.84259911945544
 20
317.5689096093917
  0
VERTEX
  8
1
  6
CONTINUOUS
 62
     7
 10
53.8011834520678
 20
317.5738452538536
  0
VERTEX
  8
1
  6
CONTINUOUS
 62
     7
 10
53.75997633957289
 20
317.5805089657469
  0
VERTEX
  8
1
  6
CONTINUOUS
 62
     7
 10
53.71908428578548
 20
317.5888809632403
  0
VERTEX
  8
1
  6
CONTINUOUS
 62
     7
 10
53.67861379452027
 20
317.5989414645024
  0
VERTEX
  8
1
  6
CONTINUOUS
 62
     7
 10
53.63744304021938
 20
317.6110540666161
  0
VERTEX
  8
1
  6
CONTINUOUS
 62
     7
 10
53.59679378077956
 20
317.6249342925156
  0
VERTEX
  8
1
  6
CONTINUOUS
 62
     7
 10
53.55677676096232
 20
317.6405415394534
  0
VERTEX
  8
1
  6
CONTINUOUS
 62
     7
 10
53.5175027255292
 20
317.657835204682
  0
SEQEND
  8
1
  6
CONTINUOUS
 62
     7
  0
POLYLINE
  8
1
  6
CONTINUOUS
 62
     7
 66
     1
  0
VERTEX
  8
1
  6
CONTINUOUS
 62
     7
 10
73.16007870746523
 20
331.4117149770906
  0
VERTEX
  8
1
  6
CONTINUOUS
 62
     7
 10
73.1630302323305
 20
331.3658596146363
  0
VERTEX
  8
1
  6
CONTINUOUS
 62
     7
 10
73.16387323179723
 20
331.3199164941663
  0
VERTEX
  8
1
  6
CONTINUOUS
 62
     7
 10
73.16258368445148
 20
331.2735904544546
  0
VERTEX
  8
1
  6
CONTINUOUS
 62
     7
 10
73.15915015177946
 20
331.2273722713266
  0
VERTEX
  8
1
  6
CONTINUOUS
 62
     7
 10
73.15425729306926
 20
331.1861607694883
  0
VERTEX
  8
1
  6
CONTINUOUS
 62
     7
 10
73.14765266860428
 20
331.1451506366398
  0
VERTEX
  8
1
  6
CONTINUOUS
 62
     7
 10
73.13935515941321
 20
331.1044469623103
  0
VERTEX
  8
1
  6
CONTINUOUS
 62
     7
 10
73.12938364652483
 20
331.0641548360297
  0
VERTEX
  8
1
  6
CONTINUOUS
 62
     7
 10
73.11738043073204
 20
331.0231672519641
  0
VERTEX
  8
1
  6
CONTINUOUS
 62
     7
 10
73.1036243636864
 20
330.9826896368404
  0
VERTEX
  8
1
  6
CONTINUOUS
 62
     7
 10
73.08815485373178
 20
330.9428316350076
  0
VERTEX
  8
1
  6
CONTINUOUS
 62
     7
 10
73.07101130921207
 20
330.9037028908152
  0
VERTEX
  8
1
  6
CONTINUOUS
 62
     7
 10
73.05283328807828
 20
330.8665607463199
  0
VERTEX
  8
1
  6
CONTINUOUS
 62
     7
 10
73.03311645305449
 20
330.830167401743
  0
VERTEX
  8
1
  6
CONTINUOUS
 62
     7
 10
73.01191273816214
 20
330.794615169778
  0
VERTEX
  8
1
  6
CONTINUOUS
 62
     7
 10
72.9892740774227
 20
330.7599963631178
  0
VERTEX
  8
1
  6
CONTINUOUS
 62
     7
 10
72.96450277501799
 20
330.7253913097277
  0
VERTEX
  8
1
  6
CONTINUOUS
 62
     7
 10
72.93825487472314
 20
330.691837636649
  0
VERTEX
  8
1
  6
CONTINUOUS
 62
     7
 10
72.91060310920899
 20
330.659425264912
  0
VERTEX
  8
1
  6
CONTINUOUS
 62
     7
 10
72.88162021114636
 20
330.6282441155464
  0
VERTEX
  8
1
  6
CONTINUOUS
 62
     7
 10
72.85223958990822
 20
330.5991903590818
  0
VERTEX
  8
1
  6
CONTINUOUS
 62
     7
 10
72.82165450827804
 20
330.5713486050081
  0
VERTEX
  8
1
  6
CONTINUOUS
 62
     7
 10
72.78994450882307
 20
330.5447889715452
  0
VERTEX
  8
1
  6
CONTINUOUS
 62
     7
 10
72.75718913411058
 20
330.5195815769133
  0
VERTEX
  8
1
  6
CONTINUOUS
 62
     7
 10
72.7224256783111
 20
330.4950872404358
  0
VERTEX
  8
1
  6
CONTINUOUS
 62
     7
 10
72.68661654462667
 20
330.4720702263294
  0
VERTEX
  8
1
  6
CONTINUOUS
 62
     7
 10
72.64986019006864
 20
330.4505914216621
  0
VERTEX
  8
1
  6
CONTINUOUS
 62
     7
 10
72.61225507164829
 20
330.4307117135014
  0
VERTEX
  8
1
  6
CONTINUOUS
 62
     7
 10
72.57489692194198
 20
330.4129333632235
  0
VERTEX
  8
1
  6
CONTINUOUS
 62
     7
 10
72.53680028648776
 20
330.3967006182376
  0
VERTEX
  8
1
  6
CONTINUOUS
 62
     7
 10
72.49806407527316
 20
330.3820535168928
  0
VERTEX
  8
1
  6
CONTINUOUS
 62
     7
 10
72.45878719828565
 20
330.3690320975385
  0
VERTEX
  8
1
  6
CONTINUOUS
 62
     7
 10
72.41784359496344
 20
330.3573482676732
  0
VERTEX
  8
1
  6
CONTINUOUS
 62
     7
 10
72.3764007696045
 20
330.347408615328
  0
VERTEX
  8
1
  6
CONTINUOUS
 62
     7
 10
72.33457240292711
 20
330.3392379680852
  0
VERTEX
  8
1
  6
CONTINUOUS
 62
     7
 10
72.29247217564959
 20
330.3328611535271
  0
SEQEND
  8
1
  6
CONTINUOUS
 62
     7
  0
ARC
  8
1
  6
CONTINUOUS
 62
     7
 10
75.25
 20
307.5238052947636
 40
23.0
 50
97.38801546326879
 51
152.6119845367313
  0
LINE
  8
1
  6
CONTINUOUS
 62
     7
 10
92.93853712939882
 20
288.4682115170332
 11
92.90657042458919
 21
288.3946174315836
  0
LINE
  8
1
  6
CONTINUOUS
 62
     7
 10
92.93853712939882
 20
288.4682115170332
 11
93.06480403821324
 21
288.5862036229557
  0
LINE
  8
1
  6
CONTINUOUS
 62
     7
 10
51.01675836789472
 20
322.9004109019839
 11
52.5026924670193
 21
325.0238052947636
  0
LINE
  8
1
  6
CONTINUOUS
 62
     7
 10
52.50269246702005
 20
325.0238052947636
 11
52.755556241596
 21
325.0238052947636
  0
LINE
  8
1
  6
CONTINUOUS
 62
     7
 10
51.01675836789472
 20
322.9004109019839
 11
51.01675836789472
 21
322.5238052947636
  0
LINE
  8
1
  6
CONTINUOUS
 62
     7
 10
98.41208763449507
 20
313.7300679714455
 11
100.3640714835158
 21
314.2531004674291
  0
LINE
  8
1
  6
CONTINUOUS
 62
     7
 10
93.63477631085024
 20
289.1390289839134
 11
92.20582495781316
 21
290.5679803369505
  0
POLYLINE
  8
1
  6
CONTINUOUS
 62
     7
 66
     1
  0
VERTEX
  8
1
  6
CONTINUOUS
 62
     7
 10
97.69503556794761
 20
312.54579477639
  0
VERTEX
  8
1
  6
CONTINUOUS
 62
     7
 10
97.68644900385428
 20
312.5885227458304
  0
VERTEX
  8
1
  6
CONTINUOUS
 62
     7
 10
97.67973148843936
 20
312.6315837035821
  0
VERTEX
  8
1
  6
CONTINUOUS
 62
     7
 10
97.67486752171148
 20
312.6752317597516
  0
VERTEX
  8
1
  6
CONTINUOUS
 62
     7
 10
97.67192385082677
 20
312.7190499305154
  0
VERTEX
  8
1
  6
CONTINUOUS
 62
     7
 10
97.67091628403219
 20
312.7606175220914
  0
VERTEX
  8
1
  6
CONTINUOUS
 62
     7
 10
97.6716381475159
 20
312.8022253605193
  0
VERTEX
  8
1
  6
CONTINUOUS
 62
     7
 10
97.67408504504341
 20
312.8437652722509
  0
VERTEX
  8
1
  6
CONTINUOUS
 62
     7
 10
97.67825258038025
 20
312.885129083738
  0
VERTEX
  8
1
  6
CONTINUOUS
 62
     7
 10
97.68434002047404
 20
312.9274781158704
  0
VERTEX
  8
1
  6
CONTINUOUS
 62
     7
 10
97.69223994698909
 20
312.9695634922411
  0
VERTEX
  8
1
  6
CONTINUOUS
 62
     7
 10
97.70192772154333
 20
313.011270026696
  0
VERTEX
  8
1
  6
CONTINUOUS
 62
     7
 10
97.71337870575468
 20
313.0524825330809
  0
VERTEX
  8
1
  6
CONTINUOUS
 62
     7
 10
97.72624552765389
 20
313.0921794344297
  0
VERTEX
  8
1
  6
CONTINUOUS
 62
     7
 10
97.74076857364194
 20
313.1313354576529
  0
VERTEX
  8
1
  6
CONTINUOUS
 62
     7
 10
97.75690730106162
 20
313.1698492930462
  0
VERTEX
  8
1
  6
CONTINUOUS
 62
     7
 10
97.77462116725572
 20
313.2076196309055
  0
VERTEX
  8
1
  6
CONTINUOUS
 62
     7
 10
97.79448788275624
 20
313.2456838856406
  0
VERTEX
  8
1
  6
CONTINUOUS
 62
     7
 10
97.81598774285627
 20
313.2828906519421
  0
VERTEX
  8
1
  6
CONTINUOUS
 62
     7
 10
97.839058695153
 20
313.3191387977879
  0
VERTEX
  8
1
  6
CONTINUOUS
 62
     7
 10
97.86363868724362
 20
313.3543271911554
  0
VERTEX
  8
1
  6
CONTINUOUS
 62
     7
 10
97.88898734156169
 20
313.3875162945277
  0
VERTEX
  8
1
  6
CONTINUOUS
 62
     7
 10
97.91572019974718
 20
313.419642909499
  0
VERTEX
  8
1
  6
CONTINUOUS
 62
     7
 10
97.94376543276195
 20
313.4506250561743
  0
VERTEX
  8
1
  6
CONTINUOUS
 62
     7
 10
97.97305121156784
 20
313.4803807546583
  0
VERTEX
  8
1
  6
CONTINUOUS
 62
     7
 10
98.00446638782066
 20
313.5096954415134
  0
VERTEX
  8
1
  6
CONTINUOUS
 62
     7
 10
98.03713907956914
 20
313.5376568997063
  0
VERTEX
  8
1
  6
CONTINUOUS
 62
     7
 10
98.07097730382833
 20
313.5641903456104
  0
VERTEX
  8
1
  6
CONTINUOUS
 62
     7
 10
98.10588907761321
 20
313.5892209955991
  0
VERTEX
  8
1
  6
CONTINUOUS
 62
     7
 10
98.1407878905795
 20
313.6120615504295
  0
VERTEX
  8
1
  6
CONTINUOUS
 62
     7
 10
98.17663772156277
 20
313.6334442723058
  0
VERTEX
  8
1
  6
CONTINUOUS
 62
     7
 10
98.21334426839147
 20
313.6533158556573
  0
VERTEX
  8
1
  6
CONTINUOUS
 62
     7
 10
98.25081322889397
 20
313.6716229949137
  0
VERTEX
  8
1
  6
CONTINUOUS
 62
     7
 10
98.29013768700493
 20
313.6888082541188
  0
VERTEX
  8
1
  6
CONTINUOUS
 62
     7
 10
98.33019886354353
 20
313.7043042245102
  0
VERTEX
  8
1
  6
CONTINUOUS
 62
     7
 10
98.37088582415763
 20
313.7180708242362
  0
VERTEX
  8
1
  6
CONTINUOUS
 62
     7
 10
98.41208763449507
 20
313.7300679714455
  0
SEQEND
  8
1
  6
CONTINUOUS
 62
     7
  0
POLYLINE
  8
1
  6
CONTINUOUS
 62
     7
 66
     1
  0
VERTEX
  8
1
  6
CONTINUOUS
 62
     7
 10
92.20582495781316
 20
290.5679803369504
  0
VERTEX
  8
1
  6
CONTINUOUS
 62
     7
 10
92.17408869976812
 20
290.6012103789326
  0
VERTEX
  8
1
  6
CONTINUOUS
 62
     7
 10
92.1439112561226
 20
290.6358629814561
  0
VERTEX
  8
1
  6
CONTINUOUS
 62
     7
 10
92.11512130236845
 20
290.6721796918048
  0
VERTEX
  8
1
  6
CONTINUOUS
 62
     7
 10
92.08804306553517
 20
290.7097919064202
  0
VERTEX
  8
1
  6
CONTINUOUS
 62
     7
 10
92.06530097000288
 20
290.7445068173508
  0
VERTEX
  8
1
  6
CONTINUOUS
 62
     7
 10
92.04399960060651
 20
290.7801677725038
  0
VERTEX
  8
1
  6
CONTINUOUS
 62
     7
 10
92.0241920438864
 20
290.8166821321376
  0
VERTEX
  8
1
  6
CONTINUOUS
 62
     7
 10
92.0059313863829
 20
290.8539572565109
  0
VERTEX
  8
1
  6
CONTINUOUS
 62
     7
 10
91.98878007195218
 20
290.8930710859092
  0
VERTEX
  8
1
  6
CONTINUOUS
 62
     7
 10
91.97329932120047
 20
290.9329209675004
  0
VERTEX
  8
1
  6
CONTINUOUS
 62
     7
 10
91.95952942361404
 20
290.9733975776449
  0
VERTEX
  8
1
  6
CONTINUOUS
 62
     7
 10
91.9475106686792
 20
291.0143915927032
  0
VERTEX
  8
1
  6
CONTINUOUS
 62
     7
 10
91.93756133047687
 20
291.0545287328528
  0
VERTEX
  8
1
  6
CONTINUOUS
 62
     7
 10
91.92927211141371
 20
291.0950813894879
  0
VERTEX
  8
1
  6
CONTINUOUS
 62
     7
 10
91.92266256517662
 20
291.1359454644373
  0
VERTEX
  8
1
  6
CONTINUOUS
 62
     7
 10
91.91775224545245
 20
291.1770168595299
  0
VERTEX
  8
1
  6
CONTINUOUS
 62
     7
 10
91.91448446445666
 20
291.2194485546448
  0
VERTEX
  8
1
  6
CONTINUOUS
 62
     7
 10
91.9130236373067
 20
291.2620239845427
  0
VERTEX
  8
1
  6
CONTINUOUS
 62
     7
 10
91.91337184766807
 20
291.3046275140587
  0
VERTEX
  8
1
  6
CONTINUOUS
 62
     7
 10
91.91553117920645
 20
291.3471435080277
  0
VERTEX
  8
1
  6
CONTINUOUS
 62
     7
 10
91.91936264617101
 20
291.388285476016
  0
VERTEX
  8
1
  6
CONTINUOUS
 62
     7
 10
91.92489584344564
 20
291.4292732085239
  0
VERTEX
  8
1
  6
CONTINUOUS
 62
     7
 10
91.9321149090117
 20
291.4700018629022
  0
VERTEX
  8
1
  6
CONTINUOUS
 62
     7
 10
91.94100398085057
 20
291.5103665965013
  0
VERTEX
  8
1
  6
CONTINUOUS
 62
     7
 10
91.95188967699416
 20
291.5514758655056
  0
VERTEX
  8
1
  6
CONTINUOUS
 62
     7
 10
91.96452601338646
 20
291.592125588705
  0
VERTEX
  8
1
  6
CONTINUOUS
 62
     7
 10
91.97887670503388
 20
291.6322058369524
  0
VERTEX
  8
1
  6
CONTINUOUS
 62
     7
 10
91.99490546694277
 20
291.6716066811011
  0
VERTEX
  8
1
  6
CONTINUOUS
 62
     7
 10
92.01209576665117
 20
291.7092390432913
  0
VERTEX
  8
1
  6
CONTINUOUS
 62
     7
 10
92.03084527519424
 20
291.7461620926251
  0
VERTEX
  8
1
  6
CONTINUOUS
 62
     7
 10
92.05110395928047
 20
291.782281579833
  0
VERTEX
  8
1
  6
CONTINUOUS
 62
     7
 10
92.07282178561834
 20
291.8175032556456
  0
VERTEX
  8
1
  6
CONTINUOUS
 62
     7
 10
92.09667618435348
 20
291.8527716294997
  0
VERTEX
  8
1
  6
CONTINUOUS
 62
     7
 10
92.12203414505478
 20
291.8870247795965
  0
VERTEX
  8
1
  6
CONTINUOUS
 62
     7
 10
92.14882454210195
 20
291.9201706143471
  0
VERTEX
  8
1
  6
CONTINUOUS
 62
     7
 10
92.17697624987473
 20
291.9521170421631
  0
SEQEND
  8
1
  6
CONTINUOUS
 62
     7
  0
ARC
  8
1
  6
CONTINUOUS
 62
     7
 10
75.25
 20
307.5238052947636
 40
23.0
 50
317.3880154632687
 51
12.6119845367312
  0
ENDBLK
  8
0
  0
BLOCK
  8
0
  2
D_FRAME_VIEW_2920
 70
     0
 10
0.0
 20
0.0
  0
ARC
  8
1
  6
CONTINUOUS
 62
     7
 10
144.4944477633304
 20
287.6437933785691
 40
2.495763253081359
 50
178.1396324761498
 51
231.4037403618067
  0
LINE
  8
1
  6
CONTINUOUS
 62
     7
 10
154.6
 20
330.2105304881449
 11
141.5
 21
330.2105304881449
  0
LINE
  8
1
  6
CONTINUOUS
 62
     7
 10
141.5
 20
330.2105304881449
 11
141.5
 21
287.7248154215403
  0
ARC
  8
1
  6
CONTINUOUS
 62
     7
 10
139.0055522366698
 20
287.6437933785691
 40
2.495763253081169
 50
308.5962596381897
 51
1.860367523851608
  0
LINE
  8
1
  6
CONTINUOUS
 62
     7
 10
129.4
 20
285.6932016589948
 11
129.4
 21
320.703621068727
  0
LINE
  8
1
  6
CONTINUOUS
 62
     7
 10
124.25
 20
322.5238052947636
 11
125.75
 21
325.0238052947636
  0
LINE
  8
1
  6
CONTINUOUS
 62
     7
 10
122.75
 20
325.0238052947636
 11
124.25
 21
322.5238052947636
  0
LINE
  8
1
  6
CONTINUOUS
 62
     7
 10
119.25
 20
320.7455625344862
 11
119.25
 21
288.4682115170332
  0
LINE
  8
1
  6
CONTINUOUS
 62
     7
 10
119.25
 20
322.5625394613702
 11
119.25
 21
322.5013787576769
  0
LINE
  8
1
  6
CONTINUOUS
 62
     7
 10
119.25
 20
326.6107111031268
 11
119.25
 21
322.5625394613702
  0
LINE
  8
1
  6
CONTINUOUS
 62
     7
 10
119.25
 20
326.7589074585638
 11
119.25
 21
326.6107111031268
  0
LINE
  8
1
  6
CONTINUOUS
 62
     7
 10
141.5
 20
326.9772754222242
 11
154.6
 21
326.9772754222242
  0
POLYLINE
  8
1
  6
CONTINUOUS
 62
     7
 66
     1
  0
VERTEX
  8
1
  6
CONTINUOUS
 62
     7
 10
123.75
 20
289.352138818396
  0
VERTEX
  8
1
  6
CONTINUOUS
 62
     7
 10
123.749741236514
 20
289.3432754768334
  0
VERTEX
  8
1
  6
CONTINUOUS
 62
     7
 10
123.7489667210385
 20
289.334423946066
  0
VERTEX
  8
1
  6
CONTINUOUS
 62
     7
 10
123.7476791160476
 20
289.3256070789808
  0
VERTEX
  8
1
  6
CONTINUOUS
 62
     7
 10
123.7458810840152
 20
289.3168477284648
  0
VERTEX
  8
1
  6
CONTINUOUS
 62
     7
 10
123.7434978497828
 20
289.3079018520305
  0
VERTEX
  8
1
  6
CONTINUOUS
 62
     7
 10
123.7405780113496
 20
289.2990329628432
  0
VERTEX
  8
1
  6
CONTINUOUS
 62
     7
 10
123.7371304366381
 20
289.2902650770844
  0
VERTEX
  8
1
  6
CONTINUOUS
 62
     7
 10
123.733163993571
 20
289.2816222109361
  0
VERTEX
  8
1
  6
CONTINUOUS
 62
     7
 10
123.7288147274168
 20
289.2733512296952
  0
VERTEX
  8
1
  6
CONTINUOUS
 62
     7
 10
123.7239831289238
 20
289.2652125134184
  0
VERTEX
  8
1
  6
CONTINUOUS
 62
     7
 10
123.7186825027776
 20
289.2572266053878
  0
VERTEX
  8
1
  6
CONTINUOUS
 62
     7
 10
123.7129261536639
 20
289.2494140488852
  0
VERTEX
  8
1
  6
CONTINUOUS
 62
     7
 10
123.7065317192433
 20
289.2415639286598
  0
VERTEX
  8
1
  6
CONTINUOUS
 62
     7
 10
123.6996664564823
 20
289.2339109492628
  0
VERTEX
  8
1
  6
CONTINUOUS
 62
     7
 10
123.6923499483236
 20
289.2264752254211
  0
VERTEX
  8
1
  6
CONTINUOUS
 62
     7
 10
123.6846017777102
 20
289.2192768718613
  0
VERTEX
  8
1
  6
CONTINUOUS
 62
     7
 10
123.6766447779855
 20
289.2124995441314
  0
VERTEX
  8
1
  6
CONTINUOUS
 62
     7
 10
123.6682922873749
 20
289.2059586550806
  0
VERTEX
  8
1
  6
CONTINUOUS
 62
     7
 10
123.6595664843934
 20
289.1996702291643
  0
VERTEX
  8
1
  6
CONTINUOUS
 62
     7
 10
123.6504895475559
 20
289.1936502908379
  0
VERTEX
  8
1
  6
CONTINUOUS
 62
     7
 10
123.6407928218676
 20
289.187743433783
  0
VERTEX
  8
1
  6
CONTINUOUS
 62
     7
 10
123.6307420225687
 20
289.1821305712664
  0
VERTEX
  8
1
  6
CONTINUOUS
 62
     7
 10
123.6203649560402
 20
289.1768259574233
  0
VERTEX
  8
1
  6
CONTINUOUS
 62
     7
 10
123.6096894286633
 20
289.1718438463886
  0
VERTEX
  8
1
  6
CONTINUOUS
 62
     7
 10
123.5989758077589
 20
289.1672909767182
  0
VERTEX
  8
1
  6
CONTINUOUS
 62
     7
 10
123.587995876126
 20
289.1630534839593
  0
VERTEX
  8
1
  6
CONTINUOUS
 62
     7
 10
123.5767782488251
 20
289.1591414259037
  0
VERTEX
  8
1
  6
CONTINUOUS
 62
     7
 10
123.5653515409166
 20
289.1555648603429
  0
VERTEX
  8
1
  6
CONTINUOUS
 62
     7
 10
123.5533880113943
 20
289.1522395002675
  0
VERTEX
  8
1
  6
CONTINUOUS
 62
     7
 10
123.5412246232246
 20
289.1492747234852
  0
VERTEX
  8
1
  6
CONTINUOUS
 62
     7
 10
123.5288945703773
 20
289.1466777390081
  0
VERTEX
  8
1
  6
CONTINUOUS
 62
     7
 10
123.5164310468224
 20
289.144455755848
  0
VERTEX
  8
1
  6
CONTINUOUS
 62
     7
 10
123.5030597390307
 20
289.1425105621337
  0
VERTEX
  8
1
  6
CONTINUOUS
 62
     7
 10
123.4895573214572
 20
289.140992121515
  0
VERTEX
  8
1
  6
CONTINUOUS
 62
     7
 10
123.4759651333501
 20
289.1399036005598
  0
VERTEX
  8
1
  6
CONTINUOUS
 62
     7
 10
123.4623245139579
 20
289.1392481658365
  0
VERTEX
  8
1
  6
CONTINUOUS
 62
     7
 10
123.4486768025291
 20
289.1390289839134
  0
SEQEND
  8
1
  6
CONTINUOUS
 62
     7
  0
LINE
  8
1
  6
CONTINUOUS
 62
     7
 10
123.75
 20
313.9632080935452
 11
123.75
 21
289.352138818396
  0
POLYLINE
  8
1
  6
CONTINUOUS
 62
     7
 66
     1
  0
VERTEX
  8
1
  6
CONTINUOUS
 62
     7
 10
123.4486768025291
 20
314.2531004674291
  0
VERTEX
  8
1
  6
CONTINUOUS
 62
     7
 10
123.4612458003576
 20
314.252847583128
  0
VERTEX
  8
1
  6
CONTINUOUS
 62
     7
 10
123.4738039435839
 20
314.2520906180953
  0
VERTEX
  8
1
  6
CONTINUOUS
 62
     7
 10
123.4863188738357
 20
314.2508321041374
  0
VERTEX
  8
1
  6
CONTINUOUS
 62
     7
 10
123.498758232741
 20
314.249074573061
  0
VERTEX
  8
1
  6
CONTINUOUS
 62
     7
 10
123.5114675689661
 20
314.2467450706737
  0
VERTEX
  8
1
  6
CONTINUOUS
 62
     7
 10
123.5240738276831
 20
314.2438906203397
  0
VERTEX
  8
1
  6
CONTINUOUS
 62
     7
 10
123.536542646482
 20
314.2405195207431
  0
VERTEX
  8
1
  6
CONTINUOUS
 62
     7
 10
123.5488396629529
 20
314.2366400705684
  0
VERTEX
  8
1
  6
CONTINUOUS
 62
     7
 10
123.5606146780848
 20
314.2323843619628
  0
VERTEX
  8
1
  6
CONTINUOUS
 62
     7
 10
123.5722064212843
 20
314.2276550581853
  0
VERTEX
  8
1
  6
CONTINUOUS
 62
     7
 10
123.5835849881307
 20
314.2224647164076
  0
VERTEX
  8
1
  6
CONTINUOUS
 62
     7
 10
123.5947204742033
 20
314.2168258938009
  0
VERTEX
  8
1
  6
CONTINUOUS
 62
     7
 10
123.6059158226874
 20
314.2105576371991
  0
VERTEX
  8
1
  6
CONTINUOUS
 62
     7
 10
123.6168327717682
 20
314.2038245512212
  0
VERTEX
  8
1
  6
CONTINUOUS
 62
     7
 10
123.6274413980743
 20
314.1966454420578
  0
VERTEX
  8
1
  6
CONTINUOUS
 62
     7
 10
123.6377117782342
 20
314.1890391158997
  0
VERTEX
  8
1
  6
CONTINUOUS
 62
     7
 10
123.6473323160419
 20
314.181264832537
  0
VERTEX
  8
1
  6
CONTINUOUS
 62
     7
 10
123.6566173926491
 20
314.173101948255
  0
VERTEX
  8
1
  6
CONTINUOUS
 62
     7
 10
123.6655430030236
 20
314.1645718715044
  0
VERTEX
  8
1
  6
CONTINUOUS
 62
     7
 10
123.6740851421333
 20
314.1556960107358
  0
VERTEX
  8
1
  6
CONTINUOUS
 62
     7
 10
123.682468008853
 20
314.1462051832137
  0
VERTEX
  8
1
  6
CONTINUOUS
 62
     7
 10
123.6904282271988
 20
314.1363642685152
  0
VERTEX
  8
1
  6
CONTINUOUS
 62
     7
 10
123.697943977741
 20
314.1262007386683
  0
VERTEX
  8
1
  6
CONTINUOUS
 62
     7
 10
123.7049934410504
 20
314.1157420657009
  0
VERTEX
  8
1
  6
CONTINUOUS
 62
     7
 10
123.7113536691468
 20
314.1053648772412
  0
VERTEX
  8
1
  6
CONTINUOUS
 62
     7
 10
123.7172664047547
 20
314.0947298335716
  0
VERTEX
  8
1
  6
CONTINUOUS
 62
     7
 10
123.7227165768584
 20
314.0838647673954
  0
VERTEX
  8
1
  6
CONTINUOUS
 62
     7
 10
123.7276891144426
 20
314.0727975114155
  0
VERTEX
  8
1
  6
CONTINUOUS
 62
     7
 10
123.7323021855467
 20
314.0612038985147
  0
VERTEX
  8
1
  6
CONTINUOUS
 62
     7
 10
123.7363998043257
 20
314.0494167324472
  0
VERTEX
  8
1
  6
CONTINUOUS
 62
     7
 10
123.7399711557802
 20
314.0374688104554
  0
VERTEX
  8
1
  6
CONTINUOUS
 62
     7
 10
123.743005424911
 20
314.025392929782
  0
VERTEX
  8
1
  6
CONTINUOUS
 62
     7
 10
123.7455129026714
 20
314.0131115772818
  0
VERTEX
  8
1
  6
CONTINUOUS
 62
     7
 10
123.7474700625374
 20
314.0007173252077
  0
VERTEX
  8
1
  6
CONTINUOUS
 62
     7
 10
123.748872941032
 20
313.98824526576
  0
VERTEX
  8
1
  6
CONTINUOUS
 62
     7
 10
123.7497175746785
 20
313.975730491139
  0
VERTEX
  8
1
  6
CONTINUOUS
 62
     7
 10
123.75
 20
313.9632080935452
  0
SEQEND
  8
1
  6
CONTINUOUS
 62
     7
  0
LINE
  8
1
  6
CONTINUOUS
 62
     7
 10
123.4486768025291
 20
314.2531004674291
 11
122.2513231974709
 21
314.2531004674291
  0
POLYLINE
  8
1
  6
CONTINUOUS
 62
     7
 66
     1
  0
VERTEX
  8
1
  6
CONTINUOUS
 62
     7
 10
121.95
 20
313.9632080935452
  0
VERTEX
  8
1
  6
CONTINUOUS
 62
     7
 10
121.950258763486
 20
313.9752167301379
  0
VERTEX
  8
1
  6
CONTINUOUS
 62
     7
 10
121.9510332789614
 20
313.9872134881047
  0
VERTEX
  8
1
  6
CONTINUOUS
 62
     7
 10
121.9523208839524
 20
313.9991673463269
  0
VERTEX
  8
1
  6
CONTINUOUS
 62
     7
 10
121.9541189159848
 20
314.0110472836863
  0
VERTEX
  8
1
  6
CONTINUOUS
 62
     7
 10
121.9565021502172
 20
314.0231844171276
  0
VERTEX
  8
1
  6
CONTINUOUS
 62
     7
 10
121.9594219886504
 20
314.0352212777682
  0
VERTEX
  8
1
  6
CONTINUOUS
 62
     7
 10
121.9628695633619
 20
314.0471251297618
  0
VERTEX
  8
1
  6
CONTINUOUS
 62
     7
 10
121.966836006429
 20
314.0588632372622
  0
VERTEX
  8
1
  6
CONTINUOUS
 62
     7
 10
121.9711852725832
 20
314.070100023653
  0
VERTEX
  8
1
  6
CONTINUOUS
 62
     7
 10
121.9760168710762
 20
314.0811606691161
  0
VERTEX
  8
1
  6
CONTINUOUS
 62
     7
 10
121.9813174972224
 20
314.0920170586147
  0
VERTEX
  8
1
  6
CONTINUOUS
 62
     7
 10
121.9870738463361
 20
314.1026410771119
  0
VERTEX
  8
1
  6
CONTINUOUS
 62
     7
 10
121.9934682807567
 20
314.1133194836107
  0
VERTEX
  8
1
  6
CONTINUOUS
 62
     7
 10
122.0003335435178
 20
314.123732893621
  0
VERTEX
  8
1
  6
CONTINUOUS
 62
     7
 10
122.0076500516764
 20
314.1338536740471
  0
VERTEX
  8
1
  6
CONTINUOUS
 62
     7
 10
122.0153982222898
 20
314.1436541917936
  0
VERTEX
  8
1
  6
CONTINUOUS
 62
     7
 10
122.0233552220145
 20
314.1528840415122
  0
VERTEX
  8
1
  6
CONTINUOUS
 62
     7
 10
122.0317077126251
 20
314.1617942320055
  0
VERTEX
  8
1
  6
CONTINUOUS
 62
     7
 10
122.0404335156066
 20
314.1703626731289
  0
VERTEX
  8
1
  6
CONTINUOUS
 62
     7
 10
122.0495104524441
 20
314.1785672747376
  0
VERTEX
  8
1
  6
CONTINUOUS
 62
     7
 10
122.0592071781324
 20
314.1866196616677
  0
VERTEX
  8
1
  6
CONTINUOUS
 62
     7
 10
122.0692579774313
 20
314.194273011427
  0
VERTEX
  8
1
  6
CONTINUOUS
 62
     7
 10
122.0796350439598
 20
314.2015076154188
  0
VERTEX
  8
1
  6
CONTINUOUS
 62
     7
 10
122.0903105713367
 20
314.208303765047
  0
VERTEX
  8
1
  6
CONTINUOUS
 62
     7
 10
122.1010241922411
 20
314.2145155539636
  0
VERTEX
  8
1
  6
CONTINUOUS
 62
     7
 10
122.112004123874
 20
314.2202980613424
  0
VERTEX
  8
1
  6
CONTINUOUS
 62
     7
 10
122.123221751175
 20
314.2256373467944
  0
VERTEX
  8
1
  6
CONTINUOUS
 62
     7
 10
122.1346484590835
 20
314.2305194699304
  0
VERTEX
  8
1
  6
CONTINUOUS
 62
     7
 10
122.1466119886058
 20
314.2350593028773
  0
VERTEX
  8
1
  6
CONTINUOUS
 62
     7
 10
122.1587753767755
 20
314.2391073685615
  0
VERTEX
  8
1
  6
CONTINUOUS
 62
     7
 10
122.1711054296227
 20
314.2426536573975
  0
VERTEX
  8
1
  6
CONTINUOUS
 62
     7
 10
122.1835689531777
 20
314.2456881598001
  0
VERTEX
  8
1
  6
CONTINUOUS
 62
     7
 10
122.1969402609693
 20
314.2483448531534
  0
VERTEX
  8
1
  6
CONTINUOUS
 62
     7
 10
122.2104426785429
 20
314.2504188321152
  0
VERTEX
  8
1
  6
CONTINUOUS
 62
     7
 10
122.2240348666499
 20
314.2519056951633
  0
VERTEX
  8
1
  6
CONTINUOUS
 62
     7
 10
122.2376754860421
 20
314.2528010407754
  0
VERTEX
  8
1
  6
CONTINUOUS
 62
     7
 10
122.2513231974709
 20
314.2531004674291
  0
SEQEND
  8
1
  6
CONTINUOUS
 62
     7
  0
LINE
  8
1
  6
CONTINUOUS
 62
     7
 10
121.95
 20
313.9632080935452
 11
121.95
 21
289.3521388183961
  0
POLYLINE
  8
1
  6
CONTINUOUS
 62
     7
 66
     1
  0
VERTEX
  8
1
  6
CONTINUOUS
 62
     7
 10
122.2513231974709
 20
289.1390289839134
  0
VERTEX
  8
1
  6
CONTINUOUS
 62
     7
 10
122.2387541996423
 20
289.139214102776
  0
VERTEX
  8
1
  6
CONTINUOUS
 62
     7
 10
122.2261960564161
 20
289.1397682452256
  0
VERTEX
  8
1
  6
CONTINUOUS
 62
     7
 10
122.2136811261643
 20
289.1406895900545
  0
VERTEX
  8
1
  6
CONTINUOUS
 62
     7
 10
122.201241767259
 20
289.1419763160553
  0
VERTEX
  8
1
  6
CONTINUOUS
 62
     7
 10
122.1885324310339
 20
289.1436818825131
  0
VERTEX
  8
1
  6
CONTINUOUS
 62
     7
 10
122.1759261723169
 20
289.1457719548994
  0
VERTEX
  8
1
  6
CONTINUOUS
 62
     7
 10
122.163457353518
 20
289.1482405591015
  0
VERTEX
  8
1
  6
CONTINUOUS
 62
     7
 10
122.1511603370471
 20
289.1510817210068
  0
VERTEX
  8
1
  6
CONTINUOUS
 62
     7
 10
122.1393853219152
 20
289.1541988002521
  0
VERTEX
  8
1
  6
CONTINUOUS
 62
     7
 10
122.1277935787157
 20
289.1576632169596
  0
VERTEX
  8
1
  6
CONTINUOUS
 62
     7
 10
122.1164150118693
 20
289.1614659175717
  0
VERTEX
  8
1
  6
CONTINUOUS
 62
     7
 10
122.1052795257967
 20
289.165597848531
  0
VERTEX
  8
1
  6
CONTINUOUS
 62
     7
 10
122.0940841773126
 20
289.1701917979556
  0
VERTEX
  8
1
  6
CONTINUOUS
 62
     7
 10
122.0831672282318
 20
289.1751273498458
  0
VERTEX
  8
1
  6
CONTINUOUS
 62
     7
 10
122.0725586019257
 20
289.1803909148015
  0
VERTEX
  8
1
  6
CONTINUOUS
 62
     7
 10
122.0622882217658
 20
289.1859689034228
  0
VERTEX
  8
1
  6
CONTINUOUS
 62
     7
 10
122.0526676839581
 20
289.1916713361199
  0
VERTEX
  8
1
  6
CONTINUOUS
 62
     7
 10
122.0433826073509
 20
289.1976601917895
  0
VERTEX
  8
1
  6
CONTINUOUS
 62
     7
 10
122.0344569969764
 20
289.2039199565765
  0
VERTEX
  8
1
  6
CONTINUOUS
 62
     7
 10
122.0259148578667
 20
289.210435116626
  0
VERTEX
  8
1
  6
CONTINUOUS
 62
     7
 10
122.017531991147
 20
289.2174035445949
  0
VERTEX
  8
1
  6
CONTINUOUS
 62
     7
 10
122.0095717728013
 20
289.2246310377728
  0
VERTEX
  8
1
  6
CONTINUOUS
 62
     7
 10
122.002056022259
 20
289.232097621417
  0
VERTEX
  8
1
  6
CONTINUOUS
 62
     7
 10
121.9950065589496
 20
289.2397833207846
  0
VERTEX
  8
1
  6
CONTINUOUS
 62
     7
 10
121.9886463308532
 20
289.2474114516171
  0
VERTEX
  8
1
  6
CONTINUOUS
 62
     7
 10
121.9827335952453
 20
289.2552314995942
  0
VERTEX
  8
1
  6
CONTINUOUS
 62
     7
 10
121.9772834231416
 20
289.2632231521546
  0
VERTEX
  8
1
  6
CONTINUOUS
 62
     7
 10
121.9723108855574
 20
289.2713660967367
  0
VERTEX
  8
1
  6
CONTINUOUS
 62
     7
 10
121.9676978144533
 20
289.2798991260895
  0
VERTEX
  8
1
  6
CONTINUOUS
 62
     7
 10
121.9636001956743
 20
289.2885775327671
  0
VERTEX
  8
1
  6
CONTINUOUS
 62
     7
 10
121.9600288442198
 20
289.2973772853036
  0
VERTEX
  8
1
  6
CONTINUOUS
 62
     7
 10
121.956994575089
 20
289.3062743522328
  0
VERTEX
  8
1
  6
CONTINUOUS
 62
     7
 10
121.9544870973286
 20
289.3153260086175
  0
VERTEX
  8
1
  6
CONTINUOUS
 62
     7
 10
121.9525299374626
 20
289.3244641193498
  0
VERTEX
  8
1
  6
CONTINUOUS
 62
     7
 10
121.951127058968
 20
289.3336628485062
  0
VERTEX
  8
1
  6
CONTINUOUS
 62
     7
 10
121.9502824253215
 20
289.3428963601627
  0
VERTEX
  8
1
  6
CONTINUOUS
 62
     7
 10
121.95
 20
289.352138818396
  0
SEQEND
  8
1
  6
CONTINUOUS
 62
     7
  0
LINE
  8
1
  6
CONTINUOUS
 62
     7
 10
122.2513231974709
 20
289.1390289839134
 11
123.4486768025291
 21
289.1390289839134
  0
LINE
  8
1
  6
CONTINUOUS
 62
     7
 10
148.95
 20
318.782730826928
 11
148.9434978497828
 21
318.7268821572832
  0
LINE
  8
1
  6
CONTINUOUS
 62
     7
 10
148.95
 20
326.9772754222242
 11
148.95
 21
318.782730826928
  0
LINE
  8
1
  6
CONTINUOUS
 62
     7
 10
147.15
 20
326.9772754222241
 11
147.15
 21
318.782730826928
  0
LINE
  8
1
  6
CONTINUOUS
 62
     7
 10
119.7295697427336
 20
320.5573761018002
 11
119.7061339962805
 21
320.5588953257979
  0
POLYLINE
  8
1
  6
CONTINUOUS
 62
     7
 66
     1
  0
VERTEX
  8
1
  6
CONTINUOUS
 62
     7
 10
119.7061339962805
 20
320.5588953257979
  0
VERTEX
  8
1
  6
CONTINUOUS
 62
     7
 10
119.6694295995209
 20
320.5643519949996
  0
VERTEX
  8
1
  6
CONTINUOUS
 62
     7
 10
119.634156248937
 20
320.5701133254153
  0
VERTEX
  8
1
  6
CONTINUOUS
 62
     7
 10
119.6002152091449
 20
320.5761860890352
  0
VERTEX
  8
1
  6
CONTINUOUS
 62
     7
 10
119.5677943681332
 20
320.5825269095964
  0
VERTEX
  8
1
  6
CONTINUOUS
 62
     7
 10
119.5363113681082
 20
320.5892528020869
  0
VERTEX
  8
1
  6
CONTINUOUS
 62
     7
 10
119.5064580291716
 20
320.5962191445741
  0
VERTEX
  8
1
  6
CONTINUOUS
 62
     7
 10
119.4781513376209
 20
320.6034335941727
  0
VERTEX
  8
1
  6
CONTINUOUS
 62
     7
 10
119.4515103397665
 20
320.6108539993247
  0
VERTEX
  8
1
  6
CONTINUOUS
 62
     7
 10
119.4275570696851
 20
320.6181397800969
  0
VERTEX
  8
1
  6
CONTINUOUS
 62
     7
 10
119.4051399492612
 20
320.6255845660946
  0
VERTEX
  8
1
  6
CONTINUOUS
 62
     7
 10
119.3840877011277
 20
320.633239831853
  0
VERTEX
  8
1
  6
CONTINUOUS
 62
     7
 10
119.3646165309251
 20
320.6410203505617
  0
VERTEX
  8
1
  6
CONTINUOUS
 62
     7
 10
119.346631178785
 20
320.6489530109689
  0
VERTEX
  8
1
  6
CONTINUOUS
 62
     7
 10
119.330218971752
 20
320.6569879321401
  0
VERTEX
  8
1
  6
CONTINUOUS
 62
     7
 10
119.3152387824407
 20
320.6651889739881
  0
VERTEX
  8
1
  6
CONTINUOUS
 62
     7
 10
119.3018218853973
 20
320.673481173099
  0
VERTEX
  8
1
  6
CONTINUOUS
 62
     7
 10
119.2897256903287
 20
320.6820333915554
  0
VERTEX
  8
1
  6
CONTINUOUS
 62
     7
 10
119.2792458895885
 20
320.6906595162205
  0
VERTEX
  8
1
  6
CONTINUOUS
 62
     7
 10
119.270358707794
 20
320.6993681565592
  0
VERTEX
  8
1
  6
CONTINUOUS
 62
     7
 10
119.2630825265934
 20
320.7081310634018
  0
VERTEX
  8
1
  6
CONTINUOUS
 62
     7
 10
119.2573607509421
 20
320.7170323688424
  0
VERTEX
  8
1
  6
CONTINUOUS
 62
     7
 10
119.2532749020395
 20
320.725970010426
  0
VERTEX
  8
1
  6
CONTINUOUS
 62
     7
 10
119.2508185909447
 20
320.7349530182865
  0
VERTEX
  8
1
  6
CONTINUOUS
 62
     7
 10
119.25
 20
320.7439540580414
  0
SEQEND
  8
1
  6
CONTINUOUS
 62
     7
  0
LINE
  8
1
  6
CONTINUOUS
 62
     7
 10
119.25
 20
320.7439540580414
 11
119.25
 21
322.5013787576768
  0
LINE
  8
1
  6
CONTINUOUS
 62
     7
 10
119.2510895163606
 20
326.7526898177931
 11
119.25
 21
326.7526898177931
  0
LINE
  8
1
  6
CONTINUOUS
 62
     7
 10
119.25
 20
326.7526898177931
 11
119.25
 21
335.0238052947636
  0
LINE
  8
1
  6
CONTINUOUS
 62
     7
 10
124.25
 20
322.9004109019839
 11
125.5501994777927
 21
325.0238052947636
  0
LINE
  8
1
  6
CONTINUOUS
 62
     7
 10
125.5501994777917
 20
325.0238052947636
 11
125.75
 21
325.0238052947636
  0
LINE
  8
1
  6
CONTINUOUS
 62
     7
 10
124.25
 20
322.9004109019839
 11
124.25
 21
322.5238052947636
  0
LINE
  8
1
  6
CONTINUOUS
 62
     7
 10
122.9498005225413
 20
325.0238052947661
 11
124.25
 21
322.9004109019839
  0
LINE
  8
1
  6
CONTINUOUS
 62
     7
 10
125.5501994777927
 20
325.0238052947636
 11
122.9498005225413
 21
325.0238052947661
  0
LINE
  8
1
  6
CONTINUOUS
 62
     7
 10
122.75
 20
325.0238052947636
 11
122.9498005225413
 21
325.0238052947636
  0
LINE
  8
1
  6
CONTINUOUS
 62
     7
 10
140.5624806739973
 20
285.6932016589948
 11
140.1580874814762
 21
285.57619472749
  0
LINE
  8
1
  6
CONTINUOUS
 62
     7
 10
164.25
 20
288.2949207717342
 11
154.7478460477258
 21
288.2949207717342
  0
LINE
  8
1
  6
CONTINUOUS
 62
     7
 10
129.4
 20
285.5761947052364
 11
129.4
 21
285.6932016589948
  0
LINE
  8
1
  6
CONTINUOUS
 62
     7
 10
154.6
 20
326.7526898177931
 11
154.1
 21
326.7526898177931
  0
LINE
  8
1
  6
CONTINUOUS
 62
     7
 10
142.9375193260027
 20
285.6932016589948
 11
143.3418623675139
 21
285.5761947186729
  0
LINE
  8
1
  6
CONTINUOUS
 62
     7
 10
128.9
 20
290.447184581051
 11
128.9
 21
291.732321039001
  0
LINE
  8
1
  6
CONTINUOUS
 62
     7
 10
119.25
 20
288.4682115170332
 11
119.25
 21
288.2949207717342
  0
LINE
  8
1
  6
CONTINUOUS
 62
     7
 10
148.7327207802172
 20
317.8400931386645
 11
148.7385535939808
 21
317.8606821001753
  0
LINE
  8
1
  6
CONTINUOUS
 62
     7
 10
147.3614464229487
 20
317.8606820285845
 11
147.3672789135142
 21
317.8400940632187
  0
LINE
  8
1
  6
CONTINUOUS
 62
     7
 10
147.1565615120279
 20
318.726625519413
 11
147.15
 21
318.7827308269281
  0
LINE
  8
1
  6
CONTINUOUS
 62
     7
 10
163.25
 20
336.0238052947636
 11
120.25
 21
336.0238052947636
  0
ARC
  8
1
  6
CONTINUOUS
 62
     7
 10
163.25
 20
335.0238052947636
 40
1.000000000000001
 50
0.0
 51
90.0
  0
LINE
  8
1
  6
CONTINUOUS
 62
     7
 10
119.7295775869675
 20
320.5573761010991
 11
129.4
 21
320.5573761010991
  0
ARC
  8
1
  6
CONTINUOUS
 62
     7
 10
120.25
 20
335.0238052947636
 40
1.000000000000001
 50
90.0
 51
179.9999999999998
  0
LINE
  8
1
  6
CONTINUOUS
 62
     7
 10
129.4
 20
285.5761947052364
 11
140.1579858682013
 21
285.5761947052364
  0
LINE
  8
1
  6
CONTINUOUS
 62
     7
 10
143.341942329908
 20
285.5761947052364
 11
154.1
 21
285.5761947052364
  0
LINE
  8
1
  6
CONTINUOUS
 62
     7
 10
147.6828759709971
 20
317.5641429917187
 11
148.4171186842857
 21
317.5641429917187
  0
POLYLINE
  8
1
  6
CONTINUOUS
 62
     7
 66
     1
  0
VERTEX
  8
1
  6
CONTINUOUS
 62
     7
 10
147.367278719659
 20
317.8400946484291
  0
VERTEX
  8
1
  6
CONTINUOUS
 62
     7
 10
147.3751848452093
 20
317.8138925519738
  0
VERTEX
  8
1
  6
CONTINUOUS
 62
     7
 10
147.3843719032128
 20
317.7879339489015
  0
VERTEX
  8
1
  6
CONTINUOUS
 62
     7
 10
147.3950910027512
 20
317.7622279433651
  0
VERTEX
  8
1
  6
CONTINUOUS
 62
     7
 10
147.4075987748429
 20
317.7368498073203
  0
VERTEX
  8
1
  6
CONTINUOUS
 62
     7
 10
147.4164909229105
 20
317.7211264500458
  0
VERTEX
  8
1
  6
CONTINUOUS
 62
     7
 10
147.4262521556757
 20
317.7056360801548
  0
VERTEX
  8
1
  6
CONTINUOUS
 62
     7
 10
147.436941288319
 20
317.6904379746033
  0
VERTEX
  8
1
  6
CONTINUOUS
 62
     7
 10
147.4486133350598
 20
317.6756019181032
  0
VERTEX
  8
1
  6
CONTINUOUS
 62
     7
 10
147.4613182677827
 20
317.6612081298542
  0
VERTEX
  8
1
  6
CONTINUOUS
 62
     7
 10
147.4724204285248
 20
317.6499120756292
  0
VERTEX
  8
1
  6
CONTINUOUS
 62
     7
 10
147.4842515196504
 20
317.6390200908263
  0
VERTEX
  8
1
  6
CONTINUOUS
 62
     7
 10
147.496827156369
 20
317.6285896369631
  0
VERTEX
  8
1
  6
CONTINUOUS
 62
     7
 10
147.5101584273468
 20
317.6186822025109
  0
VERTEX
  8
1
  6
CONTINUOUS
 62
     7
 10
147.5242512988291
 20
317.6093630742459
  0
VERTEX
  8
1
  6
CONTINUOUS
 62
     7
 10
147.5391045392226
 20
317.6007025499379
  0
VERTEX
  8
1
  6
CONTINUOUS
 62
     7
 10
147.5547096578399
 20
317.5927740847051
  0
VERTEX
  8
1
  6
CONTINUOUS
 62
     7
 10
147.5660741624239
 20
317.5876986017146
  0
VERTEX
  8
1
  6
CONTINUOUS
 62
     7
 10
147.5777945720749
 20
317.5830431843186
  0
VERTEX
  8
1
  6
CONTINUOUS
 62
     7
 10
147.5898624349589
 20
317.5788341340785
  0
VERTEX
  8
1
  6
CONTINUOUS
 62
     7
 10
147.6022672464304
 20
317.5750982042152
  0
VERTEX
  8
1
  6
CONTINUOUS
 62
     7
 10
147.6149963460311
 20
317.5718624880849
  0
VERTEX
  8
1
  6
CONTINUOUS
 62
     7
 10
147.6280348178407
 20
317.569154297823
  0
VERTEX
  8
1
  6
CONTINUOUS
 62
     7
 10
147.6413653951747
 20
317.5670010328104
  0
VERTEX
  8
1
  6
CONTINUOUS
 62
     7
 10
147.6549683706966
 20
317.5654300376606
  0
VERTEX
  8
1
  6
CONTINUOUS
 62
     7
 10
147.6688215130862
 20
317.5644684494774
  0
VERTEX
  8
1
  6
CONTINUOUS
 62
     7
 10
147.6828999914759
 20
317.564143034194
  0
SEQEND
  8
1
  6
CONTINUOUS
 62
     7
  0
POLYLINE
  8
1
  6
CONTINUOUS
 62
     7
 66
     1
  0
VERTEX
  8
1
  6
CONTINUOUS
 62
     7
 10
148.4171372269846
 20
317.5641430365738
  0
VERTEX
  8
1
  6
CONTINUOUS
 62
     7
 10
148.425924025053
 20
317.5642704082825
  0
VERTEX
  8
1
  6
CONTINUOUS
 62
     7
 10
148.4347698860097
 20
317.5646554060838
  0
VERTEX
  8
1
  6
CONTINUOUS
 62
     7
 10
148.4436681868706
 20
317.5653046995637
  0
VERTEX
  8
1
  6
CONTINUOUS
 62
     7
 10
148.4526121204017
 20
317.5662252217078
  0
VERTEX
  8
1
  6
CONTINUOUS
 62
     7
 10
148.4615946944853
 20
317.5674241471208
  0
VERTEX
  8
1
  6
CONTINUOUS
 62
     7
 10
148.4728662983229
 20
317.5693255896293
  0
VERTEX
  8
1
  6
CONTINUOUS
 62
     7
 10
148.4841726235593
 20
317.5716884584556
  0
VERTEX
  8
1
  6
CONTINUOUS
 62
     7
 10
148.4954987912363
 20
317.5745279987956
  0
VERTEX
  8
1
  6
CONTINUOUS
 62
     7
 10
148.5068294706018
 20
317.5778597581937
  0
VERTEX
  8
1
  6
CONTINUOUS
 62
     7
 10
148.5181488811609
 20
317.5816994948724
  0
VERTEX
  8
1
  6
CONTINUOUS
 62
     7
 10
148.5294407958255
 20
317.586063081955
  0
VERTEX
  8
1
  6
CONTINUOUS
 62
     7
 10
148.5406885452537
 20
317.5909664082337
  0
VERTEX
  8
1
  6
CONTINUOUS
 62
     7
 10
148.5518750234781
 20
317.5964252761907
  0
VERTEX
  8
1
  6
CONTINUOUS
 62
     7
 10
148.562982694931
 20
317.602455298023
  0
VERTEX
  8
1
  6
CONTINUOUS
 62
     7
 10
148.5739936029793
 20
317.6090717904792
  0
VERTEX
  8
1
  6
CONTINUOUS
 62
     7
 10
148.5848893800926
 20
317.6162896693707
  0
VERTEX
  8
1
  6
CONTINUOUS
 62
     7
 10
148.5956512597753
 20
317.6241233446793
  0
VERTEX
  8
1
  6
CONTINUOUS
 62
     7
 10
148.6077620100658
 20
317.6338478248623
  0
VERTEX
  8
1
  6
CONTINUOUS
 62
     7
 10
148.6196436708712
 20
317.6444140669413
  0
VERTEX
  8
1
  6
CONTINUOUS
 62
     7
 10
148.631266471709
 20
317.655840126952
  0
VERTEX
  8
1
  6
CONTINUOUS
 62
     7
 10
148.6426000889294
 20
317.6681424865248
  0
VERTEX
  8
1
  6
CONTINUOUS
 62
     7
 10
148.6536136924531
 20
317.6813358925028
  0
VERTEX
  8
1
  6
CONTINUOUS
 62
     7
 10
148.6642759987757
 20
317.6954332164531
  0
VERTEX
  8
1
  6
CONTINUOUS
 62
     7
 10
148.6745524086639
 20
317.710437092722
  0
VERTEX
  8
1
  6
CONTINUOUS
 62
     7
 10
148.6860027291348
 20
317.729071289789
  0
VERTEX
  8
1
  6
CONTINUOUS
 62
     7
 10
148.6968219922645
 20
317.7489167793761
  0
VERTEX
  8
1
  6
CONTINUOUS
 62
     7
 10
148.7069568121763
 20
317.7699625023351
  0
VERTEX
  8
1
  6
CONTINUOUS
 62
     7
 10
148.7163537350391
 20
317.792190996199
  0
VERTEX
  8
1
  6
CONTINUOUS
 62
     7
 10
148.7249594921776
 20
317.815578410183
  0
VERTEX
  8
1
  6
CONTINUOUS
 62
     7
 10
148.732721280341
 20
317.8400946484289
  0
SEQEND
  8
1
  6
CONTINUOUS
 62
     7
  0
LINE
  8
1
  6
CONTINUOUS
 62
     7
 10
147.1553060063385
 20
318.7319318685925
 11
147.3614464150641
 21
317.8606820619264
  0
LINE
  8
1
  6
CONTINUOUS
 62
     7
 10
148.738553584789
 20
317.8606820613051
 11
148.9447076226561
 21
318.7319894710353
  0
LINE
  8
1
  6
CONTINUOUS
 62
     7
 10
154.1
 20
320.5573761010991
 11
154.6
 21
320.5573761010991
  0
ENDBLK
  8
0
  0
ENDSEC
  0
SECTION
  2
ENTITIES
  0
LINE
  8
1
  6
CENTER
 62
     1
 10
44.75
 20
307.5238052947636
 11
105.75
 21
307.5238052947636
  0
LINE
  8
1
  6
CENTER
 62
     1
 10
75.25
 20
277.0238052947637
 11
75.25
 21
338.0238052947636
  0
TEXT
  8
1
  6
CONTINUOUS
 62
     1
 10
106.2541984494185
 20
270.9784200325121
 40
3.0
  1
FRAK-42
  0
LINE
  8
1
  6
CONTINUOUS
 62
     7
 10
128.9
 20
288.2949207717342
 11
128.9
 21
320.5573761010991
  0
LINE
  8
1
  6
CONTINUOUS
 62
     7
 10
154.6
 20
288.2949207717342
 11
154.6
 21
330.2105304881449
  0
LINE
  8
1
  6
CONTINUOUS
 62
     7
 10
154.1
 20
285.5761947052364
 11
154.1
 21
327.0034718724957
  0
LINE
  8
1
  6
CONTINUOUS
 62
     7
 10
142.0
 20
326.9772754222242
 11
142.0
 21
287.5627713355983
  0
LINE
  8
1
  6
CONTINUOUS
 62
     7
 10
128.9
 20
288.2949207717342
 11
119.25
 21
288.2949207717342
  0
LINE
  8
1
  6
CONTINUOUS
 62
     7
 10
164.25
 20
335.0238052947636
 11
164.25
 21
288.2949207717342
  0
INSERT
  8
1
  6
CONTINUOUS
 62
     7
  2
D_FRAME_VIEW_2738
 10
0.0
 20
0.0
 30
0.0
  0
INSERT
  8
1
  6
CONTINUOUS
 62
     7
  2
D_FRAME_VIEW_2920
 10
0.0
 20
0.0
 30
0.0
  0
ENDSEC
  0
EOF
