  0
SECTION
  2
HEADER
  9
$ACADVER
  1
AC1006
  9
$DWGCODEPAGE
  3
ansi_932
  9
$INSBASE
 10
0.0
 20
0.0
 30
0.0
  9
$EXTMIN
 10
94.76898988898658
 20
-136.4136363636364
  9
$EXTMAX
 10
180.6818619482306
 20
-85.17340135193707
  9
$LIMMIN
 10
0.0
 20
0.0
  9
$LIMMAX
 10
12.0
 20
9.0
  9
$ORTHOMODE
 70
     0
  9
$REGENMODE
 70
     1
  9
$FILLMODE
 70
     1
  9
$QTEXTMODE
 70
     0
  9
$MIRRTEXT
 70
     1
  9
$DRAGMODE
 70
     2
  9
$LTSCALE
 40
1.0
  9
$OSMODE
 70
    37
  9
$ATTMODE
 70
     1
  9
$TEXTSIZE
 40
0.2
  9
$TRACEWID
 40
0.05
  9
$TEXTSTYLE
  7
STANDARD
  9
$CLAYER
  8
0
  9
$CELTYPE
  6
BYLAYER
  9
$CECOLOR
 62
   256
  9
$DIMSCALE
 40
1.0
  9
$DIMASZ
 40
3.0
  9
$DIMEXO
 40
0.0625
  9
$DIMDLI
 40
0.38
  9
$DIMRND
 40
0.0
  9
$DIMDLE
 40
0.0
  9
$DIMEXE
 40
1.5
  9
$DIMTP
 40
0.0
  9
$DIMTM
 40
0.0
  9
$DIMTXT
 40
3.0
  9
$DIMCEN
 40
0.09
  9
$DIMTSZ
 40
0.0
  9
$DIMTOL
 70
     0
  9
$DIMLIM
 70
     0
  9
$DIMTIH
 70
     1
  9
$DIMTOH
 70
     1
  9
$DIMSE1
 70
     0
  9
$DIMSE2
 70
     0
  9
$DIMTAD
 70
     1
  9
$DIMZIN
 70
     0
  9
$DIMBLK
  1

  9
$DIMASO
 70
     1
  9
$DIMSHO
 70
     1
  9
$DIMPOST
  1

  9
$DIMAPOST
  1

  9
$DIMALT
 70
     0
  9
$DIMALTD
 70
     2
  9
$DIMALTF
 40
25.4
  9
$DIMLFAC
 40
1.0
  9
$DIMTOFL
 70
     0
  9
$DIMTVP
 40
0.0
  9
$DIMTIX
 70
     0
  9
$DIMSOXD
 70
     0
  9
$DIMSAH
 70
     0
  9
$DIMBLK1
  1

  9
$DIMBLK2
  1

  9
$LUNITS
 70
     2
  9
$LUPREC
 70
     4
  9
$SKETCHINC
 40
0.1
  9
$FILLETRAD
 40
0.5
  9
$AUNITS
 70
     0
  9
$AUPREC
 70
     0
  9
$MENU
  1
.
  9
$ELEVATION
 40
0.0
  9
$THICKNESS
 40
0.0
  9
$LIMCHECK
 70
     0
  9
$CHAMFERA
 40
0.0
  9
$CHAMFERB
 40
0.0
  9
$SKPOLY
 70
     0
  9
$TDCREATE
 40
2460445.724029259
  9
$TDUPDATE
 40
2460445.724029479
  9
$TDINDWG
 40
0.0000000116
  9
$TDUSRTIMER
 40
0.0000000116
  9
$USRTIMER
 70
     1
  9
$ANGBASE
 50
0.0
  9
$ANGDIR
 70
     0
  9
$PDMODE
 70
     0
  9
$PDSIZE
 40
0.0
  9
$PLINEWID
 40
0.0
  9
$COORDS
 70
     1
  9
$SPLFRAME
 70
     0
  9
$SPLINETYPE
 70
     6
  9
$SPLINESEGS
 70
     8
  9
$ATTDIA
 70
     0
  9
$ATTREQ
 70
     1
  9
$HANDLING
 70
     1
  9
$HANDSEED
  5
225
  9
$SURFTAB1
 70
     6
  9
$SURFTAB2
 70
     6
  9
$SURFTYPE
 70
     6
  9
$SURFU
 70
     6
  9
$SURFV
 70
     6
  9
$UCSNAME
  2

  9
$UCSORG
 10
0.0
 20
0.0
 30
0.0
  9
$UCSXDIR
 10
1.0
 20
0.0
 30
0.0
  9
$UCSYDIR
 10
0.0
 20
1.0
 30
0.0
  9
$USERI1
 70
     0
  9
$USERI2
 70
     0
  9
$USERI3
 70
     0
  9
$USERI4
 70
     0
  9
$USERI5
 70
     0
  9
$USERR1
 40
0.0
  9
$USERR2
 40
0.0
  9
$USERR3
 40
0.0
  9
$USERR4
 40
0.0
  9
$USERR5
 40
0.0
  9
$WORLDVIEW
 70
     1
  0
ENDSEC
  0
SECTION
  2
TABLES
  0
TABLE
  2
VPORT
 70
     1
  0
VPORT
  2
*ACTIVE
 70
     0
 10
0.0
 20
0.0
 11
1.0
 21
1.0
 12
137.7254259186086
 22
-110.7935188577868
 13
0.0
 23
0.0
 14
0.5
 24
0.5
 15
0.5
 25
0.5
 16
0.0
 26
0.0
 36
1.0
 17
0.0
 27
0.0
 37
0.0
 40
51.24023501169934
 41
1.6
 42
50.0
 43
0.0
 44
0.0
 50
0.0
 51
0.0
 71
     0
 72
   100
 73
     1
 74
     3
 75
     0
 76
     0
 77
     0
 78
     0
  0
ENDTAB
  0
TABLE
  2
LTYPE
 70
     2
  0
LTYPE
  2
CONTINUOUS
 70
     0
  3
Solid line
 72
    65
 73
     0
 40
0.0
  0
LTYPE
  2
CENTER
 70
     0
  3

 72
    65
 73
     0
 40
0.0
  0
ENDTAB
  0
TABLE
  2
LAYER
 70
     2
  0
LAYER
  2
0
 70
     0
 62
     7
  6
CONTINUOUS
  0
LAYER
  2
図面枠
 70
     0
 62
     7
  6
CONTINUOUS
  0
ENDTAB
  0
TABLE
  2
STYLE
 70
     2
  0
STYLE
  2
STANDARD
 70
     0
 40
0.0
 41
1.0
 50
0.0
 71
     0
 42
0.2
  3
txt
  4

  0
STYLE
  2
ＭＳ_ゴシック
 70
     0
 40
0.0
 41
1.0
 50
0.0
 71
     0
 42
0.2
  3
ＭＳ ゴシック.shx
  4

  0
ENDTAB
  0
TABLE
  2
VIEW
 70
     0
  0
ENDTAB
  0
TABLE
  2
UCS
 70
     0
  0
ENDTAB
  0
ENDSEC
  0
SECTION
  2
BLOCKS
  0
ENDSEC
  0
SECTION
  2
ENTITIES
  0
ARC
  5
70
  8
図面枠
  6
CONTINUOUS
 62
     7
 10
114.0189898889866
 20
-104.4234013519371
 30
0.0
 40
18.25
 50
1.188688915142165
 51
358.8113110848578
  0
LINE
  5
71
  8
図面枠
  6
CONTINUOUS
 62
     7
 10
132.2650624589567
 20
-104.0448042423562
 30
0.0
 11
130.2651662680132
 21
-104.0709058745827
 31
0.0
  0
LINE
  5
72
  8
図面枠
  6
CONTINUOUS
 62
     7
 10
130.2651662680133
 20
-104.7758968292915
 30
0.0
 11
132.2650624589567
 21
-104.801998461518
 31
0.0
  0
LINE
  5
73
  8
図面枠
  6
CONTINUOUS
 62
     7
 10
130.2651662680133
 20
-104.0709058745827
 30
0.0
 11
125.5711519876342
 21
-104.1441945048176
 31
0.0
  0
LINE
  5
74
  8
図面枠
  6
CONTINUOUS
 62
     7
 10
132.2653112814887
 20
-104.056992234259
 30
0.0
 11
132.2650624589567
 21
-104.0448042423562
 31
0.0
  0
LINE
  5
75
  8
図面枠
  6
CONTINUOUS
 62
     7
 10
128.5170748979959
 20
-104.1877510357049
 30
0.0
 11
132.2653112814887
 21
-104.056992234259
 31
0.0
  0
LINE
  5
76
  8
図面枠
  6
CONTINUOUS
 62
     7
 10
128.1397911076237
 20
-104.2011575833774
 30
0.0
 11
128.5170748979959
 21
-104.187751035705
 31
0.0
  0
LINE
  5
77
  8
図面枠
  6
CONTINUOUS
 62
     7
 10
126.0711224533892
 20
-104.2734013519371
 30
0.0
 11
125.7651972740424
 21
-104.2734013519371
 31
0.0
  0
LINE
  5
78
  8
図面枠
  6
CONTINUOUS
 62
     7
 10
125.5711519876342
 20
-104.2734029176348
 30
0.0
 11
125.7669830979548
 21
-104.278287407162
 31
0.0
  0
LINE
  5
79
  8
図面枠
  6
CONTINUOUS
 62
     7
 10
128.5170748979959
 20
-104.6590516681692
 30
0.0
 11
128.1397911076265
 21
-104.6456451204968
 31
0.0
  0
LINE
  5
7A
  8
図面枠
  6
CONTINUOUS
 62
     7
 10
132.2653112814887
 20
-104.7898104696152
 30
0.0
 11
128.5170748979959
 21
-104.6590516681692
 31
0.0
  0
LINE
  5
7B
  8
図面枠
  6
CONTINUOUS
 62
     7
 10
132.2650624589567
 20
-104.801998461518
 30
0.0
 11
132.2653112814887
 21
-104.7898104696152
 31
0.0
  0
LINE
  5
7C
  8
図面枠
  6
CONTINUOUS
 62
     7
 10
125.5711519876342
 20
-104.7026081990565
 30
0.0
 11
130.2651662680132
 21
-104.7758968292915
 31
0.0
  0
LINE
  5
7D
  8
図面枠
  6
CONTINUOUS
 62
     7
 10
125.7669830979548
 20
-104.5685152967121
 30
0.0
 11
125.5711519876344
 21
-104.5733997862393
 31
0.0
  0
LINE
  5
7E
  8
図面枠
  6
CONTINUOUS
 62
     7
 10
126.0711224533892
 20
-104.5734013519371
 30
0.0
 11
125.7651972740424
 21
-104.5734013519371
 31
0.0
  0
LINE
  5
7F
  8
図面枠
  6
CONTINUOUS
 62
     7
 10
124.5627037153291
 20
-104.7026081990565
 30
0.0
 11
125.5711519876342
 21
-104.7026081990565
 31
0.0
  0
LINE
  5
80
  8
図面枠
  6
CONTINUOUS
 62
     7
 10
125.5711519876342
 20
-104.1441945048176
 30
0.0
 11
124.5627037153291
 21
-104.1441945048176
 31
0.0
  0
LINE
  5
81
  8
図面枠
  6
CONTINUOUS
 62
     7
 10
115.4752760626441
 20
-104.1441945048176
 30
0.0
 11
112.5627037153291
 21
-104.1441945048176
 31
0.0
  0
LINE
  5
82
  8
図面枠
  6
CONTINUOUS
 62
     7
 10
112.5627037153291
 20
-104.7026081990565
 30
0.0
 11
115.4752760626441
 21
-104.7026081990565
 31
0.0
  0
LINE
  5
83
  8
図面枠
  6
CONTINUOUS
 62
     7
 10
124.5627037153291
 20
-104.1441945048176
 30
0.0
 11
124.0627798677509
 21
-104.1613501638323
 31
0.0
  0
LINE
  5
84
  8
図面枠
  6
CONTINUOUS
 62
     7
 10
115.9751999102223
 20
-104.1613501638323
 30
0.0
 11
115.4752760626441
 21
-104.1441945048176
 31
0.0
  0
LINE
  5
85
  8
図面枠
  6
CONTINUOUS
 62
     7
 10
120.6756800927891
 20
-104.58039614223
 30
0.0
 11
124.0102676730994
 21
-104.58039614223
 31
0.0
  0
LINE
  5
86
  8
図面枠
  6
CONTINUOUS
 62
     7
 10
125.5669169583398
 20
-104.5734013519371
 30
0.0
 11
120.6686853024961
 21
-104.5734013519371
 31
0.0
  0
LINE
  5
87
  8
図面枠
  6
CONTINUOUS
 62
     7
 10
125.5711519876342
 20
-104.5733997862393
 30
0.0
 11
125.5669169583399
 21
-104.5734013519371
 31
0.0
  0
LINE
  5
88
  8
図面枠
  6
CONTINUOUS
 62
     7
 10
124.0627798677509
 20
-104.6854525400418
 30
0.0
 11
124.5627037153291
 21
-104.7026081990565
 31
0.0
  0
LINE
  5
89
  8
図面枠
  6
CONTINUOUS
 62
     7
 10
124.0102676730994
 20
-104.58039614223
 30
0.0
 11
124.0627798677509
 21
-104.6854525400418
 31
0.0
  0
LINE
  5
8A
  8
図面枠
  6
CONTINUOUS
 62
     7
 10
112.0627798677509
 20
-104.6854525400418
 30
0.0
 11
112.5627037153291
 21
-104.7026081990565
 31
0.0
  0
LINE
  5
8B
  8
図面枠
  6
CONTINUOUS
 62
     7
 10
115.4752760626441
 20
-104.7026081990565
 30
0.0
 11
115.9751999102223
 21
-104.6854525400418
 31
0.0
  0
LINE
  5
8C
  8
図面枠
  6
CONTINUOUS
 62
     7
 10
125.5669169583398
 20
-104.2734013519371
 30
0.0
 11
125.5711519876342
 21
-104.2734029176348
 31
0.0
  0
LINE
  5
8D
  8
図面枠
  6
CONTINUOUS
 62
     7
 10
125.5669169583398
 20
-104.2734013519371
 30
0.0
 11
120.6686853024961
 21
-104.2734013519371
 31
0.0
  0
LINE
  5
8E
  8
図面枠
  6
CONTINUOUS
 62
     7
 10
124.0102676730994
 20
-104.2664065616441
 30
0.0
 11
120.6756800927891
 21
-104.2664065616441
 31
0.0
  0
LINE
  5
8F
  8
図面枠
  6
CONTINUOUS
 62
     7
 10
124.0627798677509
 20
-104.1613501638323
 30
0.0
 11
124.0102676730994
 21
-104.2664065616441
 31
0.0
  0
LINE
  5
90
  8
図面枠
  6
CONTINUOUS
 62
     7
 10
116.0277121048737
 20
-104.2664065616441
 30
0.0
 11
115.9751999102223
 21
-104.1613501638323
 31
0.0
  0
LINE
  5
91
  8
図面枠
  6
CONTINUOUS
 62
     7
 10
119.3622996851841
 20
-104.2664065616441
 30
0.0
 11
116.0277121048737
 21
-104.2664065616441
 31
0.0
  0
LINE
  5
92
  8
図面枠
  6
CONTINUOUS
 62
     7
 10
119.369294475477
 20
-104.2734013519371
 30
0.0
 11
108.6686853024961
 21
-104.2734013519371
 31
0.0
  0
LINE
  5
93
  8
図面枠
  6
CONTINUOUS
 62
     7
 10
112.0102676730994
 20
-104.2664065616441
 30
0.0
 11
108.6756800927891
 21
-104.2664065616441
 31
0.0
  0
LINE
  5
94
  8
図面枠
  6
CONTINUOUS
 62
     7
 10
112.0627798677509
 20
-104.1613501638323
 30
0.0
 11
112.0102676730994
 21
-104.2664065616441
 31
0.0
  0
LINE
  5
95
  8
図面枠
  6
CONTINUOUS
 62
     7
 10
112.5627037153291
 20
-104.1441945048176
 30
0.0
 11
112.0627798677509
 21
-104.1613501638323
 31
0.0
  0
LINE
  5
96
  8
図面枠
  6
CONTINUOUS
 62
     7
 10
108.6756800927891
 20
-104.58039614223
 30
0.0
 11
112.0102676730994
 21
-104.58039614223
 31
0.0
  0
LINE
  5
97
  8
図面枠
  6
CONTINUOUS
 62
     7
 10
119.369294475477
 20
-104.5734013519371
 30
0.0
 11
108.6686853024961
 21
-104.5734013519371
 31
0.0
  0
LINE
  5
98
  8
図面枠
  6
CONTINUOUS
 62
     7
 10
116.0277121048737
 20
-104.58039614223
 30
0.0
 11
119.3622996851841
 21
-104.58039614223
 31
0.0
  0
LINE
  5
99
  8
図面枠
  6
CONTINUOUS
 62
     7
 10
115.9751999102223
 20
-104.6854525400418
 30
0.0
 11
116.0277121048737
 21
-104.58039614223
 31
0.0
  0
LINE
  5
9A
  8
図面枠
  6
CONTINUOUS
 62
     7
 10
112.0102676730994
 20
-104.58039614223
 30
0.0
 11
112.0627798677509
 21
-104.6854525400418
 31
0.0
  0
LINE
  5
9B
  8
図面枠
  6
CONTINUOUS
 62
     7
 10
124.0189898889866
 20
-103.2489568132928
 30
0.0
 11
124.0102676730994
 21
-104.2664065616441
 31
0.0
  0
LINE
  5
9C
  8
図面枠
  6
CONTINUOUS
 62
     7
 10
124.0189898889866
 20
-103.2489568132928
 30
0.0
 11
124.0189898889866
 21
-99.67340135193709
 31
0.0
  0
LINE
  5
9D
  8
図面枠
  6
CONTINUOUS
 62
     7
 10
116.0189898889866
 20
-99.67340135193709
 30
0.0
 11
116.0189898889866
 21
-103.2489568132928
 31
0.0
  0
LINE
  5
9E
  8
図面枠
  6
CONTINUOUS
 62
     7
 10
116.0277121048737
 20
-104.2664065616441
 30
0.0
 11
116.0189898889866
 21
-103.2489568132928
 31
0.0
  0
LINE
  5
9F
  8
図面枠
  6
CONTINUOUS
 62
     7
 10
112.0189898889866
 20
-103.2489568132928
 30
0.0
 11
112.0102676730994
 21
-104.2664065616441
 31
0.0
  0
LINE
  5
A0
  8
図面枠
  6
CONTINUOUS
 62
     7
 10
112.0189898889866
 20
-99.67340135193709
 30
0.0
 11
112.0189898889866
 21
-103.2489568132928
 31
0.0
  0
LINE
  5
A1
  8
図面枠
  6
CONTINUOUS
 62
     7
 10
112.0189898889866
 20
-105.5978458905813
 30
0.0
 11
112.0189898889866
 21
-109.1734013519371
 31
0.0
  0
LINE
  5
A2
  8
図面枠
  6
CONTINUOUS
 62
     7
 10
112.0102676730994
 20
-104.58039614223
 30
0.0
 11
112.0189898889866
 21
-105.5978458905813
 31
0.0
  0
LINE
  5
A3
  8
図面枠
  6
CONTINUOUS
 62
     7
 10
116.0189898889866
 20
-105.5978458905813
 30
0.0
 11
116.0277121048737
 21
-104.58039614223
 31
0.0
  0
LINE
  5
A4
  8
図面枠
  6
CONTINUOUS
 62
     7
 10
116.0189898889866
 20
-105.5978458905813
 30
0.0
 11
116.0189898889866
 21
-109.1734013519371
 31
0.0
  0
LINE
  5
A5
  8
図面枠
  6
CONTINUOUS
 62
     7
 10
124.0189898889866
 20
-109.1734013519371
 30
0.0
 11
124.0189898889866
 21
-105.5978458905813
 31
0.0
  0
LINE
  5
A6
  8
図面枠
  6
CONTINUOUS
 62
     7
 10
124.0102676730994
 20
-104.58039614223
 30
0.0
 11
124.0189898889866
 21
-105.5978458905813
 31
0.0
  0
ARC
  5
A7
  8
図面枠
  6
CONTINUOUS
 62
     7
 10
108.0189898889866
 20
-99.67340135193709
 30
0.0
 40
4.000000000000004
 50
0.0
 51
72.92572639734067
  0
LINE
  5
A8
  8
図面枠
  6
CONTINUOUS
 62
     7
 10
109.1934344276308
 20
-95.84970156957328
 30
0.0
 11
108.1759846792796
 21
-95.68521241637073
 31
0.0
  0
LINE
  5
A9
  8
図面枠
  6
CONTINUOUS
 62
     7
 10
108.1759846792796
 20
-95.68521241637067
 30
0.0
 11
108.1689898889866
 21
-95.68844201346758
 31
0.0
  0
ARC
  5
AA
  8
図面枠
  6
CONTINUOUS
 62
     7
 10
108.0189898889866
 20
-99.67340135193709
 30
0.0
 40
3.987781454550254
 50
87.84431644920902
 51
92.15568355079095
  0
LINE
  5
AB
  8
図面枠
  6
CONTINUOUS
 62
     7
 10
107.8689898889866
 20
-95.6884420134676
 30
0.0
 11
107.8619950986936
 21
-95.68521241637075
 31
0.0
  0
LINE
  5
AC
  8
図面枠
  6
CONTINUOUS
 62
     7
 10
107.8619950986936
 20
-95.68521241637073
 30
0.0
 11
106.8445453503424
 21
-95.84970156957328
 31
0.0
  0
ARC
  5
AD
  8
図面枠
  6
CONTINUOUS
 62
     7
 10
108.0189898889866
 20
-99.67340135193709
 30
0.0
 40
4.000000000000004
 50
107.0742736026593
 51
180.0
  0
ARC
  5
AE
  8
図面枠
  6
CONTINUOUS
 62
     7
 10
108.0189898889866
 20
-109.1734013519371
 30
0.0
 40
4.000000000000004
 50
180.0
 51
252.9257263973407
  0
LINE
  5
AF
  8
図面枠
  6
CONTINUOUS
 62
     7
 10
106.8445453503424
 20
-112.9971011343008
 30
0.0
 11
107.8619950986936
 21
-113.1615902875034
 31
0.0
  0
LINE
  5
B0
  8
図面枠
  6
CONTINUOUS
 62
     7
 10
107.8619950986936
 20
-113.1615902875034
 30
0.0
 11
107.8689898889866
 21
-113.1583606904065
 31
0.0
  0
ARC
  5
B1
  8
図面枠
  6
CONTINUOUS
 62
     7
 10
108.0189898889866
 20
-109.1734013519371
 30
0.0
 40
3.987781454550254
 50
267.8443164492091
 51
272.155683550791
  0
LINE
  5
B2
  8
図面枠
  6
CONTINUOUS
 62
     7
 10
108.1689898889866
 20
-113.1583606904065
 30
0.0
 11
108.1759846792795
 21
-113.1615902875034
 31
0.0
  0
LINE
  5
B3
  8
図面枠
  6
CONTINUOUS
 62
     7
 10
108.1759846792796
 20
-113.1615902875034
 30
0.0
 11
109.1934344276308
 21
-112.9971011343008
 31
0.0
  0
ARC
  5
B4
  8
図面枠
  6
CONTINUOUS
 62
     7
 10
108.0189898889866
 20
-109.1734013519371
 30
0.0
 40
3.99999999999999
 50
287.0742736026593
 51
0.0
  0
ARC
  5
B5
  8
図面枠
  6
CONTINUOUS
 62
     7
 10
120.0189898889866
 20
-109.1734013519371
 30
0.0
 40
3.99999999999999
 50
180.0
 51
252.9257263973407
  0
LINE
  5
B6
  8
図面枠
  6
CONTINUOUS
 62
     7
 10
118.8445453503423
 20
-112.9971011343008
 30
0.0
 11
119.8619950986936
 21
-113.1615902875034
 31
0.0
  0
LINE
  5
B7
  8
図面枠
  6
CONTINUOUS
 62
     7
 10
119.8619950986936
 20
-113.1615902875034
 30
0.0
 11
119.8689898889866
 21
-113.1583606904065
 31
0.0
  0
ARC
  5
B8
  8
図面枠
  6
CONTINUOUS
 62
     7
 10
120.0189898889866
 20
-109.1734013519371
 30
0.0
 40
3.987781454550254
 50
267.8443164492091
 51
272.1556835507909
  0
LINE
  5
B9
  8
図面枠
  6
CONTINUOUS
 62
     7
 10
120.1689898889866
 20
-113.1583606904065
 30
0.0
 11
120.1759846792795
 21
-113.1615902875034
 31
0.0
  0
LINE
  5
BA
  8
図面枠
  6
CONTINUOUS
 62
     7
 10
120.1759846792796
 20
-113.1615902875034
 30
0.0
 11
121.1934344276308
 21
-112.9971011343008
 31
0.0
  0
ARC
  5
BB
  8
図面枠
  6
CONTINUOUS
 62
     7
 10
120.0189898889866
 20
-109.1734013519371
 30
0.0
 40
3.99999999999999
 50
287.0742736026593
 51
0.0
  0
LINE
  5
BC
  8
図面枠
  6
CONTINUOUS
 62
     7
 10
104.0189898889866
 20
-103.2489568132928
 30
0.0
 11
104.0189898889866
 21
-99.67340135193709
 31
0.0
  0
LINE
  5
BD
  8
図面枠
  6
CONTINUOUS
 62
     7
 10
104.0277121048737
 20
-104.2664065616441
 30
0.0
 11
104.0189898889866
 21
-103.2489568132928
 31
0.0
  0
LINE
  5
BE
  8
図面枠
  6
CONTINUOUS
 62
     7
 10
104.0312084344363
 20
-104.2734013519371
 30
0.0
 11
104.0277121048737
 21
-104.2664065616441
 31
0.0
  0
LINE
  5
BF
  8
図面枠
  6
CONTINUOUS
 62
     7
 10
104.0312084344363
 20
-104.5734013519371
 30
0.0
 11
104.0312084344363
 21
-104.2734013519371
 31
0.0
  0
LINE
  5
C0
  8
図面枠
  6
CONTINUOUS
 62
     7
 10
104.0277121048737
 20
-104.58039614223
 30
0.0
 11
104.0312084344363
 21
-104.5734013519371
 31
0.0
  0
LINE
  5
C1
  8
図面枠
  6
CONTINUOUS
 62
     7
 10
104.0189898889866
 20
-105.5978458905813
 30
0.0
 11
104.0277121048737
 21
-104.58039614223
 31
0.0
  0
LINE
  5
C2
  8
図面枠
  6
CONTINUOUS
 62
     7
 10
104.0189898889866
 20
-109.1734013519371
 30
0.0
 11
104.0189898889866
 21
-105.5978458905813
 31
0.0
  0
ARC
  5
C3
  8
図面枠
  6
CONTINUOUS
 62
     7
 10
120.0189898889866
 20
-99.67340135193709
 30
0.0
 40
3.99999999999999
 50
0.0000000000000124
 51
72.92572639734071
  0
LINE
  5
C4
  8
図面枠
  6
CONTINUOUS
 62
     7
 10
121.1934344276308
 20
-95.84970156957328
 30
0.0
 11
120.1759846792796
 21
-95.68521241637073
 31
0.0
  0
LINE
  5
C5
  8
図面枠
  6
CONTINUOUS
 62
     7
 10
120.1759846792795
 20
-95.68521241637067
 30
0.0
 11
120.1689898889866
 21
-95.68844201346758
 31
0.0
  0
ARC
  5
C6
  8
図面枠
  6
CONTINUOUS
 62
     7
 10
120.0189898889866
 20
-99.67340135193709
 30
0.0
 40
3.987781454550254
 50
87.84431644920907
 51
92.15568355079064
  0
LINE
  5
C7
  8
図面枠
  6
CONTINUOUS
 62
     7
 10
119.8689898889866
 20
-95.6884420134676
 30
0.0
 11
119.8619950986936
 21
-95.68521241637069
 31
0.0
  0
LINE
  5
C8
  8
図面枠
  6
CONTINUOUS
 62
     7
 10
119.8619950986936
 20
-95.68521241637073
 30
0.0
 11
118.8445453503424
 21
-95.84970156957328
 31
0.0
  0
ARC
  5
C9
  8
図面枠
  6
CONTINUOUS
 62
     7
 10
120.0189898889866
 20
-99.67340135193709
 30
0.0
 40
3.99999999999999
 50
107.0742736026593
 51
180.0
  0
LINE
  5
CA
  8
図面枠
  6
CONTINUOUS
 62
     7
 10
116.0189898889866
 20
-103.2489568132928
 30
0.0
 11
118.8445453503424
 21
-103.2489568132928
 31
0.0
  0
LINE
  5
CB
  8
図面枠
  6
CONTINUOUS
 62
     7
 10
118.8445453503424
 20
-103.2489568132928
 30
0.0
 11
119.7131213429428
 21
-104.1175328058933
 31
0.0
  0
LINE
  5
CC
  8
図面枠
  6
CONTINUOUS
 62
     7
 10
119.3622996851841
 20
-104.2664065616441
 30
0.0
 11
119.4596503449928
 21
-104.2566407110532
 31
0.0
  0
LINE
  5
CD
  8
図面枠
  6
CONTINUOUS
 62
     7
 10
119.4596503449928
 20
-104.2566407110532
 30
0.0
 11
119.5529072952098
 21
-104.2277178755356
 31
0.0
  0
LINE
  5
CE
  8
図面枠
  6
CONTINUOUS
 62
     7
 10
119.5529072952098
 20
-104.2277178755356
 30
0.0
 11
119.6384922612337
 21
-104.1807478259715
 31
0.0
  0
LINE
  5
CF
  8
図面枠
  6
CONTINUOUS
 62
     7
 10
119.6384922612337
 20
-104.1807478259715
 30
0.0
 11
119.7131213429428
 21
-104.1175328058933
 31
0.0
  0
LINE
  5
D0
  8
図面枠
  6
CONTINUOUS
 62
     7
 10
121.1934344276308
 20
-105.5978458905813
 30
0.0
 11
121.1934344276308
 21
-112.9971011343008
 31
0.0
  0
LINE
  5
D1
  8
図面枠
  6
CONTINUOUS
 62
     7
 10
120.1759846792796
 20
-113.1615902875034
 30
0.0
 11
120.1759846792796
 21
-105.0800915557396
 31
0.0
  0
LINE
  5
D2
  8
図面枠
  6
CONTINUOUS
 62
     7
 10
120.3248584350304
 20
-104.7292698979809
 30
0.0
 11
120.2616434149521
 21
-104.8038989796899
 31
0.0
  0
LINE
  5
D3
  8
図面枠
  6
CONTINUOUS
 62
     7
 10
120.2616434149521
 20
-104.8038989796899
 30
0.0
 11
120.214673365388
 21
-104.8894839457139
 31
0.0
  0
LINE
  5
D4
  8
図面枠
  6
CONTINUOUS
 62
     7
 10
120.214673365388
 20
-104.8894839457139
 30
0.0
 11
120.1857505298704
 21
-104.9827408959309
 31
0.0
  0
LINE
  5
D5
  8
図面枠
  6
CONTINUOUS
 62
     7
 10
120.1857505298704
 20
-104.9827408959309
 30
0.0
 11
120.1759846792796
 21
-105.0800915557396
 31
0.0
  0
LINE
  5
D6
  8
図面枠
  6
CONTINUOUS
 62
     7
 10
121.1934344276308
 20
-105.5978458905813
 30
0.0
 11
120.3248584350304
 21
-104.7292698979809
 31
0.0
  0
LINE
  5
D7
  8
図面枠
  6
CONTINUOUS
 62
     7
 10
106.8445453503424
 20
-105.5978458905813
 30
0.0
 11
104.0189898889866
 21
-105.5978458905813
 31
0.0
  0
LINE
  5
D8
  8
図面枠
  6
CONTINUOUS
 62
     7
 10
106.8445453503424
 20
-112.9971011343008
 30
0.0
 11
106.8445453503424
 21
-105.5978458905813
 31
0.0
  0
LINE
  5
D9
  8
図面枠
  6
CONTINUOUS
 62
     7
 10
118.8445453503424
 20
-103.2489568132928
 30
0.0
 11
118.8445453503424
 21
-95.8497015695733
 31
0.0
  0
LINE
  5
DA
  8
図面枠
  6
CONTINUOUS
 62
     7
 10
119.8619950986936
 20
-95.68521241637073
 30
0.0
 11
119.8619950986936
 21
-103.7667111481345
 31
0.0
  0
LINE
  5
DB
  8
図面枠
  6
CONTINUOUS
 62
     7
 10
119.7131213429428
 20
-104.1175328058933
 30
0.0
 11
119.776336363021
 21
-104.0429037241842
 31
0.0
  0
LINE
  5
DC
  8
図面枠
  6
CONTINUOUS
 62
     7
 10
119.776336363021
 20
-104.0429037241842
 30
0.0
 11
119.8233064125852
 21
-103.9573187581603
 31
0.0
  0
LINE
  5
DD
  8
図面枠
  6
CONTINUOUS
 62
     7
 10
119.8233064125852
 20
-103.9573187581603
 30
0.0
 11
119.8522292481028
 21
-103.8640618079433
 31
0.0
  0
LINE
  5
DE
  8
図面枠
  6
CONTINUOUS
 62
     7
 10
119.8522292481028
 20
-103.8640618079433
 30
0.0
 11
119.8619950986936
 21
-103.7667111481345
 31
0.0
  0
LINE
  5
DF
  8
図面枠
  6
CONTINUOUS
 62
     7
 10
121.1934344276308
 20
-103.2489568132928
 30
0.0
 11
124.0189898889866
 21
-103.2489568132928
 31
0.0
  0
LINE
  5
E0
  8
図面枠
  6
CONTINUOUS
 62
     7
 10
120.3248584350304
 20
-104.1175328058933
 30
0.0
 11
120.3994875167394
 21
-104.1807478259715
 31
0.0
  0
LINE
  5
E1
  8
図面枠
  6
CONTINUOUS
 62
     7
 10
120.3994875167394
 20
-104.1807478259715
 30
0.0
 11
120.4850724827634
 21
-104.2277178755356
 31
0.0
  0
LINE
  5
E2
  8
図面枠
  6
CONTINUOUS
 62
     7
 10
120.4850724827634
 20
-104.2277178755356
 30
0.0
 11
120.5783294329804
 21
-104.2566407110532
 31
0.0
  0
LINE
  5
E3
  8
図面枠
  6
CONTINUOUS
 62
     7
 10
120.5783294329804
 20
-104.2566407110532
 30
0.0
 11
120.6756800927891
 21
-104.2664065616441
 31
0.0
  0
LINE
  5
E4
  8
図面枠
  6
CONTINUOUS
 62
     7
 10
121.1934344276308
 20
-103.2489568132928
 30
0.0
 11
120.3248584350304
 21
-104.1175328058933
 31
0.0
  0
LINE
  5
E5
  8
図面枠
  6
CONTINUOUS
 62
     7
 10
106.8445453503424
 20
-103.2489568132928
 30
0.0
 11
106.8445453503424
 21
-95.8497015695733
 31
0.0
  0
LINE
  5
E6
  8
図面枠
  6
CONTINUOUS
 62
     7
 10
104.0189898889866
 20
-103.2489568132928
 30
0.0
 11
106.8445453503424
 21
-103.2489568132928
 31
0.0
  0
LINE
  5
E7
  8
図面枠
  6
CONTINUOUS
 62
     7
 10
121.1934344276308
 20
-95.84970156957328
 30
0.0
 11
121.1934344276308
 21
-103.2489568132928
 31
0.0
  0
LINE
  5
E8
  8
図面枠
  6
CONTINUOUS
 62
     7
 10
120.1759846792796
 20
-103.7667111481345
 30
0.0
 11
120.1857505298704
 21
-103.8640618079433
 31
0.0
  0
LINE
  5
E9
  8
図面枠
  6
CONTINUOUS
 62
     7
 10
120.1857505298704
 20
-103.8640618079433
 30
0.0
 11
120.214673365388
 21
-103.9573187581603
 31
0.0
  0
LINE
  5
EA
  8
図面枠
  6
CONTINUOUS
 62
     7
 10
120.214673365388
 20
-103.9573187581603
 30
0.0
 11
120.2616434149521
 21
-104.0429037241842
 31
0.0
  0
LINE
  5
EB
  8
図面枠
  6
CONTINUOUS
 62
     7
 10
120.2616434149521
 20
-104.0429037241842
 30
0.0
 11
120.3248584350304
 21
-104.1175328058933
 31
0.0
  0
LINE
  5
EC
  8
図面枠
  6
CONTINUOUS
 62
     7
 10
120.1759846792796
 20
-103.7667111481345
 30
0.0
 11
120.1759846792796
 21
-95.68521241637075
 31
0.0
  0
LINE
  5
ED
  8
図面枠
  6
CONTINUOUS
 62
     7
 10
109.1934344276308
 20
-95.84970156957328
 30
0.0
 11
109.1934344276308
 21
-103.2489568132928
 31
0.0
  0
LINE
  5
EE
  8
図面枠
  6
CONTINUOUS
 62
     7
 10
109.1934344276308
 20
-103.2489568132928
 30
0.0
 11
108.3248584350304
 21
-104.1175328058933
 31
0.0
  0
LINE
  5
EF
  8
図面枠
  6
CONTINUOUS
 62
     7
 10
108.1759846792796
 20
-103.7667111481345
 30
0.0
 11
108.1857505298704
 21
-103.8640618079433
 31
0.0
  0
LINE
  5
F0
  8
図面枠
  6
CONTINUOUS
 62
     7
 10
108.1857505298704
 20
-103.8640618079433
 30
0.0
 11
108.214673365388
 21
-103.9573187581603
 31
0.0
  0
LINE
  5
F1
  8
図面枠
  6
CONTINUOUS
 62
     7
 10
108.214673365388
 20
-103.9573187581603
 30
0.0
 11
108.2616434149521
 21
-104.0429037241842
 31
0.0
  0
LINE
  5
F2
  8
図面枠
  6
CONTINUOUS
 62
     7
 10
108.2616434149521
 20
-104.0429037241842
 30
0.0
 11
108.3248584350304
 21
-104.1175328058933
 31
0.0
  0
LINE
  5
F3
  8
図面枠
  6
CONTINUOUS
 62
     7
 10
108.1759846792796
 20
-103.7667111481345
 30
0.0
 11
108.1759846792796
 21
-95.68521241637075
 31
0.0
  0
LINE
  5
F4
  8
図面枠
  6
CONTINUOUS
 62
     7
 10
109.1934344276308
 20
-103.2489568132928
 30
0.0
 11
112.0189898889866
 21
-103.2489568132928
 31
0.0
  0
LINE
  5
F5
  8
図面枠
  6
CONTINUOUS
 62
     7
 10
108.3248584350304
 20
-104.1175328058933
 30
0.0
 11
108.3994875167394
 21
-104.1807478259715
 31
0.0
  0
LINE
  5
F6
  8
図面枠
  6
CONTINUOUS
 62
     7
 10
108.3994875167394
 20
-104.1807478259715
 30
0.0
 11
108.4850724827634
 21
-104.2277178755356
 31
0.0
  0
LINE
  5
F7
  8
図面枠
  6
CONTINUOUS
 62
     7
 10
108.4850724827634
 20
-104.2277178755356
 30
0.0
 11
108.5783294329804
 21
-104.2566407110532
 31
0.0
  0
LINE
  5
F8
  8
図面枠
  6
CONTINUOUS
 62
     7
 10
108.5783294329804
 20
-104.2566407110532
 30
0.0
 11
108.6756800927891
 21
-104.2664065616441
 31
0.0
  0
LINE
  5
F9
  8
図面枠
  6
CONTINUOUS
 62
     7
 10
124.0189898889866
 20
-105.5978458905813
 30
0.0
 11
121.1934344276308
 21
-105.5978458905813
 31
0.0
  0
LINE
  5
FA
  8
図面枠
  6
CONTINUOUS
 62
     7
 10
109.1934344276308
 20
-105.5978458905813
 30
0.0
 11
109.1934344276308
 21
-112.9971011343008
 31
0.0
  0
LINE
  5
FB
  8
図面枠
  6
CONTINUOUS
 62
     7
 10
112.0189898889866
 20
-105.5978458905813
 30
0.0
 11
109.1934344276308
 21
-105.5978458905813
 31
0.0
  0
LINE
  5
FC
  8
図面枠
  6
CONTINUOUS
 62
     7
 10
118.8445453503424
 20
-105.5978458905813
 30
0.0
 11
116.0189898889866
 21
-105.5978458905813
 31
0.0
  0
LINE
  5
FD
  8
図面枠
  6
CONTINUOUS
 62
     7
 10
119.7131213429428
 20
-104.7292698979809
 30
0.0
 11
119.6384922612338
 21
-104.6660548779026
 31
0.0
  0
LINE
  5
FE
  8
図面枠
  6
CONTINUOUS
 62
     7
 10
119.6384922612338
 20
-104.6660548779026
 30
0.0
 11
119.5529072952098
 21
-104.6190848283385
 31
0.0
  0
LINE
  5
FF
  8
図面枠
  6
CONTINUOUS
 62
     7
 10
119.5529072952098
 20
-104.6190848283385
 30
0.0
 11
119.4596503449928
 21
-104.5901619928209
 31
0.0
  0
LINE
  5
100
  8
図面枠
  6
CONTINUOUS
 62
     7
 10
119.4596503449928
 20
-104.5901619928209
 30
0.0
 11
119.3622996851841
 21
-104.5803961422301
 31
0.0
  0
LINE
  5
101
  8
図面枠
  6
CONTINUOUS
 62
     7
 10
118.8445453503424
 20
-105.5978458905813
 30
0.0
 11
119.7131213429428
 21
-104.7292698979809
 31
0.0
  0
LINE
  5
102
  8
図面枠
  6
CONTINUOUS
 62
     7
 10
108.1759846792796
 20
-113.1615902875034
 30
0.0
 11
108.1759846792796
 21
-105.0800915557396
 31
0.0
  0
LINE
  5
103
  8
図面枠
  6
CONTINUOUS
 62
     7
 10
108.3248584350304
 20
-104.7292698979809
 30
0.0
 11
108.2616434149521
 21
-104.8038989796899
 31
0.0
  0
LINE
  5
104
  8
図面枠
  6
CONTINUOUS
 62
     7
 10
108.2616434149521
 20
-104.8038989796899
 30
0.0
 11
108.214673365388
 21
-104.8894839457139
 31
0.0
  0
LINE
  5
105
  8
図面枠
  6
CONTINUOUS
 62
     7
 10
108.214673365388
 20
-104.8894839457139
 30
0.0
 11
108.1857505298704
 21
-104.9827408959309
 31
0.0
  0
LINE
  5
106
  8
図面枠
  6
CONTINUOUS
 62
     7
 10
108.1857505298704
 20
-104.9827408959309
 30
0.0
 11
108.1759846792796
 21
-105.0800915557396
 31
0.0
  0
LINE
  5
107
  8
図面枠
  6
CONTINUOUS
 62
     7
 10
108.3248584350304
 20
-104.7292698979809
 30
0.0
 11
109.1934344276308
 21
-105.5978458905813
 31
0.0
  0
LINE
  5
108
  8
図面枠
  6
CONTINUOUS
 62
     7
 10
108.6756800927891
 20
-104.5803961422301
 30
0.0
 11
108.5783294329804
 21
-104.5901619928209
 31
0.0
  0
LINE
  5
109
  8
図面枠
  6
CONTINUOUS
 62
     7
 10
108.5783294329804
 20
-104.5901619928209
 30
0.0
 11
108.4850724827634
 21
-104.6190848283385
 31
0.0
  0
LINE
  5
10A
  8
図面枠
  6
CONTINUOUS
 62
     7
 10
108.4850724827634
 20
-104.6190848283385
 30
0.0
 11
108.3994875167394
 21
-104.6660548779026
 31
0.0
  0
LINE
  5
10B
  8
図面枠
  6
CONTINUOUS
 62
     7
 10
108.3994875167394
 20
-104.6660548779026
 30
0.0
 11
108.3248584350304
 21
-104.7292698979809
 31
0.0
  0
LINE
  5
10C
  8
図面枠
  6
CONTINUOUS
 62
     7
 10
106.8445453503424
 20
-103.2489568132928
 30
0.0
 11
107.7131213429428
 21
-104.1175328058933
 31
0.0
  0
LINE
  5
10D
  8
図面枠
  6
CONTINUOUS
 62
     7
 10
107.3622996851841
 20
-104.2664065616441
 30
0.0
 11
107.4596503449928
 21
-104.2566407110532
 31
0.0
  0
LINE
  5
10E
  8
図面枠
  6
CONTINUOUS
 62
     7
 10
107.4596503449928
 20
-104.2566407110532
 30
0.0
 11
107.5529072952098
 21
-104.2277178755356
 31
0.0
  0
LINE
  5
10F
  8
図面枠
  6
CONTINUOUS
 62
     7
 10
107.5529072952098
 20
-104.2277178755356
 30
0.0
 11
107.6384922612337
 21
-104.1807478259715
 31
0.0
  0
LINE
  5
110
  8
図面枠
  6
CONTINUOUS
 62
     7
 10
107.6384922612337
 20
-104.1807478259715
 30
0.0
 11
107.7131213429428
 21
-104.1175328058933
 31
0.0
  0
LINE
  5
111
  8
図面枠
  6
CONTINUOUS
 62
     7
 10
107.3622996851841
 20
-104.2664065616441
 30
0.0
 11
104.0277121048737
 21
-104.2664065616441
 31
0.0
  0
LINE
  5
112
  8
図面枠
  6
CONTINUOUS
 62
     7
 10
120.6756800927891
 20
-104.5803961422301
 30
0.0
 11
120.5783294329804
 21
-104.5901619928209
 31
0.0
  0
LINE
  5
113
  8
図面枠
  6
CONTINUOUS
 62
     7
 10
120.5783294329804
 20
-104.5901619928209
 30
0.0
 11
120.4850724827634
 21
-104.6190848283385
 31
0.0
  0
LINE
  5
114
  8
図面枠
  6
CONTINUOUS
 62
     7
 10
120.4850724827634
 20
-104.6190848283385
 30
0.0
 11
120.3994875167394
 21
-104.6660548779026
 31
0.0
  0
LINE
  5
115
  8
図面枠
  6
CONTINUOUS
 62
     7
 10
120.3994875167394
 20
-104.6660548779026
 30
0.0
 11
120.3248584350304
 21
-104.7292698979809
 31
0.0
  0
LINE
  5
116
  8
図面枠
  6
CONTINUOUS
 62
     7
 10
118.8445453503424
 20
-112.9971011343008
 30
0.0
 11
118.8445453503424
 21
-105.5978458905813
 31
0.0
  0
LINE
  5
117
  8
図面枠
  6
CONTINUOUS
 62
     7
 10
104.0277121048737
 20
-104.58039614223
 30
0.0
 11
107.3622996851841
 21
-104.58039614223
 31
0.0
  0
LINE
  5
118
  8
図面枠
  6
CONTINUOUS
 62
     7
 10
107.7131213429428
 20
-104.7292698979809
 30
0.0
 11
107.6384922612337
 21
-104.6660548779026
 31
0.0
  0
LINE
  5
119
  8
図面枠
  6
CONTINUOUS
 62
     7
 10
107.6384922612337
 20
-104.6660548779026
 30
0.0
 11
107.5529072952098
 21
-104.6190848283385
 31
0.0
  0
LINE
  5
11A
  8
図面枠
  6
CONTINUOUS
 62
     7
 10
107.5529072952098
 20
-104.6190848283385
 30
0.0
 11
107.4596503449928
 21
-104.5901619928209
 31
0.0
  0
LINE
  5
11B
  8
図面枠
  6
CONTINUOUS
 62
     7
 10
107.4596503449928
 20
-104.5901619928209
 30
0.0
 11
107.3622996851841
 21
-104.5803961422301
 31
0.0
  0
LINE
  5
11C
  8
図面枠
  6
CONTINUOUS
 62
     7
 10
107.7131213429428
 20
-104.7292698979809
 30
0.0
 11
106.8445453503423
 21
-105.5978458905813
 31
0.0
  0
LINE
  5
11D
  8
図面枠
  6
CONTINUOUS
 62
     7
 10
107.8619950986936
 20
-105.0800915557396
 30
0.0
 11
107.8522292481028
 21
-104.9827408959309
 31
0.0
  0
LINE
  5
11E
  8
図面枠
  6
CONTINUOUS
 62
     7
 10
107.8522292481028
 20
-104.9827408959309
 30
0.0
 11
107.8233064125852
 21
-104.8894839457139
 31
0.0
  0
LINE
  5
11F
  8
図面枠
  6
CONTINUOUS
 62
     7
 10
107.8233064125852
 20
-104.8894839457139
 30
0.0
 11
107.776336363021
 21
-104.8038989796899
 31
0.0
  0
LINE
  5
120
  8
図面枠
  6
CONTINUOUS
 62
     7
 10
107.776336363021
 20
-104.8038989796899
 30
0.0
 11
107.7131213429428
 21
-104.7292698979809
 31
0.0
  0
LINE
  5
121
  8
図面枠
  6
CONTINUOUS
 62
     7
 10
107.8619950986936
 20
-105.0800915557396
 30
0.0
 11
107.8619950986936
 21
-113.1615902875034
 31
0.0
  0
LINE
  5
122
  8
図面枠
  6
CONTINUOUS
 62
     7
 10
119.8619950986936
 20
-105.0800915557396
 30
0.0
 11
119.8522292481028
 21
-104.9827408959309
 31
0.0
  0
LINE
  5
123
  8
図面枠
  6
CONTINUOUS
 62
     7
 10
119.8522292481028
 20
-104.9827408959309
 30
0.0
 11
119.8233064125852
 21
-104.8894839457139
 31
0.0
  0
LINE
  5
124
  8
図面枠
  6
CONTINUOUS
 62
     7
 10
119.8233064125852
 20
-104.8894839457139
 30
0.0
 11
119.776336363021
 21
-104.8038989796899
 31
0.0
  0
LINE
  5
125
  8
図面枠
  6
CONTINUOUS
 62
     7
 10
119.776336363021
 20
-104.8038989796899
 30
0.0
 11
119.7131213429428
 21
-104.7292698979809
 31
0.0
  0
LINE
  5
126
  8
図面枠
  6
CONTINUOUS
 62
     7
 10
119.8619950986936
 20
-105.0800915557396
 30
0.0
 11
119.8619950986936
 21
-113.1615902875034
 31
0.0
  0
LINE
  5
127
  8
図面枠
  6
CONTINUOUS
 62
     7
 10
107.8619950986936
 20
-95.68521241637073
 30
0.0
 11
107.8619950986936
 21
-103.7667111481345
 31
0.0
  0
LINE
  5
128
  8
図面枠
  6
CONTINUOUS
 62
     7
 10
107.7131213429428
 20
-104.1175328058933
 30
0.0
 11
107.776336363021
 21
-104.0429037241842
 31
0.0
  0
LINE
  5
129
  8
図面枠
  6
CONTINUOUS
 62
     7
 10
107.776336363021
 20
-104.0429037241842
 30
0.0
 11
107.8233064125852
 21
-103.9573187581603
 31
0.0
  0
LINE
  5
12A
  8
図面枠
  6
CONTINUOUS
 62
     7
 10
107.8233064125852
 20
-103.9573187581603
 30
0.0
 11
107.8522292481028
 21
-103.8640618079433
 31
0.0
  0
LINE
  5
12B
  8
図面枠
  6
CONTINUOUS
 62
     7
 10
107.8522292481028
 20
-103.8640618079433
 30
0.0
 11
107.8619950986936
 21
-103.7667111481345
 31
0.0
  0
LINE
  5
12C
  8
図面枠
  6
CONTINUOUS
 62
     7
 10
108.6686853024961
 20
-104.5734013519371
 30
0.0
 11
108.571167153693
 21
-104.5829997135335
 31
0.0
  0
LINE
  5
12D
  8
図面枠
  6
CONTINUOUS
 62
     7
 10
108.571167153693
 20
-104.5829997135335
 30
0.0
 11
108.4774141630551
 21
-104.6114265086302
 31
0.0
  0
LINE
  5
12E
  8
図面枠
  6
CONTINUOUS
 62
     7
 10
108.4774141630551
 20
-104.6114265086302
 30
0.0
 11
108.3910236382836
 21
-104.6575909994468
 31
0.0
  0
LINE
  5
12F
  8
図面枠
  6
CONTINUOUS
 62
     7
 10
108.3910236382836
 20
-104.6575909994468
 30
0.0
 11
108.3153103888364
 21
-104.7197218517869
 31
0.0
  0
LINE
  5
130
  8
図面枠
  6
CONTINUOUS
 62
     7
 10
108.3153103888364
 20
-104.7197218517869
 30
0.0
 11
108.2531795364963
 21
-104.7954351012341
 31
0.0
  0
LINE
  5
131
  8
図面枠
  6
CONTINUOUS
 62
     7
 10
108.2531795364963
 20
-104.7954351012341
 30
0.0
 11
108.2070150456797
 21
-104.8818256260056
 31
0.0
  0
LINE
  5
132
  8
図面枠
  6
CONTINUOUS
 62
     7
 10
108.2070150456797
 20
-104.8818256260056
 30
0.0
 11
108.178588250583
 21
-104.9755786166435
 31
0.0
  0
LINE
  5
133
  8
図面枠
  6
CONTINUOUS
 62
     7
 10
108.178588250583
 20
-104.9755786166435
 30
0.0
 11
108.1689898889866
 21
-105.0730967654466
 31
0.0
  0
LINE
  5
134
  8
図面枠
  6
CONTINUOUS
 62
     7
 10
120.1689898889866
 20
-103.7737059384275
 30
0.0
 11
120.178588250583
 21
-103.8712240872307
 31
0.0
  0
LINE
  5
135
  8
図面枠
  6
CONTINUOUS
 62
     7
 10
120.178588250583
 20
-103.8712240872307
 30
0.0
 11
120.2070150456797
 21
-103.9649770778686
 31
0.0
  0
LINE
  5
136
  8
図面枠
  6
CONTINUOUS
 62
     7
 10
120.2070150456797
 20
-103.9649770778686
 30
0.0
 11
120.2531795364963
 21
-104.05136760264
 31
0.0
  0
LINE
  5
137
  8
図面枠
  6
CONTINUOUS
 62
     7
 10
120.2531795364963
 20
-104.05136760264
 30
0.0
 11
120.3153103888364
 21
-104.1270808520873
 31
0.0
  0
LINE
  5
138
  8
図面枠
  6
CONTINUOUS
 62
     7
 10
120.3153103888364
 20
-104.1270808520873
 30
0.0
 11
120.3910236382836
 21
-104.1892117044273
 31
0.0
  0
LINE
  5
139
  8
図面枠
  6
CONTINUOUS
 62
     7
 10
120.3910236382836
 20
-104.1892117044274
 30
0.0
 11
120.4774141630551
 21
-104.2353761952439
 31
0.0
  0
LINE
  5
13A
  8
図面枠
  6
CONTINUOUS
 62
     7
 10
120.4774141630551
 20
-104.2353761952439
 30
0.0
 11
120.571167153693
 21
-104.2638029903407
 31
0.0
  0
LINE
  5
13B
  8
図面枠
  6
CONTINUOUS
 62
     7
 10
120.571167153693
 20
-104.2638029903407
 30
0.0
 11
120.6686853024961
 21
-104.2734013519371
 31
0.0
  0
LINE
  5
13C
  8
図面枠
  6
CONTINUOUS
 62
     7
 10
119.8689898889866
 20
-105.0730967654466
 30
0.0
 11
119.8593915273902
 21
-104.9755786166435
 31
0.0
  0
LINE
  5
13D
  8
図面枠
  6
CONTINUOUS
 62
     7
 10
119.8593915273902
 20
-104.9755786166435
 30
0.0
 11
119.8309647322934
 21
-104.8818256260056
 31
0.0
  0
LINE
  5
13E
  8
図面枠
  6
CONTINUOUS
 62
     7
 10
119.8309647322934
 20
-104.8818256260056
 30
0.0
 11
119.7848002414768
 21
-104.7954351012341
 31
0.0
  0
LINE
  5
13F
  8
図面枠
  6
CONTINUOUS
 62
     7
 10
119.7848002414768
 20
-104.7954351012341
 30
0.0
 11
119.7226693891368
 21
-104.7197218517869
 31
0.0
  0
LINE
  5
140
  8
図面枠
  6
CONTINUOUS
 62
     7
 10
119.7226693891368
 20
-104.7197218517869
 30
0.0
 11
119.6469561396896
 21
-104.6575909994468
 31
0.0
  0
LINE
  5
141
  8
図面枠
  6
CONTINUOUS
 62
     7
 10
119.6469561396896
 20
-104.6575909994468
 30
0.0
 11
119.5605656149181
 21
-104.6114265086302
 31
0.0
  0
LINE
  5
142
  8
図面枠
  6
CONTINUOUS
 62
     7
 10
119.5605656149181
 20
-104.6114265086302
 30
0.0
 11
119.4668126242802
 21
-104.5829997135335
 31
0.0
  0
LINE
  5
143
  8
図面枠
  6
CONTINUOUS
 62
     7
 10
119.4668126242802
 20
-104.5829997135335
 30
0.0
 11
119.369294475477
 21
-104.5734013519371
 31
0.0
  0
LINE
  5
144
  8
図面枠
  6
CONTINUOUS
 62
     7
 10
120.6686853024961
 20
-104.5734013519371
 30
0.0
 11
120.571167153693
 21
-104.5829997135335
 31
0.0
  0
LINE
  5
145
  8
図面枠
  6
CONTINUOUS
 62
     7
 10
120.571167153693
 20
-104.5829997135335
 30
0.0
 11
120.4774141630551
 21
-104.6114265086302
 31
0.0
  0
LINE
  5
146
  8
図面枠
  6
CONTINUOUS
 62
     7
 10
120.4774141630551
 20
-104.6114265086302
 30
0.0
 11
120.3910236382836
 21
-104.6575909994468
 31
0.0
  0
LINE
  5
147
  8
図面枠
  6
CONTINUOUS
 62
     7
 10
120.3910236382836
 20
-104.6575909994468
 30
0.0
 11
120.3153103888364
 21
-104.7197218517869
 31
0.0
  0
LINE
  5
148
  8
図面枠
  6
CONTINUOUS
 62
     7
 10
120.3153103888364
 20
-104.7197218517869
 30
0.0
 11
120.2531795364963
 21
-104.7954351012341
 31
0.0
  0
LINE
  5
149
  8
図面枠
  6
CONTINUOUS
 62
     7
 10
120.2531795364963
 20
-104.7954351012341
 30
0.0
 11
120.2070150456797
 21
-104.8818256260056
 31
0.0
  0
LINE
  5
14A
  8
図面枠
  6
CONTINUOUS
 62
     7
 10
120.2070150456797
 20
-104.8818256260056
 30
0.0
 11
120.178588250583
 21
-104.9755786166435
 31
0.0
  0
LINE
  5
14B
  8
図面枠
  6
CONTINUOUS
 62
     7
 10
120.178588250583
 20
-104.9755786166435
 30
0.0
 11
120.1689898889866
 21
-105.0730967654466
 31
0.0
  0
LINE
  5
14C
  8
図面枠
  6
CONTINUOUS
 62
     7
 10
119.369294475477
 20
-104.2734013519371
 30
0.0
 11
119.4668126242802
 21
-104.2638029903407
 31
0.0
  0
LINE
  5
14D
  8
図面枠
  6
CONTINUOUS
 62
     7
 10
119.4668126242802
 20
-104.2638029903407
 30
0.0
 11
119.5605656149181
 21
-104.2353761952439
 31
0.0
  0
LINE
  5
14E
  8
図面枠
  6
CONTINUOUS
 62
     7
 10
119.5605656149181
 20
-104.2353761952439
 30
0.0
 11
119.6469561396896
 21
-104.1892117044274
 31
0.0
  0
LINE
  5
14F
  8
図面枠
  6
CONTINUOUS
 62
     7
 10
119.6469561396896
 20
-104.1892117044274
 30
0.0
 11
119.7226693891368
 21
-104.1270808520872
 31
0.0
  0
LINE
  5
150
  8
図面枠
  6
CONTINUOUS
 62
     7
 10
119.7226693891368
 20
-104.1270808520872
 30
0.0
 11
119.7848002414768
 21
-104.05136760264
 31
0.0
  0
LINE
  5
151
  8
図面枠
  6
CONTINUOUS
 62
     7
 10
119.7848002414768
 20
-104.05136760264
 30
0.0
 11
119.8309647322934
 21
-103.9649770778685
 31
0.0
  0
LINE
  5
152
  8
図面枠
  6
CONTINUOUS
 62
     7
 10
119.8309647322934
 20
-103.9649770778685
 30
0.0
 11
119.8593915273902
 21
-103.8712240872307
 31
0.0
  0
LINE
  5
153
  8
図面枠
  6
CONTINUOUS
 62
     7
 10
119.8593915273902
 20
-103.8712240872307
 30
0.0
 11
119.8689898889866
 21
-103.7737059384275
 31
0.0
  0
LINE
  5
154
  8
図面枠
  6
CONTINUOUS
 62
     7
 10
108.1689898889866
 20
-103.7737059384275
 30
0.0
 11
108.178588250583
 21
-103.8712240872307
 31
0.0
  0
LINE
  5
155
  8
図面枠
  6
CONTINUOUS
 62
     7
 10
108.178588250583
 20
-103.8712240872307
 30
0.0
 11
108.2070150456797
 21
-103.9649770778686
 31
0.0
  0
LINE
  5
156
  8
図面枠
  6
CONTINUOUS
 62
     7
 10
108.2070150456797
 20
-103.9649770778686
 30
0.0
 11
108.2531795364963
 21
-104.05136760264
 31
0.0
  0
LINE
  5
157
  8
図面枠
  6
CONTINUOUS
 62
     7
 10
108.2531795364963
 20
-104.05136760264
 30
0.0
 11
108.3153103888364
 21
-104.1270808520873
 31
0.0
  0
LINE
  5
158
  8
図面枠
  6
CONTINUOUS
 62
     7
 10
108.3153103888364
 20
-104.1270808520873
 30
0.0
 11
108.3910236382836
 21
-104.1892117044273
 31
0.0
  0
LINE
  5
159
  8
図面枠
  6
CONTINUOUS
 62
     7
 10
108.3910236382836
 20
-104.1892117044274
 30
0.0
 11
108.4774141630551
 21
-104.2353761952439
 31
0.0
  0
LINE
  5
15A
  8
図面枠
  6
CONTINUOUS
 62
     7
 10
108.4774141630551
 20
-104.2353761952439
 30
0.0
 11
108.571167153693
 21
-104.2638029903407
 31
0.0
  0
LINE
  5
15B
  8
図面枠
  6
CONTINUOUS
 62
     7
 10
108.571167153693
 20
-104.2638029903407
 30
0.0
 11
108.6686853024961
 21
-104.2734013519371
 31
0.0
  0
LINE
  5
15C
  8
図面枠
  6
CONTINUOUS
 62
     7
 10
107.369294475477
 20
-104.2734013519371
 30
0.0
 11
107.4668126242802
 21
-104.2638029903407
 31
0.0
  0
LINE
  5
15D
  8
図面枠
  6
CONTINUOUS
 62
     7
 10
107.4668126242802
 20
-104.2638029903407
 30
0.0
 11
107.5605656149181
 21
-104.2353761952439
 31
0.0
  0
LINE
  5
15E
  8
図面枠
  6
CONTINUOUS
 62
     7
 10
107.5605656149181
 20
-104.2353761952439
 30
0.0
 11
107.6469561396895
 21
-104.1892117044274
 31
0.0
  0
LINE
  5
15F
  8
図面枠
  6
CONTINUOUS
 62
     7
 10
107.6469561396895
 20
-104.1892117044274
 30
0.0
 11
107.7226693891368
 21
-104.1270808520872
 31
0.0
  0
LINE
  5
160
  8
図面枠
  6
CONTINUOUS
 62
     7
 10
107.7226693891368
 20
-104.1270808520872
 30
0.0
 11
107.7848002414768
 21
-104.05136760264
 31
0.0
  0
LINE
  5
161
  8
図面枠
  6
CONTINUOUS
 62
     7
 10
107.7848002414768
 20
-104.05136760264
 30
0.0
 11
107.8309647322934
 21
-103.9649770778685
 31
0.0
  0
LINE
  5
162
  8
図面枠
  6
CONTINUOUS
 62
     7
 10
107.8309647322934
 20
-103.9649770778685
 30
0.0
 11
107.8593915273902
 21
-103.8712240872307
 31
0.0
  0
LINE
  5
163
  8
図面枠
  6
CONTINUOUS
 62
     7
 10
107.8593915273902
 20
-103.8712240872307
 30
0.0
 11
107.8689898889866
 21
-103.7737059384275
 31
0.0
  0
LINE
  5
164
  8
図面枠
  6
CONTINUOUS
 62
     7
 10
107.8689898889866
 20
-105.0730967654466
 30
0.0
 11
107.8593915273902
 21
-104.9755786166435
 31
0.0
  0
LINE
  5
165
  8
図面枠
  6
CONTINUOUS
 62
     7
 10
107.8593915273902
 20
-104.9755786166435
 30
0.0
 11
107.8309647322935
 21
-104.8818256260056
 31
0.0
  0
LINE
  5
166
  8
図面枠
  6
CONTINUOUS
 62
     7
 10
107.8309647322935
 20
-104.8818256260056
 30
0.0
 11
107.7848002414768
 21
-104.7954351012341
 31
0.0
  0
LINE
  5
167
  8
図面枠
  6
CONTINUOUS
 62
     7
 10
107.7848002414768
 20
-104.7954351012341
 30
0.0
 11
107.7226693891368
 21
-104.7197218517869
 31
0.0
  0
LINE
  5
168
  8
図面枠
  6
CONTINUOUS
 62
     7
 10
107.7226693891368
 20
-104.7197218517869
 30
0.0
 11
107.6469561396896
 21
-104.6575909994468
 31
0.0
  0
LINE
  5
169
  8
図面枠
  6
CONTINUOUS
 62
     7
 10
107.6469561396896
 20
-104.6575909994468
 30
0.0
 11
107.5605656149181
 21
-104.6114265086302
 31
0.0
  0
LINE
  5
16A
  8
図面枠
  6
CONTINUOUS
 62
     7
 10
107.5605656149181
 20
-104.6114265086302
 30
0.0
 11
107.4668126242802
 21
-104.5829997135335
 31
0.0
  0
LINE
  5
16B
  8
図面枠
  6
CONTINUOUS
 62
     7
 10
107.4668126242802
 20
-104.5829997135335
 30
0.0
 11
107.369294475477
 21
-104.5734013519371
 31
0.0
  0
LINE
  5
16C
  8
図面枠
  6
CONTINUOUS
 62
     7
 10
107.369294475477
 20
-104.2734013519371
 30
0.0
 11
104.0312084344363
 21
-104.2734013519371
 31
0.0
  0
LINE
  5
16D
  8
図面枠
  6
CONTINUOUS
 62
     7
 10
119.8689898889866
 20
-95.68844201346765
 30
0.0
 11
119.8689898889866
 21
-103.7737059384275
 31
0.0
  0
LINE
  5
16E
  8
図面枠
  6
CONTINUOUS
 62
     7
 10
107.8689898889866
 20
-103.7737059384275
 30
0.0
 11
107.8689898889866
 21
-95.68844201346764
 31
0.0
  0
LINE
  5
16F
  8
図面枠
  6
CONTINUOUS
 62
     7
 10
120.1689898889866
 20
-103.7737059384275
 30
0.0
 11
120.1689898889866
 21
-95.68844201346764
 31
0.0
  0
LINE
  5
170
  8
図面枠
  6
CONTINUOUS
 62
     7
 10
119.8689898889866
 20
-105.0730967654466
 30
0.0
 11
119.8689898889866
 21
-113.1583606904065
 31
0.0
  0
LINE
  5
171
  8
図面枠
  6
CONTINUOUS
 62
     7
 10
107.8689898889866
 20
-113.1583606904065
 30
0.0
 11
107.8689898889866
 21
-105.0730967654466
 31
0.0
  0
LINE
  5
172
  8
図面枠
  6
CONTINUOUS
 62
     7
 10
120.1689898889866
 20
-113.1583606904065
 30
0.0
 11
120.1689898889866
 21
-105.0730967654466
 31
0.0
  0
LINE
  5
173
  8
図面枠
  6
CONTINUOUS
 62
     7
 10
108.1689898889866
 20
-95.68844201346765
 30
0.0
 11
108.1689898889866
 21
-103.7737059384275
 31
0.0
  0
LINE
  5
174
  8
図面枠
  6
CONTINUOUS
 62
     7
 10
108.1689898889866
 20
-105.0730967654466
 30
0.0
 11
108.1689898889866
 21
-113.1583606904065
 31
0.0
  0
LINE
  5
175
  8
図面枠
  6
CONTINUOUS
 62
     7
 10
107.369294475477
 20
-104.5734013519371
 30
0.0
 11
104.0312084344363
 21
-104.5734013519371
 31
0.0
  0
LINE
  5
176
  8
図面枠
  6
CONTINUOUS
 62
     7
 10
125.7651972740455
 20
-104.2734013519371
 30
0.0
 11
125.7651972740455
 21
-104.5734013519371
 31
0.0
  0
LINE
  5
177
  8
図面枠
  6
CONTINUOUS
 62
     7
 10
128.1397911076237
 20
-104.6456451204967
 30
0.0
 11
128.0172949616365
 21
-104.6412432510811
 31
0.0
  0
LINE
  5
178
  8
図面枠
  6
CONTINUOUS
 62
     7
 10
128.0172949616365
 20
-104.2055594527931
 30
0.0
 11
128.1397911076272
 21
-104.2011575833773
 31
0.0
  0
LINE
  5
179
  8
図面枠
  6
CONTINUOUS
 62
     7
 10
126.3189898889866
 20
-104.5734013519371
 30
0.0
 11
126.0711224533892
 21
-104.5734013519371
 31
0.0
  0
LINE
  5
17A
  8
図面枠
  6
CONTINUOUS
 62
     7
 10
127.5186448700746
 20
-104.6152942270013
 30
0.0
 11
126.3189898889866
 21
-104.5734013519371
 31
0.0
  0
LINE
  5
17B
  8
図面枠
  6
CONTINUOUS
 62
     7
 10
128.0174024154152
 20
-104.634225306757
 30
0.0
 11
127.5186448700746
 21
-104.6152942270013
 31
0.0
  0
ARC
  5
17C
  8
図面枠
  6
CONTINUOUS
 62
     7
 10
114.0189898889866
 20
-104.4234013519371
 30
0.0
 40
14.0
 50
359.131100126519
 51
359.137158613272
  0
LINE
  5
17D
  8
図面枠
  6
CONTINUOUS
 62
     7
 10
129.0169418478783
 20
-104.6712663127056
 30
0.0
 11
128.5246818167903
 21
-104.6539251455915
 31
0.0
  0
LINE
  5
17E
  8
図面枠
  6
CONTINUOUS
 62
     7
 10
128.5246818167903
 20
-104.6539251455915
 30
0.0
 11
128.0173800445176
 21
-104.6357055052967
 31
0.0
  0
LINE
  5
17F
  8
図面枠
  6
CONTINUOUS
 62
     7
 10
129.7666027491987
 20
-104.6976078523728
 30
0.0
 11
129.0169418478783
 21
-104.6712663127056
 31
0.0
  0
LINE
  5
180
  8
図面枠
  6
CONTINUOUS
 62
     7
 10
130.0164852059168
 20
-104.7064977750806
 30
0.0
 11
129.7666027491987
 21
-104.6976078523728
 31
0.0
  0
LINE
  5
181
  8
図面枠
  6
CONTINUOUS
 62
     7
 10
128.4735938321274
 20
-104.6526732603151
 30
0.0
 11
130.0164852059168
 21
-104.7064977750806
 31
0.0
  0
LINE
  5
182
  8
図面枠
  6
CONTINUOUS
 62
     7
 10
128.0173614005328
 20
-104.6369312672421
 30
0.0
 11
128.4735938321274
 21
-104.6526732603151
 31
0.0
  0
ARC
  5
183
  8
図面枠
  6
CONTINUOUS
 62
     7
 10
114.0189898889866
 20
-104.4234013519371
 30
0.0
 40
14.0
 50
359.1163496030686
 51
359.126083047262
  0
LINE
  5
184
  8
図面枠
  6
CONTINUOUS
 62
     7
 10
129.0168818589328
 20
-104.6748699539949
 30
0.0
 11
128.5245903269878
 21
-104.6575276725355
 31
0.0
  0
LINE
  5
185
  8
図面枠
  6
CONTINUOUS
 62
     7
 10
128.5245903269878
 20
-104.6575276725355
 30
0.0
 11
128.0173249239399
 21
-104.6393093165831
 31
0.0
  0
LINE
  5
186
  8
図面枠
  6
CONTINUOUS
 62
     7
 10
129.7665395900246
 20
-104.7012113829617
 30
0.0
 11
129.0168818589328
 21
-104.6748699539949
 31
0.0
  0
LINE
  5
187
  8
図面枠
  6
CONTINUOUS
 62
     7
 10
130.0164210314188
 20
-104.7101012702158
 30
0.0
 11
129.7665395900246
 21
-104.7012113829617
 31
0.0
  0
LINE
  5
188
  8
図面枠
  6
CONTINUOUS
 62
     7
 10
128.4735362222586
 20
-104.6562769846786
 30
0.0
 11
130.0164210314188
 21
-104.7101012702158
 31
0.0
  0
LINE
  5
189
  8
図面枠
  6
CONTINUOUS
 62
     7
 10
128.0173059644851
 20
-104.6405350675126
 30
0.0
 11
128.4735362222586
 21
-104.6562769846786
 31
0.0
  0
ARC
  5
18A
  8
図面枠
  6
CONTINUOUS
 62
     7
 10
114.0189898889866
 20
-104.4234013519371
 30
0.0
 40
14.0
 50
359.108433918616
 51
359.1113325490878
  0
LINE
  5
18B
  8
図面枠
  6
CONTINUOUS
 62
     7
 10
129.7665395900246
 20
-104.1455913209124
 30
0.0
 11
130.0164210314188
 21
-104.1367014336584
 31
0.0
  0
LINE
  5
18C
  8
図面枠
  6
CONTINUOUS
 62
     7
 10
129.0168818589328
 20
-104.1719327498793
 30
0.0
 11
129.7665395900246
 21
-104.1455913209124
 31
0.0
  0
LINE
  5
18D
  8
図面枠
  6
CONTINUOUS
 62
     7
 10
128.0173249239399
 20
-104.207493387291
 30
0.0
 11
128.1440640023025
 21
-104.2028018362453
 31
0.0
  0
LINE
  5
18E
  8
図面枠
  6
CONTINUOUS
 62
     7
 10
128.1440640023026
 20
-104.2028018362453
 30
0.0
 11
129.0168818589328
 21
-104.1719327498793
 31
0.0
  0
ARC
  5
18F
  8
図面枠
  6
CONTINUOUS
 62
     7
 10
114.0189898889866
 20
-104.4234013519371
 30
0.0
 40
14.0
 50
0.873916952737944
 51
0.8836503969314055
  0
LINE
  5
190
  8
図面枠
  6
CONTINUOUS
 62
     7
 10
128.4735938321274
 20
-104.194129443559
 30
0.0
 11
128.0173614005328
 21
-104.209871436632
 31
0.0
  0
LINE
  5
191
  8
図面枠
  6
CONTINUOUS
 62
     7
 10
130.0164852059168
 20
-104.1403049287935
 30
0.0
 11
128.4735938321274
 21
-104.194129443559
 31
0.0
  0
LINE
  5
192
  8
図面枠
  6
CONTINUOUS
 62
     7
 10
129.7666027491987
 20
-104.1491948515013
 30
0.0
 11
130.0164852059168
 21
-104.1403049287935
 31
0.0
  0
LINE
  5
193
  8
図面枠
  6
CONTINUOUS
 62
     7
 10
129.0169418478783
 20
-104.1755363911685
 30
0.0
 11
129.7666027491987
 21
-104.1491948515013
 31
0.0
  0
LINE
  5
194
  8
図面枠
  6
CONTINUOUS
 62
     7
 10
128.0173800445176
 20
-104.2110971985774
 30
0.0
 11
128.144118882711
 21
-104.2064056568744
 31
0.0
  0
LINE
  5
195
  8
図面枠
  6
CONTINUOUS
 62
     7
 10
128.144118882711
 20
-104.2064056568744
 30
0.0
 11
129.0169418478783
 21
-104.1755363911685
 31
0.0
  0
ARC
  5
196
  8
図面枠
  6
CONTINUOUS
 62
     7
 10
114.0189898889866
 20
-104.4234013519371
 30
0.0
 40
14.0
 50
0.8628413867278818
 51
0.8688998734809613
  0
LINE
  5
197
  8
図面枠
  6
CONTINUOUS
 62
     7
 10
127.5186448700746
 20
-104.2315084768729
 30
0.0
 11
128.0174024154152
 21
-104.2125773971171
 31
0.0
  0
LINE
  5
198
  8
図面枠
  6
CONTINUOUS
 62
     7
 10
126.3189898889866
 20
-104.2734013519371
 30
0.0
 11
127.5186448700747
 21
-104.2315084768729
 31
0.0
  0
LINE
  5
199
  8
図面枠
  6
CONTINUOUS
 62
     7
 10
126.3189898889866
 20
-104.2734013519371
 30
0.0
 11
126.0711224533892
 21
-104.2734013519371
 31
0.0
  0
ARC
  5
19A
  8
図面枠
  6
CONTINUOUS
 62
     7
 10
114.0189898889866
 20
-104.4234013519371
 30
0.0
 40
14.0
 50
0.8886674509122271
 51
0.8915660813838393
  0
LINE
  5
19B
  8
図面枠
  6
CONTINUOUS
 62
     7
 10
128.4735362222586
 20
-104.1905257191955
 30
0.0
 11
128.0173059644851
 21
-104.2062676363615
 31
0.0
  0
LINE
  5
19C
  8
図面枠
  6
CONTINUOUS
 62
     7
 10
130.0164210314188
 20
-104.1367014336584
 30
0.0
 11
128.4735362222586
 21
-104.1905257191955
 31
0.0
  0
LINE
  5
19D
  8
図面枠
  6
CONTINUOUS
 62
     7
 10
126.3189898889866
 20
-104.5734013519371
 30
0.0
 11
126.3189898889866
 21
-104.2734013519371
 31
0.0
  0
LINE
  5
19E
  8
図面枠
  6
CONTINUOUS
 62
     7
 10
142.3256027917778
 20
-88.17340135193707
 30
0.0
 11
142.3256027917778
 21
-104.0709058745826
 31
0.0
  0
LINE
  5
19F
  8
図面枠
  6
CONTINUOUS
 62
     7
 10
144.3256027917778
 20
-104.0448042423562
 30
0.0
 11
142.3256027917778
 21
-104.0709058745827
 31
0.0
  0
LINE
  5
1A0
  8
図面枠
  6
CONTINUOUS
 62
     7
 10
142.3256027917778
 20
-104.7758968292915
 30
0.0
 11
142.3256027917778
 21
-120.673401351937
 31
0.0
  0
LINE
  5
1A1
  8
図面枠
  6
CONTINUOUS
 62
     7
 10
142.3256027917778
 20
-104.7758968292915
 30
0.0
 11
144.3256027917778
 21
-104.801998461518
 31
0.0
  0
LINE
  5
1A2
  8
図面枠
  6
CONTINUOUS
 62
     7
 10
142.3256027917778
 20
-104.0709058745827
 30
0.0
 11
142.3256027917778
 21
-104.1441945048176
 31
0.0
  0
LINE
  5
1A3
  8
図面枠
  6
CONTINUOUS
 62
     7
 10
146.3256027917778
 20
-104.056992234259
 30
0.0
 11
144.3256027917778
 21
-104.0448042423562
 31
0.0
  0
LINE
  5
1A4
  8
図面枠
  6
CONTINUOUS
 62
     7
 10
146.3256027917778
 20
-104.1877510357049
 30
0.0
 11
146.3256027917778
 21
-104.056992234259
 31
0.0
  0
LINE
  5
1A5
  8
図面枠
  6
CONTINUOUS
 62
     7
 10
146.497682801343
 20
-104.2011575833774
 30
0.0
 11
146.3256027917777
 21
-104.187751035705
 31
0.0
  0
LINE
  5
1A6
  8
図面枠
  6
CONTINUOUS
 62
     7
 10
146.5201683301935
 20
-104.2734013519371
 30
0.0
 11
146.0647921725178
 21
-104.2734013519371
 31
0.0
  0
LINE
  5
1A7
  8
図面枠
  6
CONTINUOUS
 62
     7
 10
146.0256476274945
 20
-104.2734029176348
 30
0.0
 11
146.0647563174383
 21
-104.2742780880432
 31
0.0
  0
LINE
  5
1A8
  8
図面枠
  6
CONTINUOUS
 62
     7
 10
146.0256476274945
 20
-104.2734029176348
 30
0.0
 11
142.3256027917778
 21
-104.1441945048176
 31
0.0
  0
LINE
  5
1A9
  8
図面枠
  6
CONTINUOUS
 62
     7
 10
146.3256027917778
 20
-104.6590516681692
 30
0.0
 11
146.4976828013465
 21
-104.6456451204968
 31
0.0
  0
LINE
  5
1AA
  8
図面枠
  6
CONTINUOUS
 62
     7
 10
146.3256027917778
 20
-104.7898104696152
 30
0.0
 11
146.3256027917778
 21
-104.6590516681692
 31
0.0
  0
LINE
  5
1AB
  8
図面枠
  6
CONTINUOUS
 62
     7
 10
144.3256027917778
 20
-104.801998461518
 30
0.0
 11
146.3256027917778
 21
-104.7898104696152
 31
0.0
  0
LINE
  5
1AC
  8
図面枠
  6
CONTINUOUS
 62
     7
 10
142.3256027917778
 20
-104.7026081990565
 30
0.0
 11
142.3256027917778
 21
-104.7758968292915
 31
0.0
  0
LINE
  5
1AD
  8
図面枠
  6
CONTINUOUS
 62
     7
 10
142.3256027917778
 20
-104.7026081990565
 30
0.0
 11
146.0256476274945
 21
-104.5733997862393
 31
0.0
  0
LINE
  5
1AE
  8
図面枠
  6
CONTINUOUS
 62
     7
 10
146.0647547142489
 20
-104.5725246518644
 30
0.0
 11
146.0256476274945
 21
-104.5733997862393
 31
0.0
  0
LINE
  5
1AF
  8
図面枠
  6
CONTINUOUS
 62
     7
 10
146.5201683301935
 20
-104.5734013519371
 30
0.0
 11
146.0647921725178
 21
-104.5734013519371
 31
0.0
  0
LINE
  5
1B0
  8
図面枠
  6
CONTINUOUS
 62
     7
 10
146.3256027917778
 20
-86.17340135193707
 30
0.0
 11
146.3256027917778
 21
-104.056992234259
 31
0.0
  0
LINE
  5
1B1
  8
図面枠
  6
CONTINUOUS
 62
     7
 10
146.3256027917778
 20
-104.7898104696152
 30
0.0
 11
146.3256027917778
 21
-122.6734013519371
 31
0.0
  0
LINE
  5
1B2
  8
図面枠
  6
CONTINUOUS
 62
     7
 10
149.75861549367
 20
-104.1455913209124
 30
0.0
 11
149.3256027917778
 21
-104.1367014336584
 31
0.0
  0
LINE
  5
1B3
  8
図面枠
  6
CONTINUOUS
 62
     7
 10
150.1916281955623
 20
-104.1719327498793
 30
0.0
 11
149.75861549367
 21
-104.1455913209124
 31
0.0
  0
LINE
  5
1B4
  8
図面枠
  6
CONTINUOUS
 62
     7
 10
151.9236790031311
 20
-104.207493387291
 30
0.0
 11
150.1916281955622
 21
-104.1719327498793
 31
0.0
  0
LINE
  5
1B5
  8
図面枠
  6
CONTINUOUS
 62
     7
 10
158.1924598777179
 20
-104.2098714366321
 30
0.0
 11
151.9236790031311
 21
-104.207493387291
 31
0.0
  0
LINE
  5
1B6
  8
図面枠
  6
CONTINUOUS
 62
     7
 10
158.6905572267632
 20
-104.194129443559
 30
0.0
 11
158.1924598777173
 21
-104.209871436632
 31
0.0
  0
LINE
  5
1B7
  8
図面枠
  6
CONTINUOUS
 62
     7
 10
158.8256027917778
 20
-104.1403049287935
 30
0.0
 11
158.6905572267632
 21
-104.194129443559
 31
0.0
  0
LINE
  5
1B8
  8
図面枠
  6
CONTINUOUS
 62
     7
 10
159.25861549367
 20
-104.1491948515013
 30
0.0
 11
158.8256027917778
 21
-104.1403049287935
 31
0.0
  0
LINE
  5
1B9
  8
図面枠
  6
CONTINUOUS
 62
     7
 10
159.6916281955623
 20
-104.1755363911685
 30
0.0
 11
159.25861549367
 21
-104.1491948515013
 31
0.0
  0
LINE
  5
1BA
  8
図面枠
  6
CONTINUOUS
 62
     7
 10
161.423679003131
 20
-104.2110971985774
 30
0.0
 11
159.6916281955622
 21
-104.1755363911685
 31
0.0
  0
LINE
  5
1BB
  8
図面枠
  6
CONTINUOUS
 62
     7
 10
165.3256027917807
 20
-104.2125773971171
 30
0.0
 11
161.4236790031381
 21
-104.2110971985774
 31
0.0
  0
LINE
  5
1BC
  8
図面枠
  6
CONTINUOUS
 62
     7
 10
169.317452733689
 20
-104.2315084768729
 30
0.0
 11
165.3256027917777
 21
-104.2125773971171
 31
0.0
  0
LINE
  5
1BD
  8
図面枠
  6
CONTINUOUS
 62
     7
 10
169.3239724051517
 20
-104.2734013519371
 30
0.0
 11
146.5201683301935
 21
-104.2734013519371
 31
0.0
  0
LINE
  5
1BE
  8
図面枠
  6
CONTINUOUS
 62
     7
 10
146.8256027917778
 20
-104.2055594527931
 30
0.0
 11
146.4976828013458
 21
-104.2011575833773
 31
0.0
  0
LINE
  5
1BF
  8
図面枠
  6
CONTINUOUS
 62
     7
 10
149.1905572267632
 20
-104.1905257191955
 30
0.0
 11
148.6924598777173
 21
-104.2062676363615
 31
0.0
  0
LINE
  5
1C0
  8
図面枠
  6
CONTINUOUS
 62
     7
 10
149.3256027917778
 20
-104.1367014336584
 30
0.0
 11
149.1905572267632
 21
-104.1905257191955
 31
0.0
  0
LINE
  5
1C1
  8
図面枠
  6
CONTINUOUS
 62
   253
 10
149.75861549367
 20
-88.67340135193707
 30
0.0
 11
149.75861549367
 21
-104.1455913209124
 31
0.0
  0
LINE
  5
1C2
  8
図面枠
  6
CONTINUOUS
 62
     7
 10
149.3256027917778
 20
-88.42340135193707
 30
0.0
 11
149.3256027917778
 21
-104.1367014336584
 31
0.0
  0
LINE
  5
1C3
  8
図面枠
  6
CONTINUOUS
 62
   253
 10
149.75861549367
 20
-104.7012113829617
 30
0.0
 11
149.75861549367
 21
-120.1734013519371
 31
0.0
  0
LINE
  5
1C4
  8
図面枠
  6
CONTINUOUS
 62
     7
 10
149.3256027917778
 20
-104.7101012702158
 30
0.0
 11
149.3256027917778
 21
-120.4234013519371
 31
0.0
  0
LINE
  5
1C5
  8
図面枠
  6
CONTINUOUS
 62
     7
 10
149.3256027917778
 20
-104.7101012702158
 30
0.0
 11
149.75861549367
 21
-104.7012113829617
 31
0.0
  0
LINE
  5
1C6
  8
図面枠
  6
CONTINUOUS
 62
     7
 10
169.323972405152
 20
-104.5734013519371
 30
0.0
 11
146.5201683301935
 21
-104.5734013519371
 31
0.0
  0
LINE
  5
1C7
  8
図面枠
  6
CONTINUOUS
 62
     7
 10
165.3256027917777
 20
-104.634225306757
 30
0.0
 11
169.317452733689
 21
-104.6152942270013
 31
0.0
  0
LINE
  5
1C8
  8
図面枠
  6
CONTINUOUS
 62
     7
 10
161.4236790029011
 20
-104.6357055052968
 30
0.0
 11
165.3256027914863
 21
-104.6342253067571
 31
0.0
  0
LINE
  5
1C9
  8
図面枠
  6
CONTINUOUS
 62
     7
 10
159.6916281955623
 20
-104.6712663127056
 30
0.0
 11
161.4236790031311
 21
-104.6357055052967
 31
0.0
  0
LINE
  5
1CA
  8
図面枠
  6
CONTINUOUS
 62
     7
 10
159.25861549367
 20
-104.6976078523728
 30
0.0
 11
159.6916281955623
 21
-104.6712663127056
 31
0.0
  0
LINE
  5
1CB
  8
図面枠
  6
CONTINUOUS
 62
     7
 10
158.8256027917778
 20
-104.7064977750806
 30
0.0
 11
159.25861549367
 21
-104.6976078523728
 31
0.0
  0
LINE
  5
1CC
  8
図面枠
  6
CONTINUOUS
 62
     7
 10
158.6905572267632
 20
-104.6526732603151
 30
0.0
 11
158.8256027917778
 21
-104.7064977750806
 31
0.0
  0
LINE
  5
1CD
  8
図面枠
  6
CONTINUOUS
 62
     7
 10
158.1924598777172
 20
-104.6369312672421
 30
0.0
 11
158.6905572267631
 21
-104.6526732603151
 31
0.0
  0
LINE
  5
1CE
  8
図面枠
  6
CONTINUOUS
 62
     7
 10
151.9236790030743
 20
-104.6393093165831
 30
0.0
 11
158.1924598771529
 21
-104.6369312672423
 31
0.0
  0
LINE
  5
1CF
  8
図面枠
  6
CONTINUOUS
 62
     7
 10
150.1916281955623
 20
-104.6748699539949
 30
0.0
 11
151.9236790031311
 21
-104.6393093165831
 31
0.0
  0
LINE
  5
1D0
  8
図面枠
  6
CONTINUOUS
 62
     7
 10
149.75861549367
 20
-104.7012113829617
 30
0.0
 11
150.1916281955623
 21
-104.6748699539949
 31
0.0
  0
LINE
  5
1D1
  8
図面枠
  6
CONTINUOUS
 62
     7
 10
149.1905572267632
 20
-104.6562769846786
 30
0.0
 11
149.3256027917778
 21
-104.7101012702158
 31
0.0
  0
LINE
  5
1D2
  8
図面枠
  6
CONTINUOUS
 62
     7
 10
148.6924598777172
 20
-104.6405350675126
 30
0.0
 11
149.1905572267631
 21
-104.6562769846786
 31
0.0
  0
LINE
  5
1D3
  8
図面枠
  6
CONTINUOUS
 62
     7
 10
146.497682801343
 20
-104.6456451204967
 30
0.0
 11
146.8256027917778
 21
-104.6412432510811
 31
0.0
  0
LINE
  5
1D4
  8
図面枠
  6
CONTINUOUS
 62
   253
 10
159.25861549367
 20
-88.67340135193707
 30
0.0
 11
159.25861549367
 21
-104.1491948515013
 31
0.0
  0
LINE
  5
1D5
  8
図面枠
  6
CONTINUOUS
 62
     7
 10
158.8256027917778
 20
-88.42340135193707
 30
0.0
 11
158.8256027917778
 21
-104.1403049287935
 31
0.0
  0
LINE
  5
1D6
  8
図面枠
  6
CONTINUOUS
 62
   253
 10
159.25861549367
 20
-104.6976078523728
 30
0.0
 11
159.25861549367
 21
-120.1734013519371
 31
0.0
  0
LINE
  5
1D7
  8
図面枠
  6
CONTINUOUS
 62
     7
 10
158.8256027917778
 20
-104.7064977750806
 30
0.0
 11
158.8256027917778
 21
-120.4234013519371
 31
0.0
  0
LINE
  5
1D8
  8
図面枠
  6
CONTINUOUS
 62
   253
 10
161.4236790031311
 20
-90.42340135193707
 30
0.0
 11
161.4236790031311
 21
-104.2110971985774
 31
0.0
  0
LINE
  5
1D9
  8
図面枠
  6
CONTINUOUS
 62
   253
 10
161.4236790031311
 20
-104.6357055052967
 30
0.0
 11
161.4236790031311
 21
-118.4234013519371
 31
0.0
  0
LINE
  5
1DA
  8
図面枠
  6
CONTINUOUS
 62
   253
 10
151.9236790031311
 20
-90.42340135193707
 30
0.0
 11
151.9236790031311
 21
-104.207493387291
 31
0.0
  0
LINE
  5
1DB
  8
図面枠
  6
CONTINUOUS
 62
   253
 10
151.9236790031311
 20
-104.6393093165831
 30
0.0
 11
151.9236790031311
 21
-118.423401351937
 31
0.0
  0
LINE
  5
1DC
  8
図面枠
  6
CONTINUOUS
 62
     7
 10
165.3256027917777
 20
-90.42340135193707
 30
0.0
 11
165.3256027917777
 21
-104.2125773971171
 31
0.0
  0
LINE
  5
1DD
  8
図面枠
  6
CONTINUOUS
 62
     7
 10
165.3256027917777
 20
-104.634225306757
 30
0.0
 11
165.3256027917777
 21
-118.423401351937
 31
0.0
  0
LINE
  5
1DE
  8
図面枠
  6
CONTINUOUS
 62
     7
 10
169.3256027917778
 20
-90.92340135193707
 30
0.0
 11
169.3256027917778
 21
-104.2315440386025
 31
0.0
  0
LINE
  5
1DF
  8
図面枠
  6
CONTINUOUS
 62
     7
 10
169.317452733689
 20
-104.6152942270013
 30
0.0
 11
169.3256027917778
 21
-104.6152586652716
 31
0.0
  0
LINE
  5
1E0
  8
図面枠
  6
CONTINUOUS
 62
     7
 10
169.3256027917778
 20
-104.6152586652716
 30
0.0
 11
169.3256027917778
 21
-117.9234013519371
 31
0.0
  0
LINE
  5
1E1
  8
図面枠
  6
CONTINUOUS
 62
     7
 10
169.3256027917778
 20
-104.2315440386026
 30
0.0
 11
169.317452733689
 21
-104.2315084768729
 31
0.0
  0
LINE
  5
1E2
  8
図面枠
  6
CONTINUOUS
 62
     7
 10
169.3256027917778
 20
-104.2734013519371
 30
0.0
 11
169.3256027917778
 21
-104.2315440386025
 31
0.0
  0
LINE
  5
1E3
  8
図面枠
  6
CONTINUOUS
 62
     7
 10
169.3256027917778
 20
-104.2734013519371
 30
0.0
 11
169.3239724051517
 21
-104.2734013519371
 31
0.0
  0
LINE
  5
1E4
  8
図面枠
  6
CONTINUOUS
 62
     7
 10
169.3256027917778
 20
-104.5734013519371
 30
0.0
 11
169.323972405152
 21
-104.5734013519371
 31
0.0
  0
LINE
  5
1E5
  8
図面枠
  6
CONTINUOUS
 62
     7
 10
169.3256027917778
 20
-104.6152586652716
 30
0.0
 11
169.3256027917778
 21
-104.5734013519371
 31
0.0
  0
LINE
  5
1E6
  8
図面枠
  6
CONTINUOUS
 62
     7
 10
169.323972405152
 20
-104.5734013519371
 30
0.0
 11
169.3239724051517
 21
-104.2734013519371
 31
0.0
  0
LINE
  5
1E7
  8
図面枠
  6
CONTINUOUS
 62
     7
 10
169.3256027917778
 20
-104.5734013519371
 30
0.0
 11
169.3256027917778
 21
-104.2734013519371
 31
0.0
  0
LINE
  5
1E8
  8
図面枠
  6
CONTINUOUS
 62
     7
 10
146.0647921725107
 20
-104.2734013519371
 30
0.0
 11
146.0647921725107
 21
-104.5734013519371
 31
0.0
  0
LINE
  5
1E9
  8
図面枠
  6
CONTINUOUS
 62
     7
 10
142.3256027917778
 20
-109.1734013519371
 30
0.0
 11
142.3256027917778
 21
-113.7171151782796
 31
0.0
  0
LINE
  5
1EA
  8
図面枠
  6
CONTINUOUS
 62
     7
 10
142.3256027917778
 20
-95.12968752559459
 30
0.0
 11
142.3256027917778
 21
-99.67340135193709
 31
0.0
  0
LINE
  5
1EB
  8
図面枠
  6
CONTINUOUS
 62
     7
 10
142.3256027917778
 20
-109.1734013519371
 30
0.0
 11
142.3256027917778
 21
-104.7026081990565
 31
0.0
  0
LINE
  5
1EC
  8
図面枠
  6
CONTINUOUS
 62
     7
 10
142.3256027917778
 20
-104.1441945048176
 30
0.0
 11
142.3256027917778
 21
-99.67340135193709
 31
0.0
  0
LINE
  5
1ED
  8
図面枠
  6
CONTINUOUS
 62
     7
 10
142.3256027917778
 20
-109.1734013519371
 30
0.0
 11
142.3256027917778
 21
-113.7171151782796
 31
0.0
  0
LINE
  5
1EE
  8
図面枠
  6
CONTINUOUS
 62
     7
 10
142.3256027917778
 20
-95.12968752559459
 30
0.0
 11
142.3256027917778
 21
-99.67340135193709
 31
0.0
  0
LINE
  5
1EF
  8
図面枠
  6
CONTINUOUS
 62
     7
 10
146.0256027917778
 20
-104.5734013519371
 30
0.0
 11
146.0256027917778
 21
-104.2734013519371
 31
0.0
  0
LINE
  5
1F0
  8
図面枠
  6
CONTINUOUS
 62
     7
 10
142.3256027917778
 20
-109.1734013519371
 30
0.0
 11
142.3256027917778
 21
-104.7026081990565
 31
0.0
  0
LINE
  5
1F1
  8
図面枠
  6
CONTINUOUS
 62
     7
 10
142.3256027917778
 20
-104.7026081990565
 30
0.0
 11
142.3256027917778
 21
-104.1441945048176
 31
0.0
  0
LINE
  5
1F2
  8
図面枠
  6
CONTINUOUS
 62
     7
 10
142.3256027917778
 20
-104.1441945048176
 30
0.0
 11
142.3256027917778
 21
-99.67340135193709
 31
0.0
  0
ARC
  5
1F3
  8
図面枠
  6
CONTINUOUS
 62
     7
 10
144.3256027917778
 20
-88.17340135193707
 30
0.0
 40
2.000000000000002
 50
90.00000000000001
 51
180.0000000000002
  0
ARC
  5
1F4
  8
図面枠
  6
CONTINUOUS
 62
     7
 10
144.3256027917778
 20
-120.673401351937
 30
0.0
 40
2.000000000000002
 50
179.9999999999998
 51
270.0
  0
LINE
  5
1F5
  8
図面枠
  6
CONTINUOUS
 62
     7
 10
146.3256027917778
 20
-86.17340135193707
 30
0.0
 11
144.3256027917778
 21
-86.17340135193707
 31
0.0
  0
LINE
  5
1F6
  8
図面枠
  6
CONTINUOUS
 62
     7
 10
144.3256027917778
 20
-122.673401351937
 30
0.0
 11
146.3256027917778
 21
-122.673401351937
 31
0.0
  0
ARC
  5
1F7
  8
図面枠
  6
CONTINUOUS
 62
     7
 10
149.3256027917778
 20
-88.92340135193707
 30
0.0
 40
0.5000000000000004
 50
30.00000000000002
 51
89.99999999999999
  0
ARC
  5
1F8
  8
図面枠
  6
CONTINUOUS
 62
     7
 10
149.3256027917778
 20
-119.9234013519371
 30
0.0
 40
0.5000000000000004
 50
270.0
 51
330.0
  0
ARC
  5
1F9
  8
図面枠
  6
CONTINUOUS
 62
     7
 10
158.8256027917778
 20
-88.92340135193707
 30
0.0
 40
0.5000000000000004
 50
29.99999999999998
 51
89.99999999999977
  0
ARC
  5
1FA
  8
図面枠
  6
CONTINUOUS
 62
     7
 10
158.8256027917778
 20
-119.9234013519371
 30
0.0
 40
0.5000000000000004
 50
270.0000000000002
 51
330.0
  0
LINE
  5
1FB
  8
図面枠
  6
CONTINUOUS
 62
     7
 10
158.8256027917778
 20
-88.42340135193707
 30
0.0
 11
158.6905572267632
 21
-89.96697922331089
 31
0.0
  0
LINE
  5
1FC
  8
図面枠
  6
CONTINUOUS
 62
     7
 10
158.6905572267632
 20
-118.8798234805632
 30
0.0
 11
158.8256027917778
 21
-120.4234013519371
 31
0.0
  0
LINE
  5
1FD
  8
図面枠
  6
CONTINUOUS
 62
     7
 10
149.3256027917778
 20
-88.42340135193707
 30
0.0
 11
149.1905572267632
 21
-89.96697922331073
 31
0.0
  0
LINE
  5
1FE
  8
図面枠
  6
CONTINUOUS
 62
     7
 10
149.1905572267632
 20
-118.8798234805634
 30
0.0
 11
149.3256027917778
 21
-120.4234013519371
 31
0.0
  0
LINE
  5
1FF
  8
図面枠
  6
CONTINUOUS
 62
     7
 10
159.25861549367
 20
-120.1734013519371
 30
0.0
 11
159.6916281955623
 21
-119.4234013519371
 31
0.0
  0
LINE
  5
200
  8
図面枠
  6
CONTINUOUS
 62
     7
 10
159.6916281955623
 20
-89.42340135193707
 30
0.0
 11
159.25861549367
 21
-88.67340135193707
 31
0.0
  0
LINE
  5
201
  8
図面枠
  6
CONTINUOUS
 62
     7
 10
149.75861549367
 20
-120.1734013519371
 30
0.0
 11
150.1916281955623
 21
-119.4234013519371
 31
0.0
  0
LINE
  5
202
  8
図面枠
  6
CONTINUOUS
 62
     7
 10
150.1916281955623
 20
-89.42340135193707
 30
0.0
 11
149.75861549367
 21
-88.67340135193707
 31
0.0
  0
ARC
  5
203
  8
図面枠
  6
CONTINUOUS
 62
     7
 10
161.4236790031311
 20
-88.42340135193707
 30
0.0
 40
2.000000000000002
 50
210.0
 51
269.9999999999999
  0
ARC
  5
204
  8
図面枠
  6
CONTINUOUS
 62
     7
 10
161.4236790031311
 20
-120.4234013519371
 30
0.0
 40
2.000000000000002
 50
90.00000000000011
 51
150.0000000000001
  0
ARC
  5
205
  8
図面枠
  6
CONTINUOUS
 62
     7
 10
151.9236790031311
 20
-88.42340135193707
 30
0.0
 40
2.000000000000002
 50
210.0
 51
270.0
  0
ARC
  5
206
  8
図面枠
  6
CONTINUOUS
 62
     7
 10
151.9236790031311
 20
-120.4234013519371
 30
0.0
 40
2.000000000000002
 50
90.00000000000011
 51
150.0
  0
ARC
  5
207
  8
図面枠
  6
CONTINUOUS
 62
     7
 10
146.8256027917778
 20
-118.9234013519371
 30
0.0
 40
0.5000000000000004
 50
90.0
 51
180.0
  0
ARC
  5
208
  8
図面枠
  6
CONTINUOUS
 62
     7
 10
146.8256027917778
 20
-89.92340135193707
 30
0.0
 40
0.5000000000000004
 50
180.0
 51
270.0
  0
ARC
  5
209
  8
図面枠
  6
CONTINUOUS
 62
     7
 10
158.1924598777172
 20
-89.92340135193707
 30
0.0
 40
0.5000000000000004
 50
270.0
 51
355.0000000000002
  0
ARC
  5
20A
  8
図面枠
  6
CONTINUOUS
 62
     7
 10
158.1924598777172
 20
-118.9234013519371
 30
0.0
 40
0.5000000000000004
 50
4.999999999999715
 51
90.0
  0
ARC
  5
20B
  8
図面枠
  6
CONTINUOUS
 62
     7
 10
148.6924598777172
 20
-89.92340135193707
 30
0.0
 40
0.5000000000000004
 50
270.0
 51
355.0000000000103
  0
ARC
  5
20C
  8
図面枠
  6
CONTINUOUS
 62
     7
 10
148.6924598777172
 20
-118.9234013519371
 30
0.0
 40
0.5000000000000004
 50
4.999999999989882
 51
90.0
  0
LINE
  5
20D
  8
図面枠
  6
CONTINUOUS
 62
     7
 10
165.3256027917777
 20
-90.42340135193707
 30
0.0
 11
161.4236790031311
 21
-90.42340135193707
 31
0.0
  0
LINE
  5
20E
  8
図面枠
  6
CONTINUOUS
 62
     7
 10
161.4236790031311
 20
-118.4234013519371
 30
0.0
 11
165.3256027917777
 21
-118.4234013519371
 31
0.0
  0
LINE
  5
20F
  8
図面枠
  6
CONTINUOUS
 62
     7
 10
165.3256027917777
 20
-118.4234013519371
 30
0.0
 11
169.3256027917778
 21
-117.9234013519371
 31
0.0
  0
LINE
  5
210
  8
図面枠
  6
CONTINUOUS
 62
     7
 10
169.3256027917778
 20
-90.92340135193707
 30
0.0
 11
165.3256027917777
 21
-90.42340135193707
 31
0.0
  0
LINE
  5
211
  8
図面枠
  6
CONTINUOUS
 62
     7
 10
158.1924598777172
 20
-90.42340135193707
 30
0.0
 11
151.9236790031311
 21
-90.42340135193707
 31
0.0
  0
LINE
  5
212
  8
図面枠
  6
CONTINUOUS
 62
     7
 10
151.9236790031311
 20
-118.4234013519371
 30
0.0
 11
158.1924598777172
 21
-118.4234013519371
 31
0.0
  0
LINE
  5
213
  8
図面枠
  6
CONTINUOUS
 62
     7
 10
148.6924598777172
 20
-90.42340135193707
 30
0.0
 11
146.8256027917778
 21
-90.42340135193707
 31
0.0
  0
LINE
  5
214
  8
図面枠
  6
CONTINUOUS
 62
     7
 10
146.8256027917778
 20
-118.4234013519371
 30
0.0
 11
148.6924598777172
 21
-118.4234013519371
 31
0.0
  0
LINE
  5
215
  8
図面枠
  6
CENTER
 62
     1
 10
108.0189898889866
 20
-104.7737059384275
 30
0.0
 11
108.0189898889866
 21
-94.68844201346764
 31
0.0
  0
LINE
  5
217
  8
図面枠
  6
CENTER
 62
     1
 10
120.0189898889866
 20
-94.68844201346765
 30
0.0
 11
120.0189898889866
 21
-104.7737059384275
 31
0.0
  0
LINE
  5
218
  8
図面枠
  6
CENTER
 62
     1
 10
94.76898988898658
 20
-104.4234013519371
 30
0.0
 11
133.2689898889865
 21
-104.4234013519371
 31
0.0
  0
LINE
  5
219
  8
図面枠
  6
CENTER
 62
     1
 10
170.7692246954824
 20
-104.4234013519371
 30
0.0
 11
140.7692246954824
 21
-104.4234013519371
 31
0.0
  0
LINE
  5
21A
  8
図面枠
  6
CONTINUOUS
 62
     7
 10
146.8256027917778
 20
-104.641243251081
 30
0.0
 11
148.6924598777173
 21
-104.6405350675126
 31
0.0
  0
LINE
  5
21B
  8
図面枠
  6
CENTER
 62
     1
 10
114.0189898889866
 20
-123.6734013519371
 30
0.0
 11
114.0189898889866
 21
-85.17340135193707
 31
0.0
  0
LINE
  5
21C
  8
図面枠
  6
CONTINUOUS
 62
     7
 10
146.8256027917778
 20
-104.2055594527931
 30
0.0
 11
148.6924598777173
 21
-104.2062676363615
 31
0.0
  0
TEXT
  5
21D
  8
図面枠
  6
CONTINUOUS
 62
     7
 10
156.0637238964612
 20
-136.7272727272728
 30
0.0
 40
3.0
  1
ＦＺＶ－２８Ｈ
  0
ENDSEC
  0
EOF
