  0
SECTION
  2
HEADER
  9
$ACADVER
  1
AC1006
  9
$DWGCODEPAGE
  3
ansi_932
  9
$INSBASE
 10
0.0
 20
0.0
 30
0.0
  9
$EXTMIN
 10
315.9280347742901
 20
59.89158824201526
  9
$EXTMAX
 10
443.9280347742902
 20
181.8643155147425
  9
$LIMMIN
 10
0.0
 20
0.0
  9
$LIMMAX
 10
12.0
 20
9.0
  9
$ORTHOMODE
 70
     0
  9
$REGENMODE
 70
     1
  9
$FILLMODE
 70
     1
  9
$QTEXTMODE
 70
     0
  9
$MIRRTEXT
 70
     1
  9
$DRAGMODE
 70
     2
  9
$LTSCALE
 40
1.0
  9
$OSMODE
 70
    37
  9
$ATTMODE
 70
     1
  9
$TEXTSIZE
 40
0.2
  9
$TRACEWID
 40
0.05
  9
$TEXTSTYLE
  7
STANDARD
  9
$CLAYER
  8
0
  9
$CELTYPE
  6
BYLAYER
  9
$CECOLOR
 62
   256
  9
$DIMSCALE
 40
1.0
  9
$DIMASZ
 40
3.0
  9
$DIMEXO
 40
0.0625
  9
$DIMDLI
 40
0.38
  9
$DIMRND
 40
0.0
  9
$DIMDLE
 40
0.0
  9
$DIMEXE
 40
1.5
  9
$DIMTP
 40
0.0
  9
$DIMTM
 40
0.0
  9
$DIMTXT
 40
3.0
  9
$DIMCEN
 40
0.09
  9
$DIMTSZ
 40
0.0
  9
$DIMTOL
 70
     0
  9
$DIMLIM
 70
     0
  9
$DIMTIH
 70
     1
  9
$DIMTOH
 70
     1
  9
$DIMSE1
 70
     0
  9
$DIMSE2
 70
     0
  9
$DIMTAD
 70
     1
  9
$DIMZIN
 70
     0
  9
$DIMBLK
  1

  9
$DIMASO
 70
     1
  9
$DIMSHO
 70
     1
  9
$DIMPOST
  1

  9
$DIMAPOST
  1

  9
$DIMALT
 70
     0
  9
$DIMALTD
 70
     2
  9
$DIMALTF
 40
25.4
  9
$DIMLFAC
 40
1.0
  9
$DIMTOFL
 70
     0
  9
$DIMTVP
 40
0.0
  9
$DIMTIX
 70
     0
  9
$DIMSOXD
 70
     0
  9
$DIMSAH
 70
     0
  9
$DIMBLK1
  1

  9
$DIMBLK2
  1

  9
$LUNITS
 70
     2
  9
$LUPREC
 70
     4
  9
$SKETCHINC
 40
0.1
  9
$FILLETRAD
 40
0.5
  9
$AUNITS
 70
     0
  9
$AUPREC
 70
     0
  9
$MENU
  1
.
  9
$ELEVATION
 40
0.0
  9
$THICKNESS
 40
0.0
  9
$LIMCHECK
 70
     0
  9
$CHAMFERA
 40
0.0
  9
$CHAMFERB
 40
0.0
  9
$SKPOLY
 70
     0
  9
$TDCREATE
 40
2458915.379970174
  9
$TDUPDATE
 40
2458915.379970903
  9
$TDINDWG
 40
0.0000000116
  9
$TDUSRTIMER
 40
0.0000000116
  9
$USRTIMER
 70
     1
  9
$ANGBASE
 50
0.0
  9
$ANGDIR
 70
     0
  9
$PDMODE
 70
     0
  9
$PDSIZE
 40
0.0
  9
$PLINEWID
 40
0.0
  9
$COORDS
 70
     1
  9
$SPLFRAME
 70
     0
  9
$SPLINETYPE
 70
     6
  9
$SPLINESEGS
 70
     8
  9
$ATTDIA
 70
     0
  9
$ATTREQ
 70
     1
  9
$HANDLING
 70
     1
  9
$HANDSEED
  5
2F3
  9
$SURFTAB1
 70
     6
  9
$SURFTAB2
 70
     6
  9
$SURFTYPE
 70
     6
  9
$SURFU
 70
     6
  9
$SURFV
 70
     6
  9
$UCSNAME
  2

  9
$UCSORG
 10
0.0
 20
0.0
 30
0.0
  9
$UCSXDIR
 10
1.0
 20
0.0
 30
0.0
  9
$UCSYDIR
 10
0.0
 20
1.0
 30
0.0
  9
$USERI1
 70
     0
  9
$USERI2
 70
     0
  9
$USERI3
 70
     0
  9
$USERI4
 70
     0
  9
$USERI5
 70
     0
  9
$USERR1
 40
0.0
  9
$USERR2
 40
0.0
  9
$USERR3
 40
0.0
  9
$USERR4
 40
0.0
  9
$USERR5
 40
0.0
  9
$WORLDVIEW
 70
     1
  0
ENDSEC
  0
SECTION
  2
TABLES
  0
TABLE
  2
VPORT
 70
     1
  0
VPORT
  2
*ACTIVE
 70
     0
 10
0.0
 20
0.0
 11
1.0
 21
1.0
 12
379.9280347742902
 22
120.8779518783789
 13
0.0
 23
0.0
 14
0.5
 24
0.5
 15
0.5
 25
0.5
 16
0.0
 26
0.0
 36
1.0
 17
0.0
 27
0.0
 37
0.0
 40
121.9727272727273
 41
1.6
 42
50.0
 43
0.0
 44
0.0
 50
0.0
 51
0.0
 71
     0
 72
   100
 73
     1
 74
     3
 75
     0
 76
     0
 77
     0
 78
     0
  0
ENDTAB
  0
TABLE
  2
LTYPE
 70
     3
  0
LTYPE
  2
CONTINUOUS
 70
     0
  3
Solid line
 72
    65
 73
     0
 40
0.0
  0
LTYPE
  2
DOT
 70
     0
  3

 72
    65
 73
     0
 40
0.0
  0
LTYPE
  2
CENTER
 70
     0
  3

 72
    65
 73
     0
 40
0.0
  0
ENDTAB
  0
TABLE
  2
LAYER
 70
     1
  0
LAYER
  2
0
 70
     0
 62
     7
  6
CONTINUOUS
  0
ENDTAB
  0
TABLE
  2
STYLE
 70
     2
  0
STYLE
  2
STANDARD
 70
     0
 40
0.0
 41
1.0
 50
0.0
 71
     0
 42
0.2
  3
txt
  4

  0
STYLE
  2
ＭＳ_ゴシック
 70
     0
 40
0.0
 41
1.0
 50
0.0
 71
     0
 42
0.2
  3
ＭＳ ゴシック.shx
  4

  0
ENDTAB
  0
TABLE
  2
VIEW
 70
     0
  0
ENDTAB
  0
TABLE
  2
UCS
 70
     0
  0
ENDTAB
  0
ENDSEC
  0
SECTION
  2
BLOCKS
  0
BLOCK
  8
0
  2
D_FRAME_VIEW_18170
 70
     0
 10
0.0
 20
0.0
 30
0.0
  0
LINE
  5
70
  8
0
  6
CONTINUOUS
 62
     7
 10
321.6347707769581
 20
77.31388632175367
 30
0.0
 11
321.6436374062846
 21
75.3138863217398
 31
0.0
  0
LINE
  5
71
  8
0
  6
CONTINUOUS
 62
     7
 10
366.2124321422956
 20
75.31388632174321
 30
0.0
 11
366.2212987716221
 21
77.31388632174298
 31
0.0
  0
LINE
  5
72
  8
0
  6
CONTINUOUS
 62
     7
 10
321.6436374062846
 20
75.31388632174365
 30
0.0
 11
366.2124321422957
 21
75.31388632174365
 31
0.0
  0
LINE
  5
73
  8
0
  6
CONTINUOUS
 62
     7
 10
322.7576068622272
 20
78.31388632174365
 30
0.0
 11
365.0984626863531
 21
78.31388632174365
 31
0.0
  0
ARC
  5
74
  8
0
  6
CONTINUOUS
 62
     7
 10
365.1093637104767
 20
77.11094466605718
 30
0.0
 40
1.202991047062548
 50
50.46134813762262
 51
90.51919856276157
  0
POLYLINE
  5
75
  8
0
  6
CONTINUOUS
 62
     7
 66
     1
 10
0.0
 20
0.0
 30
0.0
  0
VERTEX
  5
213
  8
0
  6
CONTINUOUS
 62
     7
 10
365.8751861451235
 20
78.03868571716161
 30
0.0
  0
VERTEX
  5
214
  8
0
  6
CONTINUOUS
 62
     7
 10
365.977511682634
 20
77.93921303095675
 30
0.0
  0
VERTEX
  5
215
  8
0
  6
CONTINUOUS
 62
     7
 10
366.0663820573387
 20
77.82430145733447
 30
0.0
  0
VERTEX
  5
216
  8
0
  6
CONTINUOUS
 62
     7
 10
366.1352175461416
 20
77.70171151661455
 30
0.0
  0
VERTEX
  5
217
  8
0
  6
CONTINUOUS
 62
     7
 10
366.1808157111032
 20
77.58396370564685
 30
0.0
  0
VERTEX
  5
218
  8
0
  6
CONTINUOUS
 62
     7
 10
366.2101346642622
 20
77.45860130186342
 30
0.0
  0
VERTEX
  5
219
  8
0
  6
CONTINUOUS
 62
     7
 10
366.2210472170349
 20
77.33937949681884
 30
0.0
  0
VERTEX
  5
21A
  8
0
  6
CONTINUOUS
 62
     7
 10
366.2212987716221
 20
77.31388632174365
 30
0.0
  0
SEQEND
  5
2E3
  8
0
  6
CONTINUOUS
 62
     7
  0
POLYLINE
  5
76
  8
0
  6
CONTINUOUS
 62
     7
 66
     1
 10
0.0
 20
0.0
 30
0.0
  0
VERTEX
  5
21B
  8
0
  6
CONTINUOUS
 62
     7
 10
321.6347707769582
 20
77.31388632174365
 30
0.0
  0
VERTEX
  5
21C
  8
0
  6
CONTINUOUS
 62
     7
 10
321.6415601619058
 20
77.42774903869075
 30
0.0
  0
VERTEX
  5
21D
  8
0
  6
CONTINUOUS
 62
     7
 10
321.6633425012394
 20
77.54204873170283
 30
0.0
  0
VERTEX
  5
21E
  8
0
  6
CONTINUOUS
 62
     7
 10
321.6996979413419
 20
77.65290902029602
 30
0.0
  0
VERTEX
  5
21F
  8
0
  6
CONTINUOUS
 62
     7
 10
321.7485471165341
 20
77.75623843619374
 30
0.0
  0
VERTEX
  5
220
  8
0
  6
CONTINUOUS
 62
     7
 10
321.8110660401332
 20
77.85528002259399
 30
0.0
  0
VERTEX
  5
221
  8
0
  6
CONTINUOUS
 62
     7
 10
321.9038744368194
 20
77.96644952756311
 30
0.0
  0
VERTEX
  5
222
  8
0
  6
CONTINUOUS
 62
     7
 10
321.9818871671208
 20
78.03953194134101
 30
0.0
  0
VERTEX
  5
223
  8
0
  6
CONTINUOUS
 62
     7
 10
322.0678763963921
 20
78.105213119247
 30
0.0
  0
SEQEND
  5
2E4
  8
0
  6
CONTINUOUS
 62
     7
  0
ARC
  5
77
  8
0
  6
CONTINUOUS
 62
     7
 10
322.7497410029706
 20
77.09566095950336
 30
0.0
 40
1.218250756185822
 50
89.63005672945155
 51
124.0356014276311
  0
LINE
  5
78
  8
0
  6
CONTINUOUS
 62
     7
 10
362.4009879762013
 20
113.3138863217437
 30
0.0
 11
364.3406602932997
 21
78.31388632174364
 31
0.0
  0
LINE
  5
79
  8
0
  6
CONTINUOUS
 62
     7
 10
325.455081572379
 20
113.3138863217437
 30
0.0
 11
323.5154092552805
 21
78.31388632174365
 31
0.0
  0
LINE
  5
7A
  8
0
  6
CONTINUOUS
 62
     7
 10
325.6790757560238
 20
114.366222277987
 30
0.0
 11
325.455081572379
 21
113.3138863217437
 31
0.0
  0
LINE
  5
7B
  8
0
  6
CONTINUOUS
 62
     7
 10
362.4009879762012
 20
113.3138863217436
 30
0.0
 11
362.1769937925564
 21
114.3662222779866
 31
0.0
  0
POLYLINE
  5
7C
  8
0
  6
CONTINUOUS
 62
     7
 66
     1
 10
0.0
 20
0.0
 30
0.0
  0
VERTEX
  5
224
  8
0
  6
CONTINUOUS
 62
     7
 10
325.6790757560244
 20
114.3662222779866
 30
0.0
  0
VERTEX
  5
225
  8
0
  6
CONTINUOUS
 62
     7
 10
325.715799651221
 20
114.4922139083034
 30
0.0
  0
VERTEX
  5
226
  8
0
  6
CONTINUOUS
 62
     7
 10
325.7707291805481
 20
114.6151100158305
 30
0.0
  0
VERTEX
  5
227
  8
0
  6
CONTINUOUS
 62
     7
 10
325.8411575998334
 20
114.7303836266026
 30
0.0
  0
VERTEX
  5
228
  8
0
  6
CONTINUOUS
 62
     7
 10
325.9234250583584
 20
114.8350257682423
 30
0.0
  0
VERTEX
  5
229
  8
0
  6
CONTINUOUS
 62
     7
 10
326.0180918530406
 20
114.9315291957503
 30
0.0
  0
SEQEND
  5
2E5
  8
0
  6
CONTINUOUS
 62
     7
  0
ARC
  5
7D
  8
0
  6
CONTINUOUS
 62
     7
 10
327.0217751690633
 20
113.8053794826575
 30
0.0
 40
1.50850700202594
 50
89.97336961647436
 51
131.7090895574627
  0
LINE
  5
7E
  8
0
  6
CONTINUOUS
 62
     7
 10
327.0224763047998
 20
115.3138863217437
 30
0.0
 11
360.8335932437805
 21
115.3138863217437
 31
0.0
  0
ARC
  5
7F
  8
0
  6
CONTINUOUS
 62
     7
 10
360.8444754724272
 20
113.8484236001425
 30
0.0
 40
1.465503125654499
 50
36.97156351869421
 51
90.42545900608513
  0
ARC
  5
80
  8
0
  6
CONTINUOUS
 62
     7
 10
361.1941491225131
 20
114.1469089409815
 30
0.0
 40
1.007016377831522
 50
12.57898465834427
 51
35.36858439872118
  0
LINE
  5
81
  8
0
  6
CONTINUOUS
 62
     7
 10
362.4009879762013
 20
113.3138863217437
 30
0.0
 11
364.9149432715433
 21
113.3138863217437
 31
0.0
  0
LINE
  5
82
  8
0
  6
CONTINUOUS
 62
     7
 10
370.9280347742901
 20
75.31388632174365
 30
0.0
 11
366.2124321422956
 21
75.31388632174365
 31
0.0
  0
LINE
  5
83
  8
0
  6
CONTINUOUS
 62
     7
 10
322.941126277037
 20
113.3138863217437
 30
0.0
 11
325.455081572379
 21
113.3138863217437
 31
0.0
  0
LINE
  5
84
  8
0
  6
CONTINUOUS
 62
     7
 10
321.6436374062847
 20
75.31388632174365
 30
0.0
 11
316.9280347742902
 21
75.31388632174365
 31
0.0
  0
LINE
  5
85
  8
0
  6
CONTINUOUS
 62
     7
 10
315.9280347742901
 20
75.31388632174365
 30
0.0
 11
315.9280347742901
 21
78.31388632174364
 31
0.0
  0
LINE
  5
86
  8
0
  6
CONTINUOUS
 62
     7
 10
316.9280347742901
 20
75.31388632174365
 30
0.0
 11
315.9280347742901
 21
75.31388632174365
 31
0.0
  0
LINE
  5
87
  8
0
  6
CONTINUOUS
 62
     7
 10
371.9280347742902
 20
78.31388632174364
 30
0.0
 11
371.9280347742902
 21
75.31388632174365
 31
0.0
  0
LINE
  5
88
  8
0
  6
CONTINUOUS
 62
     7
 10
371.9280347742901
 20
75.31388632174365
 30
0.0
 11
370.9280347742901
 21
75.31388632174365
 31
0.0
  0
LINE
  5
89
  8
0
  6
CONTINUOUS
 62
     7
 10
315.9280347742901
 20
78.31388632174364
 30
0.0
 11
321.7855714283091
 21
112.4828501368545
 31
0.0
  0
ARC
  5
8A
  8
0
  6
CONTINUOUS
 62
     7
 10
322.7711936831224
 20
112.3138863217437
 30
0.0
 40
1.000000000000001
 50
90.0
 51
170.2724214485991
  0
LINE
  5
8B
  8
0
  6
CONTINUOUS
 62
     7
 10
322.7711936831224
 20
113.3138863217437
 30
0.0
 11
322.941126277037
 21
113.3138863217437
 31
0.0
  0
LINE
  5
8C
  8
0
  6
CONTINUOUS
 62
     7
 10
364.9149432715433
 20
113.3138863217437
 30
0.0
 11
365.0848758654578
 21
113.3138863217437
 31
0.0
  0
ARC
  5
8D
  8
0
  6
CONTINUOUS
 62
     7
 10
365.0848758654578
 20
112.3138863217437
 30
0.0
 40
1.0
 50
9.727578551401132
 51
89.99999999999996
  0
LINE
  5
8E
  8
0
  6
CONTINUOUS
 62
     7
 10
366.0704981202711
 20
112.4828501368545
 30
0.0
 11
371.9280347742902
 21
78.31388632174364
 31
0.0
  0
LINE
  5
8F
  8
0
  6
CONTINUOUS
 62
     7
 10
351.9133161485287
 20
75.31388632174365
 30
0.0
 11
352.4133161485287
 21
74.31388632174365
 31
0.0
  0
LINE
  5
90
  8
0
  6
CONTINUOUS
 62
     7
 10
352.4133161485287
 20
74.31388632174365
 30
0.0
 11
352.9133161485287
 21
75.31388632174365
 31
0.0
  0
LINE
  5
91
  8
0
  6
CONTINUOUS
 62
     7
 10
334.9427534000516
 20
75.31388632174365
 30
0.0
 11
335.4427534000516
 21
74.31388632174365
 31
0.0
  0
LINE
  5
92
  8
0
  6
CONTINUOUS
 62
     7
 10
335.4427534000516
 20
74.31388632174365
 30
0.0
 11
335.9427534000516
 21
75.31388632174365
 31
0.0
  0
ENDBLK
  8
0
  0
BLOCK
  8
0
  2
D_FRAME_VIEW_18482
 70
     0
 10
0.0
 20
0.0
 30
0.0
  0
LINE
  5
97
  8
0
  6
CONTINUOUS
 62
     7
 10
359.4199681591198
 20
143.8643155147425
 30
0.0
 11
362.4009879762013
 21
143.8643155147425
 31
0.0
  0
LINE
  5
98
  8
0
  6
CONTINUOUS
 62
     7
 10
362.1769937925564
 20
143.6012315256818
 30
0.0
 11
362.4009879762012
 21
143.8643155147425
 31
0.0
  0
ARC
  5
99
  8
0
  6
CONTINUOUS
 62
     7
 10
360.9491243648698
 20
147.1239878545223
 30
0.0
 40
3.761447001148006
 50
268.2399095721062
 51
287.5020750254022
  0
POLYLINE
  5
9A
  8
0
  6
CONTINUOUS
 62
     7
 66
     1
 10
0.0
 20
0.0
 30
0.0
  0
VERTEX
  5
22A
  8
0
  6
CONTINUOUS
 62
     7
 10
362.0803432116684
 20
143.5366730560842
 30
0.0
  0
VERTEX
  5
22B
  8
0
  6
CONTINUOUS
 62
     7
 10
362.1689905414868
 20
143.5927549908255
 30
0.0
  0
VERTEX
  5
22C
  8
0
  6
CONTINUOUS
 62
     7
 10
362.1769937925565
 20
143.6012315256818
 30
0.0
  0
SEQEND
  5
2E6
  8
0
  6
CONTINUOUS
 62
     7
  0
LINE
  5
9B
  8
0
  6
CONTINUOUS
 62
     7
 10
360.8335932437805
 20
143.3643155147425
 30
0.0
 11
359.6922802731746
 21
143.3643155147425
 31
0.0
  0
LINE
  5
9C
  8
0
  6
CONTINUOUS
 62
     7
 10
359.1623253220748
 20
143.4882246978052
 30
0.0
 11
359.2350259812274
 21
143.4132893484063
 31
0.0
  0
ARC
  5
9D
  8
0
  6
CONTINUOUS
 62
     7
 10
359.6462850558808
 20
145.0939830757688
 30
0.0
 40
1.730279003999201
 50
256.2501307163573
 51
271.5232469962954
  0
LINE
  5
9E
  8
0
  6
CONTINUOUS
 62
     7
 10
359.1623253220748
 20
143.4882246978053
 30
0.0
 11
359.4199681591197
 21
143.8643155147426
 31
0.0
  0
LINE
  5
9F
  8
0
  6
CONTINUOUS
 62
     7
 10
325.455081572379
 20
165.8643155147425
 30
0.0
 11
328.4361013894604
 21
165.8643155147425
 31
0.0
  0
LINE
  5
A0
  8
0
  6
CONTINUOUS
 62
     7
 10
325.6790757560238
 20
166.1273995038033
 30
0.0
 11
325.455081572379
 21
165.8643155147425
 31
0.0
  0
ARC
  5
A1
  8
0
  6
CONTINUOUS
 62
     7
 10
326.9112194016648
 20
162.6440275881297
 30
0.0
 40
3.721951148980382
 50
88.28705417283349
 51
108.1011526350931
  0
LINE
  5
A2
  8
0
  6
CONTINUOUS
 62
     7
 10
325.7548257373102
 20
166.1817774448093
 30
0.0
 11
325.6790757560238
 21
166.1273995038032
 31
0.0
  0
LINE
  5
A3
  8
0
  6
CONTINUOUS
 62
     7
 10
327.0224763047998
 20
166.3643155147425
 30
0.0
 11
328.1637892754057
 21
166.3643155147425
 31
0.0
  0
LINE
  5
A4
  8
0
  6
CONTINUOUS
 62
     7
 10
328.6937442265054
 20
166.2404063316798
 30
0.0
 11
328.6244094841818
 21
166.3142330682039
 31
0.0
  0
ARC
  5
A5
  8
0
  6
CONTINUOUS
 62
     7
 10
328.2104492766983
 20
164.6502004806636
 30
0.0
 40
1.714749983460012
 50
76.03014223445791
 51
91.55926589787714
  0
LINE
  5
A6
  8
0
  6
CONTINUOUS
 62
     7
 10
328.6937442265054
 20
166.2404063316798
 30
0.0
 11
328.4361013894605
 21
165.8643155147425
 31
0.0
  0
LINE
  5
A7
  8
0
  6
CONTINUOUS
 62
     7
 10
362.1769937925558
 20
166.1273995038043
 30
0.0
 11
362.0825326197825
 21
166.1909411609693
 31
0.0
  0
ARC
  5
A8
  8
0
  6
CONTINUOUS
 62
     7
 10
360.9406044881053
 20
162.5500053550642
 30
0.0
 40
3.815810975485734
 50
72.58670318350309
 51
91.6070231647543
  0
LINE
  5
A9
  8
0
  6
CONTINUOUS
 62
     7
 10
325.6790757560244
 20
143.6012315256807
 30
0.0
 11
325.7708012106916
 21
143.5389755076191
 31
0.0
  0
ARC
  5
AA
  8
0
  6
CONTINUOUS
 62
     7
 10
326.8997045239308
 20
147.0567921727714
 30
0.0
 40
3.694517124099723
 50
252.2080335019566
 51
271.9043355173283
  0
LINE
  5
AB
  8
0
  6
CONTINUOUS
 62
     7
 10
325.455081572379
 20
143.8643155147425
 30
0.0
 11
325.6790757560238
 21
143.6012315256817
 31
0.0
  0
LINE
  5
AC
  8
0
  6
CONTINUOUS
 62
     7
 10
325.455081572379
 20
143.8643155147425
 30
0.0
 11
328.4361013894604
 21
143.8643155147425
 31
0.0
  0
LINE
  5
AD
  8
0
  6
CONTINUOUS
 62
     7
 10
328.4361013894605
 20
143.8643155147426
 30
0.0
 11
328.6937442265055
 21
143.4882246978052
 31
0.0
  0
LINE
  5
AE
  8
0
  6
CONTINUOUS
 62
     7
 10
328.1637892754057
 20
143.3643155147425
 30
0.0
 11
328.6994145141828
 21
143.4756872406822
 31
0.0
  0
LINE
  5
AF
  8
0
  6
CONTINUOUS
 62
     7
 10
328.1637892754057
 20
143.3643155147425
 30
0.0
 11
327.0224763047999
 21
143.3643155147425
 31
0.0
  0
LINE
  5
B0
  8
0
  6
CONTINUOUS
 62
     7
 10
362.4009879761993
 20
165.8643155147448
 30
0.0
 11
362.1769937925563
 21
166.1273995038034
 31
0.0
  0
LINE
  5
B1
  8
0
  6
CONTINUOUS
 62
     7
 10
359.4199681591198
 20
165.8643155147425
 30
0.0
 11
362.4009879762006
 21
165.8643155147424
 31
0.0
  0
LINE
  5
B2
  8
0
  6
CONTINUOUS
 62
     7
 10
359.4199681591197
 20
165.8643155147425
 30
0.0
 11
359.1623253220747
 21
166.2404063316799
 31
0.0
  0
LINE
  5
B3
  8
0
  6
CONTINUOUS
 62
     7
 10
359.6922802731746
 20
166.3643155147425
 30
0.0
 11
359.1566510669102
 21
166.2529627110218
 31
0.0
  0
LINE
  5
B4
  8
0
  6
CONTINUOUS
 62
     7
 10
359.6922802731746
 20
166.3643155147425
 30
0.0
 11
360.8335932437804
 21
166.3643155147425
 31
0.0
  0
ARC
  5
B5
  8
0
  6
CONTINUOUS
 62
     7
 10
343.9280347742901
 20
154.8643155147425
 30
0.0
 40
19.01312837934692
 50
36.75025715156496
 51
143.2497428484353
  0
ARC
  5
B6
  8
0
  6
CONTINUOUS
 62
     7
 10
343.9280347742901
 20
154.8643155147425
 30
0.0
 40
18.99999999999999
 50
35.3345017918231
 51
35.37654015194162
  0
LINE
  5
B7
  8
0
  6
CONTINUOUS
 62
     7
 10
359.4280347742901
 20
165.8529460026605
 30
0.0
 11
359.2971317574287
 21
165.811172546876
 31
0.0
  0
ARC
  5
B8
  8
0
  6
CONTINUOUS
 62
     7
 10
343.9280347742901
 20
154.8643155147425
 30
0.0
 40
18.86909698313861
 50
35.46090868757167
 51
144.5390913124284
  0
LINE
  5
B9
  8
0
  6
CONTINUOUS
 62
     7
 10
328.4280347742901
 20
165.8529460026605
 30
0.0
 11
328.5589377911515
 21
165.811172546876
 31
0.0
  0
ARC
  5
BA
  8
0
  6
CONTINUOUS
 62
     7
 10
343.9280347742901
 20
154.8643155147425
 30
0.0
 40
19.00000000000002
 50
144.6234598480584
 51
144.665498208177
  0
ARC
  5
BB
  8
0
  6
CONTINUOUS
 62
     7
 10
343.9280347742901
 20
154.8643155147425
 30
0.0
 40
19.00000000000001
 50
215.334501791823
 51
215.3765401519416
  0
LINE
  5
BC
  8
0
  6
CONTINUOUS
 62
     7
 10
328.4280347742901
 20
143.8756850268246
 30
0.0
 11
328.5589377911515
 21
143.917458482609
 31
0.0
  0
ARC
  5
BD
  8
0
  6
CONTINUOUS
 62
     7
 10
343.9280347742901
 20
154.8643155147425
 30
0.0
 40
18.86909698313861
 50
215.4609086875716
 51
324.5390913124283
  0
LINE
  5
BE
  8
0
  6
CONTINUOUS
 62
     7
 10
359.4280347742901
 20
143.8756850268246
 30
0.0
 11
359.2971317574287
 21
143.917458482609
 31
0.0
  0
ARC
  5
BF
  8
0
  6
CONTINUOUS
 62
     7
 10
343.9280347742901
 20
154.8643155147425
 30
0.0
 40
19.0
 50
324.6234598480584
 51
324.6654982081769
  0
LINE
  5
C0
  8
0
  6
CONTINUOUS
 62
     7
 10
362.4009879762013
 20
143.8643155147425
 30
0.0
 11
364.3406602932997
 21
143.558875142066
 31
0.0
  0
ARC
  5
C1
  8
0
  6
CONTINUOUS
 62
     7
 10
343.9280347742901
 20
154.8643155147425
 30
0.0
 40
23.33427227490643
 50
208.9796781395506
 51
331.0203218604494
  0
LINE
  5
C2
  8
0
  6
CONTINUOUS
 62
     7
 10
325.455081572379
 20
143.8643155147425
 30
0.0
 11
323.5154092552805
 21
143.558875142066
 31
0.0
  0
LINE
  5
C3
  8
0
  6
CONTINUOUS
 62
     7
 10
325.455081572379
 20
165.8643155147425
 30
0.0
 11
323.5154092552805
 21
166.1697558874191
 31
0.0
  0
ARC
  5
C4
  8
0
  6
CONTINUOUS
 62
     7
 10
343.9280347742901
 20
154.8643155147425
 30
0.0
 40
23.33427227490643
 50
28.97967813955063
 51
151.0203218604494
  0
LINE
  5
C5
  8
0
  6
CONTINUOUS
 62
     7
 10
362.4009879762005
 20
165.8643155147424
 30
0.0
 11
364.3406602932997
 21
166.1697558874191
 31
0.0
  0
LINE
  5
C6
  8
0
  6
CONTINUOUS
 62
     7
 10
362.4009879762005
 20
165.8643155147424
 30
0.0
 11
364.9149432715433
 21
165.8643155147425
 31
0.0
  0
LINE
  5
C7
  8
0
  6
CONTINUOUS
 62
     7
 10
365.0848758654579
 20
165.8501852919816
 30
0.0
 11
364.9149432715433
 21
165.8643155147426
 31
0.0
  0
LINE
  5
C8
  8
0
  6
CONTINUOUS
 62
     7
 10
365.0848758654578
 20
158.1143155147425
 30
0.0
 11
362.9280347742902
 21
158.1143155147425
 31
0.0
  0
LINE
  5
C9
  8
0
  6
CONTINUOUS
 62
     7
 10
362.9280347742902
 20
164.3556267253375
 30
0.0
 11
362.9280347742902
 21
158.1143155147425
 31
0.0
  0
LINE
  5
CA
  8
0
  6
CONTINUOUS
 62
     7
 10
359.4280347742901
 20
164.3556267253375
 30
0.0
 11
359.4280347742901
 21
165.8529460026605
 31
0.0
  0
LINE
  5
CB
  8
0
  6
CONTINUOUS
 62
     7
 10
365.0984626863531
 20
166.1697558874191
 30
0.0
 11
364.3406602932997
 21
166.1697558874191
 31
0.0
  0
LINE
  5
CC
  8
0
  6
CONTINUOUS
 62
     7
 10
366.2212987716221
 20
166.1784827552098
 30
0.0
 11
365.0984626863531
 21
166.1697558874191
 31
0.0
  0
LINE
  5
CD
  8
0
  6
CONTINUOUS
 62
     7
 10
370.9280347742902
 20
166.1959364907914
 30
0.0
 11
366.2124321422956
 21
166.1959364907914
 31
0.0
  0
ARC
  5
CE
  8
0
  6
CONTINUOUS
 62
     7
 10
322.9962755001463
 20
145.0911306125162
 30
0.0
 40
1.233396299021285
 50
191.0076086374304
 51
259.485202847114
  0
LINE
  5
CF
  8
0
  6
CONTINUOUS
 62
     7
 10
321.7855714283091
 20
151.6143155147425
 30
0.0
 11
322.7711936831224
 21
151.6143155147425
 31
0.0
  0
ARC
  5
D0
  8
0
  6
CONTINUOUS
 62
     7
 10
364.8597940484341
 20
145.091130612516
 30
0.0
 40
1.233396299021053
 50
280.5147971528803
 51
348.9923913625768
  0
LINE
  5
D1
  8
0
  6
CONTINUOUS
 62
     7
 10
365.0848758654578
 20
151.6143155147425
 30
0.0
 11
366.0704981202711
 21
151.6143155147425
 31
0.0
  0
LINE
  5
D2
  8
0
  6
CONTINUOUS
 62
     7
 10
328.5589377911515
 20
146.4952185316039
 30
0.0
 11
328.5589377911515
 21
143.917458482609
 31
0.0
  0
LINE
  5
D3
  8
0
  6
CONTINUOUS
 62
     7
 10
328.4280347742901
 20
145.3730043041475
 30
0.0
 11
328.4280347742901
 21
143.8756850268246
 31
0.0
  0
LINE
  5
D4
  8
0
  6
CONTINUOUS
 62
     7
 10
328.4366854867593
 20
146.3729662272117
 30
0.0
 11
328.4280347742901
 21
145.3730043041475
 31
0.0
  0
LINE
  5
D5
  8
0
  6
CONTINUOUS
 62
     7
 10
328.5589377911515
 20
146.4952185316039
 30
0.0
 11
328.4366854867593
 21
146.3729662272117
 31
0.0
  0
POLYLINE
  5
D6
  8
0
  6
CONTINUOUS
 62
     7
 66
     1
 10
0.0
 20
0.0
 30
0.0
  0
VERTEX
  5
22D
  8
0
  6
CONTINUOUS
 62
     7
 10
362.7532465172382
 20
146.3729662272117
 30
0.0
  0
VERTEX
  5
22E
  8
0
  6
CONTINUOUS
 62
     7
 10
362.8202499649137
 20
146.2943594093707
 30
0.0
  0
VERTEX
  5
22F
  8
0
  6
CONTINUOUS
 62
     7
 10
362.8574780735833
 20
146.1731144835449
 30
0.0
  0
SEQEND
  5
2E7
  8
0
  6
CONTINUOUS
 62
     7
  0
ARC
  5
D7
  8
0
  6
CONTINUOUS
 62
     7
 10
359.0323615177679
 20
145.4326353684829
 30
0.0
 40
3.896129616095537
 50
359.1230420815753
 51
10.95599696130074
  0
LINE
  5
D8
  8
0
  6
CONTINUOUS
 62
     7
 10
359.4280347742901
 20
145.3730043041476
 30
0.0
 11
359.4193840618209
 21
146.3729662272117
 31
0.0
  0
LINE
  5
D9
  8
0
  6
CONTINUOUS
 62
     7
 10
359.2971317574287
 20
163.2334124978811
 30
0.0
 11
359.2971317574287
 21
165.811172546876
 31
0.0
  0
LINE
  5
DA
  8
0
  6
CONTINUOUS
 62
     7
 10
359.4193840618209
 20
163.3556648022733
 30
0.0
 11
359.4280347742902
 21
164.3556267253375
 31
0.0
  0
LINE
  5
DB
  8
0
  6
CONTINUOUS
 62
     7
 10
359.2971317574287
 20
163.2334124978811
 30
0.0
 11
359.4193840618209
 21
163.3556648022733
 31
0.0
  0
ARC
  5
DC
  8
0
  6
CONTINUOUS
 62
     7
 10
364.859794048434
 20
164.637500416969
 30
0.0
 40
1.233396299021128
 50
11.00760863742528
 51
79.48520284711788
  0
LINE
  5
DD
  8
0
  6
CONTINUOUS
 62
     7
 10
366.0704981202711
 20
158.1143155147425
 30
0.0
 11
365.0848758654578
 21
158.1143155147425
 31
0.0
  0
LINE
  5
DE
  8
0
  6
CONTINUOUS
 62
     7
 10
365.0984626863531
 20
143.558875142066
 30
0.0
 11
366.2212987716221
 21
143.5501482742752
 31
0.0
  0
LINE
  5
DF
  8
0
  6
CONTINUOUS
 62
     7
 10
365.0984626863531
 20
143.558875142066
 30
0.0
 11
364.3406602932997
 21
143.558875142066
 31
0.0
  0
LINE
  5
E0
  8
0
  6
CONTINUOUS
 62
     7
 10
362.4009879762013
 20
143.8643155147425
 30
0.0
 11
364.9149432715433
 21
143.8643155147425
 31
0.0
  0
LINE
  5
E1
  8
0
  6
CONTINUOUS
 62
     7
 10
370.9280347742901
 20
143.5326945386937
 30
0.0
 11
366.2124321422956
 21
143.5326945386937
 31
0.0
  0
ARC
  5
E2
  8
0
  6
CONTINUOUS
 62
     7
 10
322.9962755001462
 20
164.6375004169689
 30
0.0
 40
1.233396299021221
 50
100.5147971528839
 51
168.9923913625704
  0
LINE
  5
E3
  8
0
  6
CONTINUOUS
 62
     7
 10
322.7711936831224
 20
158.1143155147425
 30
0.0
 11
321.7855714283091
 21
158.1143155147425
 31
0.0
  0
LINE
  5
E4
  8
0
  6
CONTINUOUS
 62
     7
 10
324.9280347742901
 20
164.3556267253375
 30
0.0
 11
324.9280347742901
 21
158.1143155147425
 31
0.0
  0
POLYLINE
  5
E5
  8
0
  6
CONTINUOUS
 62
     7
 66
     1
 10
0.0
 20
0.0
 30
0.0
  0
VERTEX
  5
230
  8
0
  6
CONTINUOUS
 62
     7
 10
325.1028230313421
 20
163.3556648022733
 30
0.0
  0
VERTEX
  5
231
  8
0
  6
CONTINUOUS
 62
     7
 10
325.0358195836666
 20
163.4342716201143
 30
0.0
  0
VERTEX
  5
232
  8
0
  6
CONTINUOUS
 62
     7
 10
324.9985914749969
 20
163.5555165459402
 30
0.0
  0
SEQEND
  5
2E8
  8
0
  6
CONTINUOUS
 62
     7
  0
ARC
  5
E6
  8
0
  6
CONTINUOUS
 62
     7
 10
328.8237080308124
 20
164.2959956610021
 30
0.0
 40
3.896129616095564
 50
179.1230420815749
 51
190.9559969613007
  0
LINE
  5
E7
  8
0
  6
CONTINUOUS
 62
     7
 10
325.8096696778324
 20
163.3206811757887
 30
0.0
 11
325.1028230313421
 21
163.3556648022733
 31
0.0
  0
LINE
  5
E8
  8
0
  6
CONTINUOUS
 62
     7
 10
325.8096696778324
 20
146.4079498536963
 30
0.0
 11
325.8096696778324
 21
163.3206811757887
 31
0.0
  0
LINE
  5
E9
  8
0
  6
CONTINUOUS
 62
     7
 10
325.8096696778324
 20
146.4079498536963
 30
0.0
 11
325.1028230313421
 21
146.3729662272117
 31
0.0
  0
ARC
  5
EA
  8
0
  6
CONTINUOUS
 62
     7
 10
328.455219410969
 20
145.4471421437594
 30
0.0
 40
3.527963701696168
 50
166.811246023943
 51
181.2041218028768
  0
POLYLINE
  5
EB
  8
0
  6
CONTINUOUS
 62
     7
 66
     1
 10
0.0
 20
0.0
 30
0.0
  0
VERTEX
  5
233
  8
0
  6
CONTINUOUS
 62
     7
 10
325.0203103211088
 20
146.2520815358142
 30
0.0
  0
VERTEX
  5
234
  8
0
  6
CONTINUOUS
 62
     7
 10
325.0686425536437
 20
146.35227133279
 30
0.0
  0
VERTEX
  5
235
  8
0
  6
CONTINUOUS
 62
     7
 10
325.1028230313421
 20
146.3729662272117
 30
0.0
  0
SEQEND
  5
2E9
  8
0
  6
CONTINUOUS
 62
     7
  0
LINE
  5
EC
  8
0
  6
CONTINUOUS
 62
     7
 10
324.9280347742901
 20
151.6143155147425
 30
0.0
 11
324.9280347742901
 21
145.3730043041475
 31
0.0
  0
LINE
  5
ED
  8
0
  6
CONTINUOUS
 62
     7
 10
325.1396271511403
 20
151.6143155147425
 30
0.0
 11
325.1396271511403
 21
158.1143155147425
 31
0.0
  0
LINE
  5
EE
  8
0
  6
CONTINUOUS
 62
     7
 10
324.9280347742901
 20
151.6143155147425
 30
0.0
 11
325.1396271511402
 21
151.6143155147425
 31
0.0
  0
LINE
  5
EF
  8
0
  6
CONTINUOUS
 62
     7
 10
325.1396271511403
 20
158.1143155147425
 30
0.0
 11
324.9280347742902
 21
158.1143155147425
 31
0.0
  0
LINE
  5
F0
  8
0
  6
CONTINUOUS
 62
     7
 10
328.5589377911515
 20
165.811172546876
 30
0.0
 11
328.5589377911515
 21
163.2334124978811
 31
0.0
  0
LINE
  5
F1
  8
0
  6
CONTINUOUS
 62
     7
 10
328.4366854867593
 20
163.3556648022733
 30
0.0
 11
328.5589377911515
 21
163.2334124978811
 31
0.0
  0
LINE
  5
F2
  8
0
  6
CONTINUOUS
 62
     7
 10
328.4280347742901
 20
164.3556267253375
 30
0.0
 11
328.4366854867593
 21
163.3556648022733
 31
0.0
  0
LINE
  5
F3
  8
0
  6
CONTINUOUS
 62
     7
 10
328.4280347742901
 20
165.8529460026605
 30
0.0
 11
328.4280347742901
 21
164.3556267253375
 31
0.0
  0
LINE
  5
F4
  8
0
  6
CONTINUOUS
 62
     7
 10
359.2971317574287
 20
143.917458482609
 30
0.0
 11
359.2971317574287
 21
146.4952185316039
 31
0.0
  0
LINE
  5
F5
  8
0
  6
CONTINUOUS
 62
     7
 10
359.4193840618209
 20
146.3729662272117
 30
0.0
 11
359.2971317574288
 21
146.4952185316039
 31
0.0
  0
LINE
  5
F6
  8
0
  6
CONTINUOUS
 62
     7
 10
359.4280347742901
 20
143.8756850268246
 30
0.0
 11
359.4280347742901
 21
145.3730043041476
 31
0.0
  0
LINE
  5
F7
  8
0
  6
CONTINUOUS
 62
     7
 10
322.941126277037
 20
143.8643155147425
 30
0.0
 11
325.455081572379
 21
143.8643155147425
 31
0.0
  0
LINE
  5
F8
  8
0
  6
CONTINUOUS
 62
     7
 10
323.5154092552805
 20
143.558875142066
 30
0.0
 11
322.7576068622272
 21
143.558875142066
 31
0.0
  0
LINE
  5
F9
  8
0
  6
CONTINUOUS
 62
     7
 10
321.6347707769582
 20
143.5501482742752
 30
0.0
 11
322.7576068622271
 21
143.558875142066
 31
0.0
  0
LINE
  5
FA
  8
0
  6
CONTINUOUS
 62
     7
 10
321.6436374062847
 20
143.5326945386937
 30
0.0
 11
316.9280347742902
 21
143.5326945386937
 31
0.0
  0
LINE
  5
FB
  8
0
  6
CONTINUOUS
 62
     7
 10
322.7576068622271
 20
166.1697558874191
 30
0.0
 11
321.6347707769582
 21
166.1784827552098
 31
0.0
  0
LINE
  5
FC
  8
0
  6
CONTINUOUS
 62
     7
 10
323.5154092552805
 20
166.1697558874191
 30
0.0
 11
322.7576068622272
 21
166.1697558874191
 31
0.0
  0
LINE
  5
FD
  8
0
  6
CONTINUOUS
 62
     7
 10
322.941126277037
 20
165.8643155147425
 30
0.0
 11
325.455081572379
 21
165.8643155147425
 31
0.0
  0
LINE
  5
FE
  8
0
  6
CONTINUOUS
 62
     7
 10
321.6436374062847
 20
166.1959364907914
 30
0.0
 11
316.9280347742902
 21
166.1959364907914
 31
0.0
  0
POLYLINE
  5
FF
  8
0
  6
CONTINUOUS
 62
     7
 66
     1
 10
0.0
 20
0.0
 30
0.0
  0
VERTEX
  5
236
  8
0
  6
CONTINUOUS
 62
     7
 10
316.9280347742901
 20
143.5582086964863
 30
0.0
  0
VERTEX
  5
237
  8
0
  6
CONTINUOUS
 62
     7
 10
316.8790131216523
 20
143.5594473354352
 30
0.0
  0
VERTEX
  5
238
  8
0
  6
CONTINUOUS
 62
     7
 10
316.8301093449076
 20
143.5630874723481
 30
0.0
  0
VERTEX
  5
239
  8
0
  6
CONTINUOUS
 62
     7
 10
316.7814410365082
 20
143.5691203542685
 30
0.0
  0
VERTEX
  5
23A
  8
0
  6
CONTINUOUS
 62
     7
 10
316.7331252227073
 20
143.5775314747223
 30
0.0
  0
VERTEX
  5
23B
  8
0
  6
CONTINUOUS
 62
     7
 10
316.68527808216
 20
143.5883006085989
 30
0.0
  0
VERTEX
  5
23C
  8
0
  6
CONTINUOUS
 62
     7
 10
316.6380146665657
 20
143.6014018607847
 30
0.0
  0
VERTEX
  5
23D
  8
0
  6
CONTINUOUS
 62
     7
 10
316.5914486240168
 20
143.616803728429
 30
0.0
  0
VERTEX
  5
23E
  8
0
  6
CONTINUOUS
 62
     7
 10
316.5456919257252
 20
143.6344691766951
 30
0.0
  0
VERTEX
  5
23F
  8
0
  6
CONTINUOUS
 62
     7
 10
316.5008545967794
 20
143.6543557278128
 30
0.0
  0
VERTEX
  5
240
  8
0
  6
CONTINUOUS
 62
     7
 10
316.457044451582
 20
143.6764155632194
 30
0.0
  0
VERTEX
  5
241
  8
0
  6
CONTINUOUS
 62
     7
 10
316.4143668346024
 20
143.7005956385425
 30
0.0
  0
VERTEX
  5
242
  8
0
  6
CONTINUOUS
 62
     7
 10
316.3729243670691
 20
143.7268378111489
 30
0.0
  0
VERTEX
  5
243
  8
0
  6
CONTINUOUS
 62
     7
 10
316.3328167002096
 20
143.7550789799522
 30
0.0
  0
VERTEX
  5
244
  8
0
  6
CONTINUOUS
 62
     7
 10
316.2941402756331
 20
143.7852512371441
 30
0.0
  0
VERTEX
  5
245
  8
0
  6
CONTINUOUS
 62
     7
 10
316.2569880934288
 20
143.8172820314832
 30
0.0
  0
VERTEX
  5
246
  8
0
  6
CONTINUOUS
 62
     7
 10
316.2214494885422
 20
143.851094342749
 30
0.0
  0
VERTEX
  5
247
  8
0
  6
CONTINUOUS
 62
     7
 10
316.1876099159623
 20
143.8866068669428
 30
0.0
  0
VERTEX
  5
248
  8
0
  6
CONTINUOUS
 62
     7
 10
316.1555507452395
 20
143.9237342117883
 30
0.0
  0
VERTEX
  5
249
  8
0
  6
CONTINUOUS
 62
     7
 10
316.125349064827
 20
143.9623871020635
 30
0.0
  0
VERTEX
  5
24A
  8
0
  6
CONTINUOUS
 62
     7
 10
316.0970774967166
 20
144.0024725942685
 30
0.0
  0
VERTEX
  5
24B
  8
0
  6
CONTINUOUS
 62
     7
 10
316.0708040218137
 20
144.043894300115
 30
0.0
  0
VERTEX
  5
24C
  8
0
  6
CONTINUOUS
 62
     7
 10
316.0465918164732
 20
144.0865526182982
 30
0.0
  0
VERTEX
  5
24D
  8
0
  6
CONTINUOUS
 62
     7
 10
316.0244991005872
 20
144.1303449739949
 30
0.0
  0
VERTEX
  5
24E
  8
0
  6
CONTINUOUS
 62
     7
 10
316.0045789975914
 20
144.1751660655117
 30
0.0
  0
VERTEX
  5
24F
  8
0
  6
CONTINUOUS
 62
     7
 10
315.9868794067262
 20
144.2209081174901
 30
0.0
  0
VERTEX
  5
250
  8
0
  6
CONTINUOUS
 62
     7
 10
315.9714428878601
 20
144.2674611400596
 30
0.0
  0
VERTEX
  5
251
  8
0
  6
CONTINUOUS
 62
     7
 10
315.9583065591508
 20
144.3147131933157
 30
0.0
  0
VERTEX
  5
252
  8
0
  6
CONTINUOUS
 62
     7
 10
315.9475020077931
 20
144.3625506564875
 30
0.0
  0
VERTEX
  5
253
  8
0
  6
CONTINUOUS
 62
     7
 10
315.9390552140644
 20
144.4108585011457
 30
0.0
  0
VERTEX
  5
254
  8
0
  6
CONTINUOUS
 62
     7
 10
315.9329864888538
 20
144.4595205677972
 30
0.0
  0
VERTEX
  5
255
  8
0
  6
CONTINUOUS
 62
     7
 10
315.9293104248233
 20
144.5084198451979
 30
0.0
  0
VERTEX
  5
256
  8
0
  6
CONTINUOUS
 62
     7
 10
315.9280358613186
 20
144.5574387517143
 30
0.0
  0
SEQEND
  5
2EA
  8
0
  6
CONTINUOUS
 62
     7
  0
LINE
  5
100
  8
0
  6
CONTINUOUS
 62
     7
 10
322.7711936831224
 20
143.8784457375035
 30
0.0
 11
322.9411262770369
 21
143.8643155147425
 31
0.0
  0
POLYLINE
  5
101
  8
0
  6
CONTINUOUS
 62
     7
 66
     1
 10
0.0
 20
0.0
 30
0.0
  0
VERTEX
  5
257
  8
0
  6
CONTINUOUS
 62
     7
 10
371.9280336872617
 20
144.5574387517143
 30
0.0
  0
VERTEX
  5
258
  8
0
  6
CONTINUOUS
 62
     7
 10
371.9267591237569
 20
144.5084198451979
 30
0.0
  0
VERTEX
  5
259
  8
0
  6
CONTINUOUS
 62
     7
 10
371.9230830597265
 20
144.4595205677972
 30
0.0
  0
VERTEX
  5
25A
  8
0
  6
CONTINUOUS
 62
     7
 10
371.9170143345159
 20
144.4108585011457
 30
0.0
  0
VERTEX
  5
25B
  8
0
  6
CONTINUOUS
 62
     7
 10
371.9085675407871
 20
144.3625506564875
 30
0.0
  0
VERTEX
  5
25C
  8
0
  6
CONTINUOUS
 62
     7
 10
371.8977629894295
 20
144.3147131933158
 30
0.0
  0
VERTEX
  5
25D
  8
0
  6
CONTINUOUS
 62
     7
 10
371.8846266607202
 20
144.2674611400596
 30
0.0
  0
VERTEX
  5
25E
  8
0
  6
CONTINUOUS
 62
     7
 10
371.8691901418541
 20
144.2209081174901
 30
0.0
  0
VERTEX
  5
25F
  8
0
  6
CONTINUOUS
 62
     7
 10
371.8514905509888
 20
144.1751660655117
 30
0.0
  0
VERTEX
  5
260
  8
0
  6
CONTINUOUS
 62
     7
 10
371.831570447993
 20
144.1303449739949
 30
0.0
  0
VERTEX
  5
261
  8
0
  6
CONTINUOUS
 62
     7
 10
371.809477732107
 20
144.0865526182982
 30
0.0
  0
VERTEX
  5
262
  8
0
  6
CONTINUOUS
 62
     7
 10
371.7852655267665
 20
144.0438943001151
 30
0.0
  0
VERTEX
  5
263
  8
0
  6
CONTINUOUS
 62
     7
 10
371.7589920518637
 20
144.0024725942685
 30
0.0
  0
VERTEX
  5
264
  8
0
  6
CONTINUOUS
 62
     7
 10
371.7307204837533
 20
143.9623871020635
 30
0.0
  0
VERTEX
  5
265
  8
0
  6
CONTINUOUS
 62
     7
 10
371.7005188033408
 20
143.9237342117883
 30
0.0
  0
VERTEX
  5
266
  8
0
  6
CONTINUOUS
 62
     7
 10
371.668459632618
 20
143.8866068669428
 30
0.0
  0
VERTEX
  5
267
  8
0
  6
CONTINUOUS
 62
     7
 10
371.634620060038
 20
143.851094342749
 30
0.0
  0
VERTEX
  5
268
  8
0
  6
CONTINUOUS
 62
     7
 10
371.5990814551514
 20
143.8172820314832
 30
0.0
  0
VERTEX
  5
269
  8
0
  6
CONTINUOUS
 62
     7
 10
371.5619292729472
 20
143.7852512371442
 30
0.0
  0
VERTEX
  5
26A
  8
0
  6
CONTINUOUS
 62
     7
 10
371.5232528483705
 20
143.7550789799522
 30
0.0
  0
VERTEX
  5
26B
  8
0
  6
CONTINUOUS
 62
     7
 10
371.4831451815112
 20
143.7268378111489
 30
0.0
  0
VERTEX
  5
26C
  8
0
  6
CONTINUOUS
 62
     7
 10
371.4417027139779
 20
143.7005956385425
 30
0.0
  0
VERTEX
  5
26D
  8
0
  6
CONTINUOUS
 62
     7
 10
371.3990250969982
 20
143.6764155632194
 30
0.0
  0
VERTEX
  5
26E
  8
0
  6
CONTINUOUS
 62
     7
 10
371.3552149518008
 20
143.6543557278128
 30
0.0
  0
VERTEX
  5
26F
  8
0
  6
CONTINUOUS
 62
     7
 10
371.310377622855
 20
143.6344691766951
 30
0.0
  0
VERTEX
  5
270
  8
0
  6
CONTINUOUS
 62
     7
 10
371.2646209245634
 20
143.6168037284291
 30
0.0
  0
VERTEX
  5
271
  8
0
  6
CONTINUOUS
 62
     7
 10
371.2180548820145
 20
143.6014018607847
 30
0.0
  0
VERTEX
  5
272
  8
0
  6
CONTINUOUS
 62
     7
 10
371.1707914664202
 20
143.588300608599
 30
0.0
  0
VERTEX
  5
273
  8
0
  6
CONTINUOUS
 62
     7
 10
371.122944325873
 20
143.5775314747223
 30
0.0
  0
VERTEX
  5
274
  8
0
  6
CONTINUOUS
 62
     7
 10
371.074628512072
 20
143.5691203542686
 30
0.0
  0
VERTEX
  5
275
  8
0
  6
CONTINUOUS
 62
     7
 10
371.0259602036727
 20
143.5630874723481
 30
0.0
  0
VERTEX
  5
276
  8
0
  6
CONTINUOUS
 62
     7
 10
370.9770564269279
 20
143.5594473354352
 30
0.0
  0
VERTEX
  5
277
  8
0
  6
CONTINUOUS
 62
     7
 10
370.9280347742901
 20
143.5582086964863
 30
0.0
  0
SEQEND
  5
2EB
  8
0
  6
CONTINUOUS
 62
     7
  0
LINE
  5
102
  8
0
  6
CONTINUOUS
 62
     7
 10
364.9149432715433
 20
143.8643155147425
 30
0.0
 11
365.0848758654579
 21
143.8784457375034
 31
0.0
  0
LINE
  5
103
  8
0
  6
CONTINUOUS
 62
     7
 10
362.9280347742902
 20
151.6143155147425
 30
0.0
 11
362.9280347742902
 21
145.3730043041476
 31
0.0
  0
LINE
  5
104
  8
0
  6
CONTINUOUS
 62
     7
 10
362.9280347742902
 20
151.6143155147425
 30
0.0
 11
365.0848758654579
 21
151.6143155147425
 31
0.0
  0
ARC
  5
105
  8
0
  6
CONTINUOUS
 62
     7
 10
359.4008501376113
 20
164.2814888857257
 30
0.0
 40
3.527963701696168
 50
346.811246023943
 51
1.204121802876784
  0
POLYLINE
  5
106
  8
0
  6
CONTINUOUS
 62
     7
 66
     1
 10
0.0
 20
0.0
 30
0.0
  0
VERTEX
  5
278
  8
0
  6
CONTINUOUS
 62
     7
 10
362.8357592274714
 20
163.4765494936709
 30
0.0
  0
VERTEX
  5
279
  8
0
  6
CONTINUOUS
 62
     7
 10
362.7874269949365
 20
163.3763596966951
 30
0.0
  0
VERTEX
  5
27A
  8
0
  6
CONTINUOUS
 62
     7
 10
362.7532465172382
 20
163.3556648022733
 30
0.0
  0
SEQEND
  5
2EC
  8
0
  6
CONTINUOUS
 62
     7
  0
LINE
  5
107
  8
0
  6
CONTINUOUS
 62
     7
 10
322.7711936831224
 20
151.6143155147425
 30
0.0
 11
324.9280347742901
 21
151.6143155147425
 31
0.0
  0
LINE
  5
108
  8
0
  6
CONTINUOUS
 62
     7
 10
322.9411262770369
 20
165.8643155147425
 30
0.0
 11
322.7711936831224
 21
165.8501852919816
 31
0.0
  0
LINE
  5
109
  8
0
  6
CONTINUOUS
 62
     7
 10
324.9280347742901
 20
158.1143155147425
 30
0.0
 11
322.7711936831224
 21
158.1143155147425
 31
0.0
  0
POLYLINE
  5
10A
  8
0
  6
CONTINUOUS
 62
     7
 66
     1
 10
0.0
 20
0.0
 30
0.0
  0
VERTEX
  5
27B
  8
0
  6
CONTINUOUS
 62
     7
 10
370.9280347742902
 20
166.1704223329987
 30
0.0
  0
VERTEX
  5
27C
  8
0
  6
CONTINUOUS
 62
     7
 10
370.9770564269279
 20
166.1691836940499
 30
0.0
  0
VERTEX
  5
27D
  8
0
  6
CONTINUOUS
 62
     7
 10
371.0259602036727
 20
166.165543557137
 30
0.0
  0
VERTEX
  5
27E
  8
0
  6
CONTINUOUS
 62
     7
 10
371.074628512072
 20
166.1595106752165
 30
0.0
  0
VERTEX
  5
27F
  8
0
  6
CONTINUOUS
 62
     7
 10
371.122944325873
 20
166.1510995547628
 30
0.0
  0
VERTEX
  5
280
  8
0
  6
CONTINUOUS
 62
     7
 10
371.1707914664202
 20
166.1403304208861
 30
0.0
  0
VERTEX
  5
281
  8
0
  6
CONTINUOUS
 62
     7
 10
371.2180548820145
 20
166.1272291687003
 30
0.0
  0
VERTEX
  5
282
  8
0
  6
CONTINUOUS
 62
     7
 10
371.2646209245634
 20
166.111827301056
 30
0.0
  0
VERTEX
  5
283
  8
0
  6
CONTINUOUS
 62
     7
 10
371.310377622855
 20
166.09416185279
 30
0.0
  0
VERTEX
  5
284
  8
0
  6
CONTINUOUS
 62
     7
 10
371.3552149518008
 20
166.0742753016723
 30
0.0
  0
VERTEX
  5
285
  8
0
  6
CONTINUOUS
 62
     7
 10
371.3990250969982
 20
166.0522154662657
 30
0.0
  0
VERTEX
  5
286
  8
0
  6
CONTINUOUS
 62
     7
 10
371.4417027139779
 20
166.0280353909425
 30
0.0
  0
VERTEX
  5
287
  8
0
  6
CONTINUOUS
 62
     7
 10
371.4831451815112
 20
166.0017932183362
 30
0.0
  0
VERTEX
  5
288
  8
0
  6
CONTINUOUS
 62
     7
 10
371.5232528483706
 20
165.9735520495329
 30
0.0
  0
VERTEX
  5
289
  8
0
  6
CONTINUOUS
 62
     7
 10
371.5619292729472
 20
165.9433797923409
 30
0.0
  0
VERTEX
  5
28A
  8
0
  6
CONTINUOUS
 62
     7
 10
371.5990814551514
 20
165.9113489980019
 30
0.0
  0
VERTEX
  5
28B
  8
0
  6
CONTINUOUS
 62
     7
 10
371.634620060038
 20
165.8775366867361
 30
0.0
  0
VERTEX
  5
28C
  8
0
  6
CONTINUOUS
 62
     7
 10
371.668459632618
 20
165.8420241625423
 30
0.0
  0
VERTEX
  5
28D
  8
0
  6
CONTINUOUS
 62
     7
 10
371.7005188033408
 20
165.8048968176967
 30
0.0
  0
VERTEX
  5
28E
  8
0
  6
CONTINUOUS
 62
     7
 10
371.7307204837533
 20
165.7662439274216
 30
0.0
  0
VERTEX
  5
28F
  8
0
  6
CONTINUOUS
 62
     7
 10
371.7589920518637
 20
165.7261584352165
 30
0.0
  0
VERTEX
  5
290
  8
0
  6
CONTINUOUS
 62
     7
 10
371.7852655267665
 20
165.68473672937
 30
0.0
  0
VERTEX
  5
291
  8
0
  6
CONTINUOUS
 62
     7
 10
371.809477732107
 20
165.6420784111868
 30
0.0
  0
VERTEX
  5
292
  8
0
  6
CONTINUOUS
 62
     7
 10
371.831570447993
 20
165.5982860554901
 30
0.0
  0
VERTEX
  5
293
  8
0
  6
CONTINUOUS
 62
     7
 10
371.8514905509888
 20
165.5534649639733
 30
0.0
  0
VERTEX
  5
294
  8
0
  6
CONTINUOUS
 62
     7
 10
371.8691901418541
 20
165.5077229119949
 30
0.0
  0
VERTEX
  5
295
  8
0
  6
CONTINUOUS
 62
     7
 10
371.8846266607202
 20
165.4611698894255
 30
0.0
  0
VERTEX
  5
296
  8
0
  6
CONTINUOUS
 62
     7
 10
371.8977629894295
 20
165.4139178361693
 30
0.0
  0
VERTEX
  5
297
  8
0
  6
CONTINUOUS
 62
     7
 10
371.9085675407871
 20
165.3660803729976
 30
0.0
  0
VERTEX
  5
298
  8
0
  6
CONTINUOUS
 62
     7
 10
371.9170143345159
 20
165.3177725283393
 30
0.0
  0
VERTEX
  5
299
  8
0
  6
CONTINUOUS
 62
     7
 10
371.9230830597265
 20
165.2691104616878
 30
0.0
  0
VERTEX
  5
29A
  8
0
  6
CONTINUOUS
 62
     7
 10
371.9267591237569
 20
165.2202111842871
 30
0.0
  0
VERTEX
  5
29B
  8
0
  6
CONTINUOUS
 62
     7
 10
371.9280336872617
 20
165.1711922777708
 30
0.0
  0
SEQEND
  5
2ED
  8
0
  6
CONTINUOUS
 62
     7
  0
LINE
  5
10B
  8
0
  6
CONTINUOUS
 62
     7
 10
362.7164423974399
 20
158.1143155147425
 30
0.0
 11
362.7164423974399
 21
151.6143155147425
 31
0.0
  0
LINE
  5
10C
  8
0
  6
CONTINUOUS
 62
     7
 10
362.0463998707478
 20
146.4079498536963
 30
0.0
 11
362.7532465172382
 21
146.3729662272117
 31
0.0
  0
LINE
  5
10D
  8
0
  6
CONTINUOUS
 62
     7
 10
362.0463998707478
 20
163.3206811757887
 30
0.0
 11
362.0463998707478
 21
146.4079498536963
 31
0.0
  0
LINE
  5
10E
  8
0
  6
CONTINUOUS
 62
     7
 10
362.0463998707478
 20
163.3206811757887
 30
0.0
 11
362.7532465172382
 21
163.3556648022733
 31
0.0
  0
LINE
  5
10F
  8
0
  6
CONTINUOUS
 62
     7
 10
362.7164423974399
 20
151.6143155147425
 30
0.0
 11
362.9280347742901
 21
151.6143155147425
 31
0.0
  0
LINE
  5
110
  8
0
  6
CONTINUOUS
 62
     7
 10
362.9280347742902
 20
158.1143155147425
 30
0.0
 11
362.71644239744
 21
158.1143155147425
 31
0.0
  0
POLYLINE
  5
111
  8
0
  6
CONTINUOUS
 62
     7
 66
     1
 10
0.0
 20
0.0
 30
0.0
  0
VERTEX
  5
29C
  8
0
  6
CONTINUOUS
 62
     7
 10
315.9280358613186
 20
165.1711922777707
 30
0.0
  0
VERTEX
  5
29D
  8
0
  6
CONTINUOUS
 62
     7
 10
315.9293104248233
 20
165.2202111842871
 30
0.0
  0
VERTEX
  5
29E
  8
0
  6
CONTINUOUS
 62
     7
 10
315.9329864888538
 20
165.2691104616878
 30
0.0
  0
VERTEX
  5
29F
  8
0
  6
CONTINUOUS
 62
     7
 10
315.9390552140644
 20
165.3177725283393
 30
0.0
  0
VERTEX
  5
2A0
  8
0
  6
CONTINUOUS
 62
     7
 10
315.9475020077931
 20
165.3660803729976
 30
0.0
  0
VERTEX
  5
2A1
  8
0
  6
CONTINUOUS
 62
     7
 10
315.9583065591508
 20
165.4139178361693
 30
0.0
  0
VERTEX
  5
2A2
  8
0
  6
CONTINUOUS
 62
     7
 10
315.9714428878601
 20
165.4611698894254
 30
0.0
  0
VERTEX
  5
2A3
  8
0
  6
CONTINUOUS
 62
     7
 10
315.9868794067262
 20
165.5077229119949
 30
0.0
  0
VERTEX
  5
2A4
  8
0
  6
CONTINUOUS
 62
     7
 10
316.0045789975914
 20
165.5534649639733
 30
0.0
  0
VERTEX
  5
2A5
  8
0
  6
CONTINUOUS
 62
     7
 10
316.0244991005872
 20
165.5982860554901
 30
0.0
  0
VERTEX
  5
2A6
  8
0
  6
CONTINUOUS
 62
     7
 10
316.0465918164732
 20
165.6420784111868
 30
0.0
  0
VERTEX
  5
2A7
  8
0
  6
CONTINUOUS
 62
     7
 10
316.0708040218137
 20
165.68473672937
 30
0.0
  0
VERTEX
  5
2A8
  8
0
  6
CONTINUOUS
 62
     7
 10
316.0970774967166
 20
165.7261584352165
 30
0.0
  0
VERTEX
  5
2A9
  8
0
  6
CONTINUOUS
 62
     7
 10
316.125349064827
 20
165.7662439274216
 30
0.0
  0
VERTEX
  5
2AA
  8
0
  6
CONTINUOUS
 62
     7
 10
316.1555507452395
 20
165.8048968176967
 30
0.0
  0
VERTEX
  5
2AB
  8
0
  6
CONTINUOUS
 62
     7
 10
316.1876099159623
 20
165.8420241625423
 30
0.0
  0
VERTEX
  5
2AC
  8
0
  6
CONTINUOUS
 62
     7
 10
316.2214494885422
 20
165.8775366867361
 30
0.0
  0
VERTEX
  5
2AD
  8
0
  6
CONTINUOUS
 62
     7
 10
316.2569880934288
 20
165.9113489980019
 30
0.0
  0
VERTEX
  5
2AE
  8
0
  6
CONTINUOUS
 62
     7
 10
316.2941402756331
 20
165.9433797923409
 30
0.0
  0
VERTEX
  5
2AF
  8
0
  6
CONTINUOUS
 62
     7
 10
316.3328167002096
 20
165.9735520495329
 30
0.0
  0
VERTEX
  5
2B0
  8
0
  6
CONTINUOUS
 62
     7
 10
316.3729243670691
 20
166.0017932183362
 30
0.0
  0
VERTEX
  5
2B1
  8
0
  6
CONTINUOUS
 62
     7
 10
316.4143668346024
 20
166.0280353909425
 30
0.0
  0
VERTEX
  5
2B2
  8
0
  6
CONTINUOUS
 62
     7
 10
316.457044451582
 20
166.0522154662657
 30
0.0
  0
VERTEX
  5
2B3
  8
0
  6
CONTINUOUS
 62
     7
 10
316.5008545967794
 20
166.0742753016723
 30
0.0
  0
VERTEX
  5
2B4
  8
0
  6
CONTINUOUS
 62
     7
 10
316.5456919257252
 20
166.09416185279
 30
0.0
  0
VERTEX
  5
2B5
  8
0
  6
CONTINUOUS
 62
     7
 10
316.5914486240168
 20
166.111827301056
 30
0.0
  0
VERTEX
  5
2B6
  8
0
  6
CONTINUOUS
 62
     7
 10
316.6380146665657
 20
166.1272291687003
 30
0.0
  0
VERTEX
  5
2B7
  8
0
  6
CONTINUOUS
 62
     7
 10
316.68527808216
 20
166.1403304208861
 30
0.0
  0
VERTEX
  5
2B8
  8
0
  6
CONTINUOUS
 62
     7
 10
316.7331252227073
 20
166.1510995547628
 30
0.0
  0
VERTEX
  5
2B9
  8
0
  6
CONTINUOUS
 62
     7
 10
316.7814410365082
 20
166.1595106752165
 30
0.0
  0
VERTEX
  5
2BA
  8
0
  6
CONTINUOUS
 62
     7
 10
316.8301093449076
 20
166.165543557137
 30
0.0
  0
VERTEX
  5
2BB
  8
0
  6
CONTINUOUS
 62
     7
 10
316.8790131216523
 20
166.1691836940498
 30
0.0
  0
VERTEX
  5
2BC
  8
0
  6
CONTINUOUS
 62
     7
 10
316.9280347742901
 20
166.1704223329987
 30
0.0
  0
SEQEND
  5
2EE
  8
0
  6
CONTINUOUS
 62
     7
  0
LINE
  5
112
  8
0
  6
CONTINUOUS
 62
     7
 10
371.9280347742902
 20
165.1711923339093
 30
0.0
 11
371.9280347742902
 21
165.1697178090334
 31
0.0
  0
LINE
  5
113
  8
0
  6
CONTINUOUS
 62
     7
 10
371.9280347742902
 20
165.1697178090334
 30
0.0
 11
371.9280347742902
 21
144.5589132204517
 31
0.0
  0
LINE
  5
114
  8
0
  6
CONTINUOUS
 62
     7
 10
371.9280347742902
 20
144.5589132204517
 30
0.0
 11
371.9280347742902
 21
144.5574386955758
 31
0.0
  0
LINE
  5
115
  8
0
  6
CONTINUOUS
 62
     7
 10
366.1337490600044
 20
151.6143155147425
 30
0.0
 11
366.1337490600044
 21
158.1143155147425
 31
0.0
  0
LINE
  5
116
  8
0
  6
CONTINUOUS
 62
     7
 10
366.0704981202711
 20
151.6143155147425
 30
0.0
 11
366.1337490600044
 21
151.6143155147425
 31
0.0
  0
LINE
  5
117
  8
0
  6
CONTINUOUS
 62
     7
 10
366.1337490600044
 20
158.1143155147425
 30
0.0
 11
366.0704981202711
 21
158.1143155147425
 31
0.0
  0
LINE
  5
118
  8
0
  6
CONTINUOUS
 62
     7
 10
321.7223204885759
 20
158.1143155147425
 30
0.0
 11
321.7223204885759
 21
151.6143155147425
 31
0.0
  0
LINE
  5
119
  8
0
  6
CONTINUOUS
 62
     7
 10
315.9280347742901
 20
144.5589132204517
 30
0.0
 11
315.9280347742901
 21
144.5574386955758
 31
0.0
  0
LINE
  5
11A
  8
0
  6
CONTINUOUS
 62
     7
 10
315.9280347742901
 20
165.1697178090333
 30
0.0
 11
315.9280347742901
 21
144.5589132204517
 31
0.0
  0
LINE
  5
11B
  8
0
  6
CONTINUOUS
 62
     7
 10
315.9280347742901
 20
165.1711923339092
 30
0.0
 11
315.9280347742901
 21
165.1697178090333
 31
0.0
  0
LINE
  5
11C
  8
0
  6
CONTINUOUS
 62
     7
 10
321.7223204885759
 20
151.6143155147425
 30
0.0
 11
321.7855714283091
 21
151.6143155147425
 31
0.0
  0
LINE
  5
11D
  8
0
  6
CONTINUOUS
 62
     7
 10
321.7855714283091
 20
158.1143155147425
 30
0.0
 11
321.7223204885759
 21
158.1143155147425
 31
0.0
  0
LINE
  5
11E
  8
0
  6
CONTINUOUS
 62
     7
 10
356.3762561607703
 20
163.2334124978811
 30
0.0
 11
356.2876168528348
 21
163.0676020098567
 31
0.0
  0
LINE
  5
11F
  8
0
  6
CONTINUOUS
 62
     7
 10
356.3762561607702
 20
163.2334124978811
 30
0.0
 11
359.2971317574287
 21
163.2334124978811
 31
0.0
  0
LINE
  5
120
  8
0
  6
CONTINUOUS
 62
     7
 10
362.0463998707478
 20
163.3206811757887
 30
0.0
 11
361.7843609743326
 21
163.2770468368349
 31
0.0
  0
LINE
  5
121
  8
0
  6
CONTINUOUS
 62
     7
 10
361.1647649672054
 20
163.2770468368349
 30
0.0
 11
361.7843609743326
 21
163.2770468368349
 31
0.0
  0
LINE
  5
122
  8
0
  6
CONTINUOUS
 62
     7
 10
356.9329174302023
 20
163.0676020098567
 30
0.0
 11
361.1647649672054
 21
163.2770468368349
 31
0.0
  0
LINE
  5
123
  8
0
  6
CONTINUOUS
 62
     7
 10
356.9329174302023
 20
163.0676020098567
 30
0.0
 11
356.2876168528348
 21
163.0676020098567
 31
0.0
  0
LINE
  5
124
  8
0
  6
CONTINUOUS
 62
     7
 10
331.47981338781
 20
146.4952185316039
 30
0.0
 11
331.5684526957454
 21
146.6610290196283
 31
0.0
  0
LINE
  5
125
  8
0
  6
CONTINUOUS
 62
     7
 10
331.4798133878101
 20
146.4952185316039
 30
0.0
 11
328.5589377911515
 21
146.4952185316039
 31
0.0
  0
LINE
  5
126
  8
0
  6
CONTINUOUS
 62
     7
 10
325.8096696778324
 20
146.4079498536963
 30
0.0
 11
326.0717085742476
 21
146.4515841926501
 31
0.0
  0
LINE
  5
127
  8
0
  6
CONTINUOUS
 62
     7
 10
326.6913045813748
 20
146.4515841926501
 30
0.0
 11
326.0717085742477
 21
146.4515841926501
 31
0.0
  0
LINE
  5
128
  8
0
  6
CONTINUOUS
 62
     7
 10
330.923152118378
 20
146.6610290196283
 30
0.0
 11
326.6913045813748
 21
146.4515841926501
 31
0.0
  0
LINE
  5
129
  8
0
  6
CONTINUOUS
 62
     7
 10
330.923152118378
 20
146.6610290196283
 30
0.0
 11
331.5684526957454
 21
146.6610290196283
 31
0.0
  0
LINE
  5
12A
  8
0
  6
CONTINUOUS
 62
     7
 10
356.9329174302023
 20
146.6610290196283
 30
0.0
 11
361.1647649672054
 21
146.4515841926501
 31
0.0
  0
LINE
  5
12B
  8
0
  6
CONTINUOUS
 62
     7
 10
361.1647649672054
 20
146.4515841926501
 30
0.0
 11
361.7843609743326
 21
146.4515841926501
 31
0.0
  0
LINE
  5
12C
  8
0
  6
CONTINUOUS
 62
     7
 10
361.7843609743326
 20
146.4515841926501
 30
0.0
 11
362.0463998707478
 21
146.4079498536963
 31
0.0
  0
LINE
  5
12D
  8
0
  6
CONTINUOUS
 62
     7
 10
359.2971317574287
 20
146.4952185316039
 30
0.0
 11
356.3762561607702
 21
146.4952185316039
 31
0.0
  0
LINE
  5
12E
  8
0
  6
CONTINUOUS
 62
     7
 10
356.2876168528348
 20
146.6610290196283
 30
0.0
 11
356.3762561607702
 21
146.4952185316039
 31
0.0
  0
LINE
  5
12F
  8
0
  6
CONTINUOUS
 62
     7
 10
356.2876168528348
 20
146.6610290196283
 30
0.0
 11
356.9329174302023
 21
146.6610290196283
 31
0.0
  0
LINE
  5
130
  8
0
  6
CONTINUOUS
 62
     7
 10
330.923152118378
 20
163.0676020098567
 30
0.0
 11
326.6913045813748
 21
163.2770468368349
 31
0.0
  0
LINE
  5
131
  8
0
  6
CONTINUOUS
 62
     7
 10
326.6913045813748
 20
163.2770468368349
 30
0.0
 11
326.0717085742477
 21
163.2770468368349
 31
0.0
  0
LINE
  5
132
  8
0
  6
CONTINUOUS
 62
     7
 10
326.0717085742477
 20
163.2770468368349
 30
0.0
 11
325.8096696778324
 21
163.3206811757887
 31
0.0
  0
LINE
  5
133
  8
0
  6
CONTINUOUS
 62
     7
 10
328.5589377911515
 20
163.2334124978811
 30
0.0
 11
331.4798133878101
 21
163.2334124978811
 31
0.0
  0
LINE
  5
134
  8
0
  6
CONTINUOUS
 62
     7
 10
331.5684526957454
 20
163.0676020098567
 30
0.0
 11
331.4798133878101
 21
163.2334124978811
 31
0.0
  0
LINE
  5
135
  8
0
  6
CONTINUOUS
 62
     7
 10
331.5684526957454
 20
163.0676020098567
 30
0.0
 11
330.923152118378
 21
163.0676020098567
 31
0.0
  0
LINE
  5
136
  8
0
  6
CONTINUOUS
 62
     7
 10
361.7843609743326
 20
146.4515841926501
 30
0.0
 11
361.7843609743326
 21
163.2770468368349
 31
0.0
  0
LINE
  5
137
  8
0
  6
CONTINUOUS
 62
     7
 10
361.1647649672054
 20
146.4515841926501
 30
0.0
 11
361.1647649672054
 21
163.2770468368349
 31
0.0
  0
LINE
  5
138
  8
0
  6
CONTINUOUS
 62
     7
 10
326.6913045813748
 20
146.4515841926501
 30
0.0
 11
326.6913045813748
 21
163.2770468368349
 31
0.0
  0
LINE
  5
139
  8
0
  6
CONTINUOUS
 62
     7
 10
326.0717085742477
 20
146.4515841926501
 30
0.0
 11
326.0717085742477
 21
163.2770468368349
 31
0.0
  0
ARC
  5
13A
  8
0
  6
CONTINUOUS
 62
     7
 10
343.9280347742901
 20
154.8643155147425
 30
0.0
 40
15.00000000000001
 50
150.1109702583486
 51
209.8890297416513
  0
LINE
  5
13B
  8
0
  6
CONTINUOUS
 62
     7
 10
330.923152118378
 20
147.3894892889394
 30
0.0
 11
330.923152118378
 21
146.6610290196283
 31
0.0
  0
LINE
  5
13C
  8
0
  6
CONTINUOUS
 62
     7
 10
330.923152118378
 20
163.0676020098567
 30
0.0
 11
330.923152118378
 21
162.3391417405457
 31
0.0
  0
ARC
  5
13D
  8
0
  6
CONTINUOUS
 62
     7
 10
343.9280347742901
 20
154.8643155147425
 30
0.0
 40
15.00000000000001
 50
330.1109702583486
 51
29.88902974165137
  0
LINE
  5
13E
  8
0
  6
CONTINUOUS
 62
     7
 10
356.9329174302023
 20
162.3391417405457
 30
0.0
 11
356.9329174302023
 21
163.0676020098567
 31
0.0
  0
LINE
  5
13F
  8
0
  6
CONTINUOUS
 62
     7
 10
356.9329174302023
 20
146.6610290196283
 30
0.0
 11
356.9329174302023
 21
147.3894892889394
 31
0.0
  0
ARC
  5
140
  8
0
  6
CONTINUOUS
 62
     7
 10
343.9280347742901
 20
154.8643155147425
 30
0.0
 40
15.0
 50
33.91344051036879
 51
146.0865594896312
  0
LINE
  5
141
  8
0
  6
CONTINUOUS
 62
     7
 10
352.606151048634
 20
142.8333772135886
 30
0.0
 11
352.5842241810393
 21
142.7317257776614
 31
0.0
  0
ARC
  5
142
  8
0
  6
CONTINUOUS
 62
     7
 10
343.9280347742901
 20
154.8643155147425
 30
0.0
 40
14.83418951197559
 50
305.8035396340626
 51
326.4270241871143
  0
ARC
  5
143
  8
0
  6
CONTINUOUS
 62
     7
 10
343.9280347742901
 20
154.8643155147425
 30
0.0
 40
15.0
 50
213.9134405103688
 51
326.0865594896312
  0
ARC
  5
144
  8
0
  6
CONTINUOUS
 62
     7
 10
343.9280347742901
 20
154.8643155147425
 30
0.0
 40
14.83418951197559
 50
213.5729758128857
 51
234.1964603659376
  0
LINE
  5
145
  8
0
  6
CONTINUOUS
 62
     7
 10
335.2718453675409
 20
142.7317257776614
 30
0.0
 11
335.2499184999462
 21
142.8333772135885
 31
0.0
  0
ARC
  5
146
  8
0
  6
CONTINUOUS
 62
     7
 10
343.9280347742901
 20
154.8643155147425
 30
0.0
 40
14.90400445430165
 50
234.4934361863947
 51
245.5065638136054
  0
LINE
  5
147
  8
0
  6
CONTINUOUS
 62
     7
 10
337.8479947112996
 20
141.3333772135885
 30
0.0
 11
337.7489985516581
 21
141.3015407199874
 31
0.0
  0
ARC
  5
148
  8
0
  6
CONTINUOUS
 62
     7
 10
343.9280347742901
 20
154.8643155147425
 30
0.0
 40
14.83418951197559
 50
245.8035396340625
 51
294.1964603659376
  0
LINE
  5
149
  8
0
  6
CONTINUOUS
 62
     7
 10
350.1070709969222
 20
141.3015407199874
 30
0.0
 11
350.0080748372807
 21
141.3333772135886
 31
0.0
  0
ARC
  5
14A
  8
0
  6
CONTINUOUS
 62
     7
 10
343.9280347742901
 20
154.8643155147425
 30
0.0
 40
14.90400445430166
 50
294.4934361863947
 51
305.5065638136056
  0
LINE
  5
14B
  8
0
  6
CONTINUOUS
 62
     7
 10
335.2499184999462
 20
166.8952538158965
 30
0.0
 11
335.2718453675409
 21
166.9969052518237
 31
0.0
  0
ARC
  5
14C
  8
0
  6
CONTINUOUS
 62
     7
 10
343.9280347742901
 20
154.8643155147425
 30
0.0
 40
14.83418951197558
 50
125.8035396340624
 51
146.4270241871144
  0
ARC
  5
14D
  8
0
  6
CONTINUOUS
 62
     7
 10
343.9280347742901
 20
154.8643155147425
 30
0.0
 40
14.83418951197559
 50
33.57297581288567
 51
54.19646036593755
  0
LINE
  5
14E
  8
0
  6
CONTINUOUS
 62
     7
 10
352.5842241810393
 20
166.9969052518237
 30
0.0
 11
352.606151048634
 21
166.8952538158965
 31
0.0
  0
ARC
  5
14F
  8
0
  6
CONTINUOUS
 62
     7
 10
343.9280347742901
 20
154.8643155147425
 30
0.0
 40
14.90400445430165
 50
54.4934361863946
 51
65.50656381360542
  0
LINE
  5
150
  8
0
  6
CONTINUOUS
 62
     7
 10
350.0080748372807
 20
168.3952538158965
 30
0.0
 11
350.1070709969222
 21
168.4270903094976
 31
0.0
  0
ARC
  5
151
  8
0
  6
CONTINUOUS
 62
     7
 10
343.9280347742901
 20
154.8643155147425
 30
0.0
 40
14.83418951197559
 50
65.8035396340625
 51
114.1964603659375
  0
LINE
  5
152
  8
0
  6
CONTINUOUS
 62
     7
 10
337.7489985516581
 20
168.4270903094976
 30
0.0
 11
337.8479947112996
 21
168.3952538158965
 31
0.0
  0
ARC
  5
153
  8
0
  6
CONTINUOUS
 62
     7
 10
343.9280347742901
 20
154.8643155147425
 30
0.0
 40
14.90400445430165
 50
114.4934361863946
 51
125.5065638136054
  0
LINE
  5
154
  8
0
  6
CONTINUOUS
 62
     7
 10
345.840378965032
 20
156.716507246046
 30
0.0
 11
345.8082229463588
 21
156.6364715363625
 31
0.0
  0
ARC
  5
155
  8
0
  6
CONTINUOUS
 62
     7
 10
343.9280347742901
 20
154.8643155147425
 30
0.0
 40
2.583726867790768
 50
43.30575057395486
 51
96.03798296680004
  0
ARC
  5
156
  8
0
  6
CONTINUOUS
 62
     7
 10
343.9280347742901
 20
154.8643155147425
 30
0.0
 40
2.662268677907599
 50
44.08456477731153
 51
96.03798296680004
  0
LINE
  5
157
  8
0
  6
CONTINUOUS
 62
     7
 10
344.2034163436712
 20
158.6916900584346
 30
0.0
 11
344.2114457074531
 21
158.6123424502935
 31
0.0
  0
ARC
  5
158
  8
0
  6
CONTINUOUS
 62
     7
 10
344.7641578371357
 20
156.6811529383382
 30
0.0
 40
2.008726867790771
 50
105.9712777176924
 51
165.0278343847341
  0
LINE
  5
159
  8
0
  6
CONTINUOUS
 62
     7
 10
342.7574426128393
 20
157.2554216405603
 30
0.0
 11
342.8236243398287
 21
157.200107055014
 31
0.0
  0
ARC
  5
15A
  8
0
  6
CONTINUOUS
 62
     7
 10
344.7641578371357
 20
156.6811529383382
 30
0.0
 40
2.087268677907592
 50
105.5838575295741
 51
164.030282198445
  0
ARC
  5
15B
  8
0
  6
CONTINUOUS
 62
     7
 10
343.9280347742901
 20
154.8643155147425
 30
0.0
 40
2.583726867790769
 50
115.3057505739549
 51
168.0379829668
  0
ARC
  5
15C
  8
0
  6
CONTINUOUS
 62
     7
 10
343.9280347742901
 20
154.8643155147425
 30
0.0
 40
2.662268677907587
 50
116.0845647773116
 51
168.0379829668001
  0
LINE
  5
15D
  8
0
  6
CONTINUOUS
 62
     7
 10
346.2805206438077
 20
153.6179268325519
 30
0.0
 11
346.1944654043355
 21
153.6237766292
 31
0.0
  0
ARC
  5
15E
  8
0
  6
CONTINUOUS
 62
     7
 10
343.9280347742901
 20
154.8643155147425
 30
0.0
 40
2.583726867790756
 50
331.3057505739549
 51
24.03798296680003
  0
ARC
  5
15F
  8
0
  6
CONTINUOUS
 62
     7
 10
343.9280347742901
 20
154.8643155147425
 30
0.0
 40
2.662268677907579
 50
332.0845647773115
 51
24.03798296680003
  0
CIRCLE
  5
160
  8
0
  6
CONTINUOUS
 62
     7
 10
343.9280347742901
 20
154.8643155147425
 30
0.0
 40
2.000000000000002
  0
ARC
  5
161
  8
0
  6
CONTINUOUS
 62
     7
 10
343.9280347742901
 20
154.8643155147425
 30
0.0
 40
3.758726867790747
 50
74.62096466072569
 51
85.67574955536202
  0
ARC
  5
162
  8
0
  6
CONTINUOUS
 62
     7
 10
344.8960269468128
 20
158.383618166396
 30
0.0
 40
0.1087268677907488
 50
286.0160053866611
 51
74.62096466072688
  0
LINE
  5
163
  8
0
  6
CONTINUOUS
 62
     7
 10
344.3527068256834
 20
158.114541796961
 30
0.0
 11
344.9260253278996
 21
158.2791115689403
 31
0.0
  0
ARC
  5
164
  8
0
  6
CONTINUOUS
 62
     7
 10
344.7641578371357
 20
156.6811529383382
 30
0.0
 40
1.491273132209241
 50
106.016005386661
 51
142.9599334811436
  0
ARC
  5
165
  8
0
  6
CONTINUOUS
 62
     7
 10
343.6466575791715
 20
157.5244756366275
 30
0.0
 40
0.0912731322092553
 50
142.9599334811435
 51
276.0379829667991
  0
ARC
  5
166
  8
0
  6
CONTINUOUS
 62
     7
 10
345.9143260808578
 20
154.6305488673061
 30
0.0
 40
2.008726867790758
 50
33.97127771769252
 51
93.02783438473418
  0
ARC
  5
167
  8
0
  6
CONTINUOUS
 62
     7
 10
343.9280347742901
 20
154.8643155147425
 30
0.0
 40
3.758726867790745
 50
2.620964660725546
 51
13.67574955536186
  0
ARC
  5
168
  8
0
  6
CONTINUOUS
 62
     7
 10
347.5742165256914
 20
155.0312245790519
 30
0.0
 40
0.1087268677907735
 50
214.0160053866601
 51
2.620964660726031
  0
LINE
  5
169
  8
0
  6
CONTINUOUS
 62
     7
 10
347.1504145403443
 20
155.4648035497462
 30
0.0
 11
347.4840948547449
 21
154.9704001086029
 31
0.0
  0
ARC
  5
16A
  8
0
  6
CONTINUOUS
 62
     7
 10
345.9143260808578
 20
154.6305488673061
 30
0.0
 40
1.491273132209251
 50
34.01600538666099
 51
70.9599334811436
  0
ARC
  5
16B
  8
0
  6
CONTINUOUS
 62
     7
 10
346.3710470574761
 20
155.953955815118
 30
0.0
 40
0.0912731322092544
 50
70.95993348114304
 51
204.0379829667999
  0
ARC
  5
16C
  8
0
  6
CONTINUOUS
 62
     7
 10
344.3195072504618
 20
152.903002357595
 30
0.0
 40
2.008726867790745
 50
321.9712777176925
 51
21.02783438473415
  0
ARC
  5
16D
  8
0
  6
CONTINUOUS
 62
     7
 10
343.9280347742901
 20
154.8643155147425
 30
0.0
 40
3.758726867790756
 50
290.6209646607257
 51
301.675749555362
  0
ARC
  5
16E
  8
0
  6
CONTINUOUS
 62
     7
 10
345.213506853293
 20
151.4481683378627
 30
0.0
 40
0.108726867790771
 50
142.0160053866607
 51
290.6209646607261
  0
LINE
  5
16F
  8
0
  6
CONTINUOUS
 62
     7
 10
345.4949029429783
 20
151.9852112479939
 30
0.0
 11
345.1278102164383
 21
151.5150833452332
 31
0.0
  0
ARC
  5
170
  8
0
  6
CONTINUOUS
 62
     7
 10
344.3195072504618
 20
152.903002357595
 30
0.0
 40
1.491273132209222
 50
322.0160053866609
 51
358.9599334811434
  0
ARC
  5
171
  8
0
  6
CONTINUOUS
 62
     7
 10
345.7192765953512
 20
152.8775901340012
 30
0.0
 40
0.0912731322092299
 50
358.9599334811433
 51
132.0379829668011
  0
ARC
  5
172
  8
0
  6
CONTINUOUS
 62
     7
 10
343.9280347742901
 20
154.8643155147425
 30
0.0
 40
2.583726867790749
 50
259.3057505739549
 51
312.0379829668
  0
ARC
  5
173
  8
0
  6
CONTINUOUS
 62
     7
 10
342.1836867636566
 20
153.8859239684795
 30
0.0
 40
2.008726867790776
 50
249.9712777176925
 51
309.0278343847341
  0
ARC
  5
174
  8
0
  6
CONTINUOUS
 62
     7
 10
343.9280347742901
 20
154.8643155147425
 30
0.0
 40
3.758726867790766
 50
218.6209646607256
 51
229.675749555362
  0
ARC
  5
175
  8
0
  6
CONTINUOUS
 62
     7
 10
341.0763184593017
 20
152.5861113845495
 30
0.0
 40
0.108726867790739
 50
70.01600538666058
 51
218.6209646607247
  0
LINE
  5
176
  8
0
  6
CONTINUOUS
 62
     7
 10
341.6740327923755
 20
152.4844431857334
 30
0.0
 11
341.1134766959505
 21
152.6882916039109
 31
0.0
  0
ARC
  5
177
  8
0
  6
CONTINUOUS
 62
     7
 10
342.1836867636566
 20
153.8859239684795
 30
0.0
 40
1.491273132209246
 50
250.016005386661
 51
286.9599334811435
  0
ARC
  5
178
  8
0
  6
CONTINUOUS
 62
     7
 10
342.5920708185901
 20
152.5468114027569
 30
0.0
 40
0.0912731322092442
 50
286.9599334811435
 51
60.03798296679964
  0
ARC
  5
179
  8
0
  6
CONTINUOUS
 62
     7
 10
343.9280347742901
 20
154.8643155147425
 30
0.0
 40
2.583726867790754
 50
187.3057505739549
 51
240.0379829668001
  0
ARC
  5
17A
  8
0
  6
CONTINUOUS
 62
     7
 10
342.4584959393386
 20
156.2209494419939
 30
0.0
 40
2.008726867790742
 50
177.9712777176924
 51
237.0278343847341
  0
ARC
  5
17B
  8
0
  6
CONTINUOUS
 62
     7
 10
343.9280347742901
 20
154.8643155147425
 30
0.0
 40
3.758726867790764
 50
146.6209646607257
 51
157.675749555362
  0
ARC
  5
17C
  8
0
  6
CONTINUOUS
 62
     7
 10
340.8801050863518
 20
156.8724551058526
 30
0.0
 40
0.1087268677907543
 50
358.0160053866607
 51
146.6209646607257
  0
LINE
  5
17D
  8
0
  6
CONTINUOUS
 62
     7
 10
340.9681167700691
 20
156.2725777932781
 30
0.0
 11
340.9887667764173
 21
156.8686909470255
 31
0.0
  0
ARC
  5
17E
  8
0
  6
CONTINUOUS
 62
     7
 10
342.4584959393386
 20
156.2209494419939
 30
0.0
 40
1.491273132209235
 50
178.0160053866609
 51
214.9599334811435
  0
ARC
  5
17F
  8
0
  6
CONTINUOUS
 62
     7
 10
341.3111218208617
 20
155.4187445852091
 30
0.0
 40
0.0912731322092596
 50
214.959933481143
 51
348.0379829667997
  0
LINE
  5
180
  8
0
  6
CONTINUOUS
 62
     7
 10
341.2922248408075
 20
154.4899086399025
 30
0.0
 11
341.3652834161942
 21
154.5357580556448
 31
0.0
  0
ARC
  5
181
  8
0
  6
CONTINUOUS
 62
     7
 10
343.9280347742901
 20
154.8643155147425
 30
0.0
 40
2.662268677907576
 50
188.0845647773114
 51
240.0379829668
  0
LINE
  5
182
  8
0
  6
CONTINUOUS
 62
     7
 10
341.4555720929413
 20
151.9297696902929
 30
0.0
 11
341.4957155550578
 21
151.9986827953583
 31
0.0
  0
LINE
  5
183
  8
0
  6
CONTINUOUS
 62
     7
 10
343.469606808964
 20
152.241813214652
 30
0.0
 11
343.4485777647333
 21
152.3254642974914
 31
0.0
  0
ARC
  5
184
  8
0
  6
CONTINUOUS
 62
     7
 10
342.1836867636566
 20
153.8859239684795
 30
0.0
 40
2.087268677907591
 50
249.5838575295741
 51
308.030282198445
  0
ARC
  5
185
  8
0
  6
CONTINUOUS
 62
     7
 10
343.9280347742901
 20
154.8643155147425
 30
0.0
 40
2.662268677907594
 50
260.0845647773115
 51
312.0379829668
  0
LINE
  5
186
  8
0
  6
CONTINUOUS
 62
     7
 10
340.373082859086
 20
156.3089427286089
 30
0.0
 11
340.4510281287236
 21
156.2920593479768
 31
0.0
  0
ARC
  5
187
  8
0
  6
CONTINUOUS
 62
     7
 10
342.4584959393386
 20
156.2209494419939
 30
0.0
 40
2.087268677907569
 50
177.583857529574
 51
236.030282198445
  0
LINE
  5
188
  8
0
  6
CONTINUOUS
 62
     7
 10
345.954920716505
 20
151.6060392398222
 30
0.0
 11
345.9017854708815
 21
151.6655132616551
 31
0.0
  0
ARC
  5
189
  8
0
  6
CONTINUOUS
 62
     7
 10
344.3195072504618
 20
152.903002357595
 30
0.0
 40
2.087268677907591
 50
321.5838575295741
 51
20.03028219844498
  0
LINE
  5
18A
  8
0
  6
CONTINUOUS
 62
     7
 10
347.6531818592471
 20
155.7851358565539
 30
0.0
 11
347.5801990093346
 21
155.7529797184289
 31
0.0
  0
ARC
  5
18B
  8
0
  6
CONTINUOUS
 62
     7
 10
345.9143260808578
 20
154.6305488673061
 30
0.0
 40
2.087268677907574
 50
33.58385752957406
 51
92.03028219844498
  0
ARC
  5
18C
  8
0
  6
CONTINUOUS
 62
     7
 10
343.9280347742901
 20
154.8643155147425
 30
0.0
 40
3.837268677907577
 50
2.620964660725576
 51
13.88463096737507
  0
ARC
  5
18D
  8
0
  6
CONTINUOUS
 62
     7
 10
343.9280347742901
 20
154.8643155147425
 30
0.0
 40
3.837268677907586
 50
290.6209646607256
 51
301.8846309673751
  0
LINE
  5
18E
  8
0
  6
CONTINUOUS
 62
     7
 10
341.1403189588284
 20
152.7621042644781
 30
0.0
 11
341.7008750552534
 21
152.5582558463007
 31
0.0
  0
ARC
  5
18F
  8
0
  6
CONTINUOUS
 62
     7
 10
342.4584959393386
 20
156.2209494419939
 30
0.0
 40
1.412731322092415
 50
178.016005386661
 51
214.9599334811435
  0
ARC
  5
190
  8
0
  6
CONTINUOUS
 62
     7
 10
343.9280347742901
 20
154.8643155147425
 30
0.0
 40
3.83726867790758
 50
74.62096466072569
 51
85.88463096737507
  0
ARC
  5
191
  8
0
  6
CONTINUOUS
 62
     7
 10
345.213506853293
 20
151.4481683378627
 30
0.0
 40
0.1872686779075767
 50
142.0160053866607
 51
290.6209646607261
  0
ARC
  5
192
  8
0
  6
CONTINUOUS
 62
     7
 10
344.7641578371357
 20
156.6811529383382
 30
0.0
 40
1.412731322092417
 50
106.016005386661
 51
142.9599334811435
  0
ARC
  5
193
  8
0
  6
CONTINUOUS
 62
     7
 10
341.3111218208617
 20
155.4187445852091
 30
0.0
 40
0.0127313220924062
 50
214.9599334811431
 51
348.0379829667985
  0
ARC
  5
194
  8
0
  6
CONTINUOUS
 62
     7
 10
346.3710470574761
 20
155.953955815118
 30
0.0
 40
0.0127313220924049
 50
70.95993348114229
 51
204.0379829667988
  0
LINE
  5
195
  8
0
  6
CONTINUOUS
 62
     7
 10
345.0659049200176
 20
151.5634212207707
 30
0.0
 11
345.4329976465576
 21
152.0335491235315
 31
0.0
  0
ARC
  5
196
  8
0
  6
CONTINUOUS
 62
     7
 10
342.1836867636566
 20
153.8859239684795
 30
0.0
 40
1.412731322092409
 50
250.016005386661
 51
286.9599334811435
  0
ARC
  5
197
  8
0
  6
CONTINUOUS
 62
     7
 10
343.6466575791715
 20
157.5244756366275
 30
0.0
 40
0.0127313220924111
 50
142.9599334811442
 51
276.0379829667935
  0
LINE
  5
198
  8
0
  6
CONTINUOUS
 62
     7
 10
344.9476954743777
 20
158.2036183858835
 30
0.0
 11
344.3743769721615
 21
158.0390486139042
 31
0.0
  0
ARC
  5
199
  8
0
  6
CONTINUOUS
 62
     7
 10
344.8960269468128
 20
158.383618166396
 30
0.0
 40
0.1872686779075887
 50
286.016005386661
 51
74.62096466072688
  0
ARC
  5
19A
  8
0
  6
CONTINUOUS
 62
     7
 10
343.9280347742901
 20
154.8643155147425
 30
0.0
 40
3.837268677907594
 50
218.6209646607256
 51
229.884630967375
  0
ARC
  5
19B
  8
0
  6
CONTINUOUS
 62
     7
 10
340.8801050863518
 20
156.8724551058526
 30
0.0
 40
0.1872686779075888
 50
358.0160053866607
 51
146.6209646607256
  0
ARC
  5
19C
  8
0
  6
CONTINUOUS
 62
     7
 10
347.5742165256914
 20
155.0312245790519
 30
0.0
 40
0.1872686779075672
 50
214.0160053866603
 51
2.620964660725974
  0
ARC
  5
19D
  8
0
  6
CONTINUOUS
 62
     7
 10
343.9280347742901
 20
154.8643155147425
 30
0.0
 40
3.8372686779076
 50
146.6209646607256
 51
157.884630967375
  0
ARC
  5
19E
  8
0
  6
CONTINUOUS
 62
     7
 10
341.0763184593017
 20
152.5861113845495
 30
0.0
 40
0.1872686779075977
 50
70.01600538666071
 51
218.6209646607247
  0
ARC
  5
19F
  8
0
  6
CONTINUOUS
 62
     7
 10
342.5920708185901
 20
152.5468114027569
 30
0.0
 40
0.0127313220924168
 50
286.9599334811436
 51
60.03798296679746
  0
LINE
  5
1A0
  8
0
  6
CONTINUOUS
 62
     7
 10
341.0672615036317
 20
156.8659718045186
 30
0.0
 11
341.0466114972834
 21
156.2698586507712
 31
0.0
  0
LINE
  5
1A1
  8
0
  6
CONTINUOUS
 62
     7
 10
347.4189930145952
 20
154.9264618980617
 30
0.0
 11
347.0853127001947
 21
155.4208653392051
 31
0.0
  0
ARC
  5
1A2
  8
0
  6
CONTINUOUS
 62
     7
 10
345.7192765953512
 20
152.8775901340012
 30
0.0
 40
0.0127313220923992
 50
358.9599334811443
 51
132.0379829668082
  0
ARC
  5
1A3
  8
0
  6
CONTINUOUS
 62
     7
 10
344.3195072504618
 20
152.903002357595
 30
0.0
 40
1.412731322092393
 50
322.0160053866609
 51
358.9599334811435
  0
ARC
  5
1A4
  8
0
  6
CONTINUOUS
 62
     7
 10
345.9143260808578
 20
154.6305488673061
 30
0.0
 40
1.412731322092428
 50
34.016005386661
 51
70.95993348114364
  0
LINE
  5
1A5
  8
0
  6
CONTINUOUS
 62
     7
 10
337.8479947112996
 20
168.3952538158965
 30
0.0
 11
340.2836428966455
 21
164.1765874095144
 31
0.0
  0
LINE
  5
1A6
  8
0
  6
CONTINUOUS
 62
     7
 10
338.2032326838985
 20
167.6403337139252
 30
0.0
 11
340.2836428966455
 21
164.1765874095144
 31
0.0
  0
LINE
  5
1A7
  8
0
  6
CONTINUOUS
 62
     7
 10
337.7489985516581
 20
168.4270903094976
 30
0.0
 11
338.2032326838985
 21
167.6403337139252
 31
0.0
  0
ARC
  5
1A8
  8
0
  6
CONTINUOUS
 62
     7
 10
343.9280347742901
 20
154.8643155147425
 30
0.0
 40
14.0
 50
114.1366595320151
 51
125.863340467985
  0
LINE
  5
1A9
  8
0
  6
CONTINUOUS
 62
     7
 10
335.7260794997814
 20
166.2101486562513
 30
0.0
 11
335.2718453675409
 21
166.9969052518237
 31
0.0
  0
LINE
  5
1AA
  8
0
  6
CONTINUOUS
 62
     7
 10
337.6855666852921
 20
162.6765874095144
 30
0.0
 11
335.7260794997814
 21
166.2101486562513
 31
0.0
  0
LINE
  5
1AB
  8
0
  6
CONTINUOUS
 62
     7
 10
337.6855666852921
 20
162.6765874095144
 30
0.0
 11
335.2499184999462
 21
166.8952538158965
 31
0.0
  0
LINE
  5
1AC
  8
0
  6
CONTINUOUS
 62
     7
 10
352.606151048634
 20
166.8952538158965
 30
0.0
 11
350.1705028632881
 21
162.6765874095144
 31
0.0
  0
LINE
  5
1AD
  8
0
  6
CONTINUOUS
 62
     7
 10
352.1299900487988
 20
166.2101486562513
 30
0.0
 11
350.1705028632881
 21
162.6765874095144
 31
0.0
  0
LINE
  5
1AE
  8
0
  6
CONTINUOUS
 62
     7
 10
352.5842241810393
 20
166.9969052518237
 30
0.0
 11
352.1299900487988
 21
166.2101486562513
 31
0.0
  0
ARC
  5
1AF
  8
0
  6
CONTINUOUS
 62
     7
 10
343.9280347742901
 20
154.8643155147425
 30
0.0
 40
14.00000000000002
 50
54.13665953201496
 51
65.8633404679851
  0
LINE
  5
1B0
  8
0
  6
CONTINUOUS
 62
     7
 10
349.6528368646817
 20
167.6403337139252
 30
0.0
 11
350.1070709969222
 21
168.4270903094976
 31
0.0
  0
LINE
  5
1B1
  8
0
  6
CONTINUOUS
 62
     7
 10
347.5724266519348
 20
164.1765874095144
 30
0.0
 11
349.6528368646818
 21
167.6403337139252
 31
0.0
  0
LINE
  5
1B2
  8
0
  6
CONTINUOUS
 62
     7
 10
347.5724266519348
 20
164.1765874095144
 30
0.0
 11
350.0080748372807
 21
168.3952538158965
 31
0.0
  0
LINE
  5
1B3
  8
0
  6
CONTINUOUS
 62
     7
 10
350.1070709969222
 20
141.3015407199874
 30
0.0
 11
349.6528368646818
 21
142.0882973155598
 31
0.0
  0
ARC
  5
1B4
  8
0
  6
CONTINUOUS
 62
     7
 10
343.9280347742901
 20
154.8643155147425
 30
0.0
 40
14.00000000000001
 50
294.1366595320151
 51
305.8633404679852
  0
LINE
  5
1B5
  8
0
  6
CONTINUOUS
 62
     7
 10
352.1299900487988
 20
143.5184823732338
 30
0.0
 11
352.5842241810393
 21
142.7317257776614
 31
0.0
  0
LINE
  5
1B6
  8
0
  6
CONTINUOUS
 62
     7
 10
350.0080748372807
 20
141.3333772135886
 30
0.0
 11
347.5724266519348
 21
145.5520436199707
 31
0.0
  0
LINE
  5
1B7
  8
0
  6
CONTINUOUS
 62
     7
 10
349.6528368646818
 20
142.0882973155598
 30
0.0
 11
347.5724266519348
 21
145.5520436199707
 31
0.0
  0
LINE
  5
1B8
  8
0
  6
CONTINUOUS
 62
     7
 10
350.1705028632881
 20
147.0520436199707
 30
0.0
 11
352.1299900487988
 21
143.5184823732338
 31
0.0
  0
LINE
  5
1B9
  8
0
  6
CONTINUOUS
 62
     7
 10
350.1705028632881
 20
147.0520436199707
 30
0.0
 11
352.606151048634
 21
142.8333772135886
 31
0.0
  0
LINE
  5
1BA
  8
0
  6
CONTINUOUS
 62
     7
 10
338.2032326838985
 20
142.0882973155598
 30
0.0
 11
337.7489985516581
 21
141.3015407199874
 31
0.0
  0
LINE
  5
1BB
  8
0
  6
CONTINUOUS
 62
     7
 10
340.2836428966455
 20
145.5520436199707
 30
0.0
 11
338.2032326838985
 21
142.0882973155598
 31
0.0
  0
LINE
  5
1BC
  8
0
  6
CONTINUOUS
 62
     7
 10
340.2836428966455
 20
145.5520436199707
 30
0.0
 11
337.8479947112996
 21
141.3333772135885
 31
0.0
  0
ARC
  5
1BD
  8
0
  6
CONTINUOUS
 62
     7
 10
343.9280347742901
 20
154.8643155147425
 30
0.0
 40
10.00000000000001
 50
291.3730734413215
 51
308.6269265586789
  0
ARC
  5
1BE
  8
0
  6
CONTINUOUS
 62
     7
 10
343.9280347742901
 20
154.8643155147425
 30
0.0
 40
9.999999999999993
 50
51.37307344132137
 51
68.62692655867869
  0
ARC
  5
1BF
  8
0
  6
CONTINUOUS
 62
     7
 10
343.9280347742901
 20
154.8643155147425
 30
0.0
 40
9.999999999999993
 50
231.3730734413214
 51
248.6269265586786
  0
ARC
  5
1C0
  8
0
  6
CONTINUOUS
 62
     7
 10
343.9280347742901
 20
154.8643155147425
 30
0.0
 40
14.0
 50
234.1366595320151
 51
245.863340467985
  0
LINE
  5
1C1
  8
0
  6
CONTINUOUS
 62
     7
 10
335.7260794997814
 20
143.5184823732338
 30
0.0
 11
337.6855666852921
 21
147.0520436199706
 31
0.0
  0
LINE
  5
1C2
  8
0
  6
CONTINUOUS
 62
     7
 10
335.2499184999462
 20
142.8333772135885
 30
0.0
 11
337.6855666852921
 21
147.0520436199707
 31
0.0
  0
LINE
  5
1C3
  8
0
  6
CONTINUOUS
 62
     7
 10
335.2718453675409
 20
142.7317257776614
 30
0.0
 11
335.7260794997814
 21
143.5184823732338
 31
0.0
  0
ARC
  5
1C4
  8
0
  6
CONTINUOUS
 62
     7
 10
343.9280347742901
 20
154.8643155147425
 30
0.0
 40
10.0
 50
111.3730734413214
 51
128.6269265586785
  0
CIRCLE
  5
1C5
  8
0
  6
CONTINUOUS
 62
     7
 10
343.9280347742901
 20
154.8643155147425
 30
0.0
 40
5.500000000000004
  0
CIRCLE
  5
1C6
  8
0
  6
CONTINUOUS
 62
     7
 10
343.9280347742901
 20
154.8643155147425
 30
0.0
 40
6.500000000000005
  0
ARC
  5
1C7
  8
0
  6
CONTINUOUS
 62
     7
 10
343.9280347742901
 20
154.8643155147425
 30
0.0
 40
25.00000000000001
 50
206.9084797257699
 51
333.0915202742301
  0
ARC
  5
1C8
  8
0
  6
CONTINUOUS
 62
     7
 10
343.9280347742901
 20
154.8643155147425
 30
0.0
 40
24.99999999999999
 50
26.90847972576989
 51
90.0
  0
ARC
  5
1C9
  8
0
  6
CONTINUOUS
 62
     7
 10
343.9280347742901
 20
154.8643155147425
 30
0.0
 40
25.00000000000001
 50
90.0
 51
153.0915202742301
  0
LINE
  5
1CA
  8
0
  6
CONTINUOUS
 62
     7
 10
371.9280347742902
 20
144.5589132204517
 30
0.0
 11
371.9280347742902
 21
144.5327326170794
 31
0.0
  0
POLYLINE
  5
1CB
  8
0
  6
CONTINUOUS
 62
     7
 66
     1
 10
0.0
 20
0.0
 30
0.0
  0
VERTEX
  5
2BD
  8
0
  6
CONTINUOUS
 62
     7
 10
370.9280347742901
 20
143.5326945386937
 30
0.0
  0
VERTEX
  5
2BE
  8
0
  6
CONTINUOUS
 62
     7
 10
371.1231250963062
 20
143.551909989956
 30
0.0
  0
VERTEX
  5
2BF
  8
0
  6
CONTINUOUS
 62
     7
 10
371.3107182066552
 20
143.6088179047269
 30
0.0
  0
VERTEX
  5
2C0
  8
0
  6
CONTINUOUS
 62
     7
 10
371.4836050073097
 20
143.7012313437563
 30
0.0
  0
VERTEX
  5
2C1
  8
0
  6
CONTINUOUS
 62
     7
 10
371.6351415554767
 20
143.8255989104081
 30
0.0
  0
VERTEX
  5
2C2
  8
0
  6
CONTINUOUS
 62
     7
 10
371.7595043865927
 20
143.9771412288422
 30
0.0
  0
VERTEX
  5
2C3
  8
0
  6
CONTINUOUS
 62
     7
 10
371.8519143068014
 20
144.150034612747
 30
0.0
  0
VERTEX
  5
2C4
  8
0
  6
CONTINUOUS
 62
     7
 10
371.9088200546933
 20
144.3376348663388
 30
0.0
  0
VERTEX
  5
2C5
  8
0
  6
CONTINUOUS
 62
     7
 10
371.9280347742901
 20
144.5327326170794
 30
0.0
  0
SEQEND
  5
2EF
  8
0
  6
CONTINUOUS
 62
     7
  0
LINE
  5
1CC
  8
0
  6
CONTINUOUS
 62
     7
 10
371.9280347742902
 20
165.1958984124056
 30
0.0
 11
371.9280347742902
 21
165.1697178090334
 31
0.0
  0
POLYLINE
  5
1CD
  8
0
  6
CONTINUOUS
 62
     7
 66
     1
 10
0.0
 20
0.0
 30
0.0
  0
VERTEX
  5
2C6
  8
0
  6
CONTINUOUS
 62
     7
 10
371.9280347742902
 20
165.1958984124056
 30
0.0
  0
VERTEX
  5
2C7
  8
0
  6
CONTINUOUS
 62
     7
 10
371.9088200546934
 20
165.3909961631463
 30
0.0
  0
VERTEX
  5
2C8
  8
0
  6
CONTINUOUS
 62
     7
 10
371.8519143068015
 20
165.5785964167381
 30
0.0
  0
VERTEX
  5
2C9
  8
0
  6
CONTINUOUS
 62
     7
 10
371.7595043865927
 20
165.7514898006429
 30
0.0
  0
VERTEX
  5
2CA
  8
0
  6
CONTINUOUS
 62
     7
 10
371.6351415554767
 20
165.903032119077
 30
0.0
  0
VERTEX
  5
2CB
  8
0
  6
CONTINUOUS
 62
     7
 10
371.4836050073097
 20
166.0273996857288
 30
0.0
  0
VERTEX
  5
2CC
  8
0
  6
CONTINUOUS
 62
     7
 10
371.3107182066552
 20
166.1198131247581
 30
0.0
  0
VERTEX
  5
2CD
  8
0
  6
CONTINUOUS
 62
     7
 10
371.1231250963063
 20
166.1767210395291
 30
0.0
  0
VERTEX
  5
2CE
  8
0
  6
CONTINUOUS
 62
     7
 10
370.9280347742902
 20
166.1959364907914
 30
0.0
  0
SEQEND
  5
2F0
  8
0
  6
CONTINUOUS
 62
     7
  0
LINE
  5
1CE
  8
0
  6
CONTINUOUS
 62
     7
 10
315.9280347742901
 20
144.5327326170794
 30
0.0
 11
315.9280347742901
 21
144.5589132204517
 31
0.0
  0
POLYLINE
  5
1CF
  8
0
  6
CONTINUOUS
 62
     7
 66
     1
 10
0.0
 20
0.0
 30
0.0
  0
VERTEX
  5
2CF
  8
0
  6
CONTINUOUS
 62
     7
 10
315.9280347742901
 20
144.5327326170794
 30
0.0
  0
VERTEX
  5
2D0
  8
0
  6
CONTINUOUS
 62
     7
 10
315.9472494938869
 20
144.3376348663388
 30
0.0
  0
VERTEX
  5
2D1
  8
0
  6
CONTINUOUS
 62
     7
 10
316.0041552417788
 20
144.150034612747
 30
0.0
  0
VERTEX
  5
2D2
  8
0
  6
CONTINUOUS
 62
     7
 10
316.0965651619876
 20
143.9771412288422
 30
0.0
  0
VERTEX
  5
2D3
  8
0
  6
CONTINUOUS
 62
     7
 10
316.2209279931035
 20
143.8255989104081
 30
0.0
  0
VERTEX
  5
2D4
  8
0
  6
CONTINUOUS
 62
     7
 10
316.3724645412705
 20
143.7012313437562
 30
0.0
  0
VERTEX
  5
2D5
  8
0
  6
CONTINUOUS
 62
     7
 10
316.545351341925
 20
143.6088179047269
 30
0.0
  0
VERTEX
  5
2D6
  8
0
  6
CONTINUOUS
 62
     7
 10
316.732944452274
 20
143.551909989956
 30
0.0
  0
VERTEX
  5
2D7
  8
0
  6
CONTINUOUS
 62
     7
 10
316.9280347742901
 20
143.5326945386937
 30
0.0
  0
SEQEND
  5
2F1
  8
0
  6
CONTINUOUS
 62
     7
  0
LINE
  5
1D0
  8
0
  6
CONTINUOUS
 62
     7
 10
315.9280347742901
 20
165.1697178090333
 30
0.0
 11
315.9280347742901
 21
165.1958984124056
 31
0.0
  0
POLYLINE
  5
1D1
  8
0
  6
CONTINUOUS
 62
     7
 66
     1
 10
0.0
 20
0.0
 30
0.0
  0
VERTEX
  5
2D8
  8
0
  6
CONTINUOUS
 62
     7
 10
316.9280347742901
 20
166.1959364907914
 30
0.0
  0
VERTEX
  5
2D9
  8
0
  6
CONTINUOUS
 62
     7
 10
316.732944452274
 20
166.1767210395291
 30
0.0
  0
VERTEX
  5
2DA
  8
0
  6
CONTINUOUS
 62
     7
 10
316.545351341925
 20
166.1198131247581
 30
0.0
  0
VERTEX
  5
2DB
  8
0
  6
CONTINUOUS
 62
     7
 10
316.3724645412705
 20
166.0273996857288
 30
0.0
  0
VERTEX
  5
2DC
  8
0
  6
CONTINUOUS
 62
     7
 10
316.2209279931035
 20
165.903032119077
 30
0.0
  0
VERTEX
  5
2DD
  8
0
  6
CONTINUOUS
 62
     7
 10
316.0965651619875
 20
165.7514898006429
 30
0.0
  0
VERTEX
  5
2DE
  8
0
  6
CONTINUOUS
 62
     7
 10
316.0041552417788
 20
165.5785964167381
 30
0.0
  0
VERTEX
  5
2DF
  8
0
  6
CONTINUOUS
 62
     7
 10
315.9472494938869
 20
165.3909961631463
 30
0.0
  0
VERTEX
  5
2E0
  8
0
  6
CONTINUOUS
 62
     7
 10
315.9280347742901
 20
165.1958984124056
 30
0.0
  0
SEQEND
  5
2F2
  8
0
  6
CONTINUOUS
 62
     7
  0
ENDBLK
  8
0
  0
BLOCK
  8
0
  2
D_FRAME_VIEW_18540
 70
     0
 10
0.0
 20
0.0
 30
0.0
  0
LINE
  5
1D9
  8
0
  6
CONTINUOUS
 62
     7
 10
429.2334370685809
 20
78.31388632174364
 30
0.0
 11
408.6226324799993
 21
78.31388632174364
 31
0.0
  0
LINE
  5
1DA
  8
0
  6
CONTINUOUS
 62
     7
 10
429.2596176719533
 20
75.31388632174365
 30
0.0
 11
408.596451876627
 21
75.31388632174365
 31
0.0
  0
LINE
  5
1DB
  8
0
  6
CONTINUOUS
 62
     7
 10
407.5964137982413
 20
75.31388632174365
 30
0.0
 11
407.6219279560339
 21
78.23751922238718
 31
0.0
  0
LINE
  5
1DC
  8
0
  6
CONTINUOUS
 62
     7
 10
408.6211580112619
 20
78.31389266274289
 30
0.0
 11
407.6219279560339
 21
78.23751922238718
 31
0.0
  0
LINE
  5
1DD
  8
0
  6
CONTINUOUS
 62
     7
 10
408.6226324799993
 20
78.31388632174364
 30
0.0
 11
408.6211579551234
 21
78.31388632174364
 31
0.0
  0
LINE
  5
1DE
  8
0
  6
CONTINUOUS
 62
     7
 10
408.596451876627
 20
75.31388632174365
 30
0.0
 11
407.5964137982413
 21
75.31388632174365
 31
0.0
  0
LINE
  5
1DF
  8
0
  6
CONTINUOUS
 62
     7
 10
429.2349115934568
 20
78.31388632174364
 30
0.0
 11
429.2334370685809
 21
78.31388632174364
 31
0.0
  0
LINE
  5
1E0
  8
0
  6
CONTINUOUS
 62
     7
 10
430.2341415925463
 20
78.23751922238714
 30
0.0
 11
429.2349115373183
 21
78.31389266274283
 31
0.0
  0
LINE
  5
1E1
  8
0
  6
CONTINUOUS
 62
     7
 10
430.2341415925463
 20
78.23751922238712
 30
0.0
 11
430.259655750339
 21
75.31388632174365
 31
0.0
  0
LINE
  5
1E2
  8
0
  6
CONTINUOUS
 62
     7
 10
430.259655750339
 20
75.31388632174365
 30
0.0
 11
429.2596176719533
 21
75.31388632174365
 31
0.0
  0
LINE
  5
1E3
  8
0
  6
CONTINUOUS
 62
     7
 10
415.6780347742902
 20
112.4828501368545
 30
0.0
 11
415.6780347742902
 21
112.1138863217437
 31
0.0
  0
LINE
  5
1E4
  8
0
  6
CONTINUOUS
 62
     7
 10
415.6780347742902
 20
112.1138863217437
 30
0.0
 11
422.1780347742902
 21
112.1138863217436
 31
0.0
  0
LINE
  5
1E5
  8
0
  6
CONTINUOUS
 62
     7
 10
422.1780347742902
 20
112.1138863217436
 30
0.0
 11
422.1780347742902
 21
112.4828501368545
 31
0.0
  0
LINE
  5
1E6
  8
0
  6
CONTINUOUS
 62
     7
 10
407.6219279560339
 20
78.23751922238718
 30
0.0
 11
407.9280347742901
 21
113.3138863217437
 31
0.0
  0
LINE
  5
1E7
  8
0
  6
CONTINUOUS
 62
     7
 10
407.9280347742901
 20
113.3138863217437
 30
0.0
 11
407.9421649970511
 21
113.3138863217437
 31
0.0
  0
LINE
  5
1E8
  8
0
  6
CONTINUOUS
 62
     7
 10
429.9280347742902
 20
113.3138863217437
 30
0.0
 11
430.2341415925463
 21
78.23751922238714
 31
0.0
  0
LINE
  5
1E9
  8
0
  6
CONTINUOUS
 62
     7
 10
429.9139045515292
 20
113.3138863217437
 30
0.0
 11
429.9280347742902
 21
113.3138863217437
 31
0.0
  0
LINE
  5
1EA
  8
0
  6
CONTINUOUS
 62
     7
 10
394.9280347742901
 20
78.31388632174365
 30
0.0
 11
407.6225944016136
 21
78.31388632174365
 31
0.0
  0
LINE
  5
1EB
  8
0
  6
CONTINUOUS
 62
     7
 10
430.2334751469667
 20
78.31388632174365
 30
0.0
 11
442.9280347742901
 21
78.31388632174365
 31
0.0
  0
LINE
  5
1EC
  8
0
  6
CONTINUOUS
 62
     7
 10
443.9280347742902
 20
75.31388632174365
 30
0.0
 11
430.259655750339
 21
75.31388632174365
 31
0.0
  0
LINE
  5
1ED
  8
0
  6
CONTINUOUS
 62
     7
 10
393.9280347742901
 20
75.31388632174365
 30
0.0
 11
407.5964137982413
 21
75.31388632174365
 31
0.0
  0
LINE
  5
1EE
  8
0
  6
CONTINUOUS
 62
     7
 10
407.9421649970511
 20
113.3138863217437
 30
0.0
 11
415.6780347742902
 21
113.3138863217437
 31
0.0
  0
LINE
  5
1EF
  8
0
  6
CONTINUOUS
 62
     7
 10
415.6780347742902
 20
113.3138863217437
 30
0.0
 11
415.6780347742902
 21
112.4828501368545
 31
0.0
  0
LINE
  5
1F0
  8
0
  6
CONTINUOUS
 62
     7
 10
422.1780347742902
 20
113.3138863217437
 30
0.0
 11
429.9139045515292
 21
113.3138863217437
 31
0.0
  0
LINE
  5
1F1
  8
0
  6
CONTINUOUS
 62
     7
 10
422.1780347742902
 20
112.4828501368545
 30
0.0
 11
422.1780347742902
 21
113.3138863217437
 31
0.0
  0
LINE
  5
1F2
  8
0
  6
CONTINUOUS
 62
     7
 10
407.9280347742902
 20
113.3138863217435
 30
0.0
 11
407.6649507852294
 21
114.3662222779866
 31
0.0
  0
LINE
  5
1F3
  8
0
  6
CONTINUOUS
 62
     7
 10
430.1911187633509
 20
114.3662222779869
 30
0.0
 11
429.9280347742924
 21
113.3138863217528
 31
0.0
  0
LINE
  5
1F4
  8
0
  6
CONTINUOUS
 62
     7
 10
398.4818148995711
 20
115.3138863217437
 30
0.0
 11
407.4280347742901
 21
115.3138863217437
 31
0.0
  0
LINE
  5
1F5
  8
0
  6
CONTINUOUS
 62
     7
 10
407.4280347742901
 20
115.3138863217437
 30
0.0
 11
407.6649507852294
 21
114.3662222779866
 31
0.0
  0
LINE
  5
1F6
  8
0
  6
CONTINUOUS
 62
     7
 10
430.4280347742902
 20
115.3138863217437
 30
0.0
 11
439.3742546490092
 21
115.3138863217437
 31
0.0
  0
LINE
  5
1F7
  8
0
  6
CONTINUOUS
 62
     7
 10
430.191118763351
 20
114.3662222779869
 30
0.0
 11
430.4280347742902
 21
115.3138863217437
 31
0.0
  0
ARC
  5
1F8
  8
0
  6
CONTINUOUS
 62
     7
 10
394.9280347742901
 20
77.31388632174365
 30
0.0
 40
1.000000000000001
 50
90.0
 51
180.0
  0
ARC
  5
1F9
  8
0
  6
CONTINUOUS
 62
     7
 10
442.9280347742902
 20
77.31388632174365
 30
0.0
 40
1.000000000000001
 50
0.0
 51
90.0
  0
LINE
  5
1FA
  8
0
  6
CONTINUOUS
 62
     7
 10
443.9280347742902
 20
75.31388632174365
 30
0.0
 11
443.9280347742902
 21
77.31388632174298
 31
0.0
  0
LINE
  5
1FB
  8
0
  6
CONTINUOUS
 62
     7
 10
393.9280347742901
 20
77.31388632174298
 30
0.0
 11
393.9280347742901
 21
75.31388632174365
 31
0.0
  0
LINE
  5
1FC
  8
0
  6
CONTINUOUS
 62
     7
 10
397.4831853648165
 20
114.3662222779866
 30
0.0
 11
395.5937624993837
 21
78.31388632174365
 31
0.0
  0
LINE
  5
1FD
  8
0
  6
CONTINUOUS
 62
     7
 10
442.2623070491965
 20
78.31388632174365
 30
0.0
 11
440.3728841837637
 21
114.3662222779866
 31
0.0
  0
ARC
  5
1FE
  8
0
  6
CONTINUOUS
 62
     7
 10
398.4818148995711
 20
114.3138863217437
 30
0.0
 40
1.000000000000001
 50
90.0
 51
177.0000000000003
  0
ARC
  5
1FF
  8
0
  6
CONTINUOUS
 62
     7
 10
439.3742546490092
 20
114.3138863217437
 30
0.0
 40
0.9999999999999727
 50
2.999999999999679
 51
89.99999999999991
  0
LINE
  5
200
  8
0
  6
CONTINUOUS
 62
     7
 10
426.9133161485287
 20
75.31388632174365
 30
0.0
 11
427.4133161485287
 21
74.31388632174365
 31
0.0
  0
LINE
  5
201
  8
0
  6
CONTINUOUS
 62
     7
 10
427.4133161485287
 20
74.31388632174365
 30
0.0
 11
427.9133161485287
 21
75.31388632174365
 31
0.0
  0
LINE
  5
202
  8
0
  6
CONTINUOUS
 62
     7
 10
409.9427534000516
 20
75.31388632174365
 30
0.0
 11
410.4427534000516
 21
74.31388632174365
 31
0.0
  0
LINE
  5
203
  8
0
  6
CONTINUOUS
 62
     7
 10
410.4427534000516
 20
74.31388632174365
 30
0.0
 11
410.9427534000516
 21
75.31388632174365
 31
0.0
  0
ENDBLK
  8
0
  0
ENDSEC
  0
SECTION
  2
ENTITIES
  0
INSERT
  5
93
  8
0
  6
CONTINUOUS
 62
     7
  2
D_FRAME_VIEW_18170
 10
0.0
 20
0.0
 30
0.0
  0
INSERT
  5
1D2
  8
0
  6
CONTINUOUS
 62
     7
  2
D_FRAME_VIEW_18482
 10
0.0
 20
0.0
 30
0.0
  0
TEXT
  5
1D3
  8
0
  6
CONTINUOUS
 62
     2
 10
343.9795228323119
 20
59.5495537290729
 30
0.0
 40
3.0
  1
GGD-1
  0
POINT
  5
1D4
  8
0
 62
     1
 10
418.9280347742902
 20
94.86431551474253
 30
0.0
  0
POINT
  5
1D5
  8
0
 62
     1
 10
343.9280347742901
 20
94.86431551474253
 30
0.0
  0
INSERT
  5
204
  8
0
  6
DOT
 62
     7
  2
D_FRAME_VIEW_18540
 10
0.0
 20
0.0
 30
0.0
  0
LINE
  5
206
  8
0
  6
CENTER
 62
     1
 10
343.9280347742901
 20
71.31388632174365
 30
0.0
 11
343.9280347742901
 21
118.313926725797
 31
0.0
  0
LINE
  5
208
  8
0
  6
CENTER
 62
     1
 10
418.9280347742902
 20
71.31388632174365
 30
0.0
 11
418.9280347742902
 21
118.3138863217437
 31
0.0
  0
POINT
  5
209
  8
0
 62
     7
 10
371.9280347742902
 20
75.31388632174365
 30
0.0
  0
LINE
  5
20A
  8
0
  6
CENTER
 62
     1
 10
343.9280347742901
 20
127.8643155147425
 30
0.0
 11
343.9280347742901
 21
181.8643155147425
 31
0.0
  0
LINE
  5
20B
  8
0
  6
CENTER
 62
     1
 10
316.9280347742901
 20
154.8643155147425
 30
0.0
 11
370.9280347742902
 21
154.8643155147425
 31
0.0
  0
ENDSEC
  0
EOF
