  0
SECTION
  2
HEADER
  9
$ACADVER
  1
AC1006
  9
$DWGCODEPAGE
  3
ansi_932
  9
$INSBASE
 10
0.0
 20
0.0
 30
0.0
  9
$EXTMIN
 10
-157.7679023328886
 20
86.94019575286603
  9
$EXTMAX
 10
-58.76790233288859
 20
178.4397688056272
  9
$LIMMIN
 10
0.0
 20
0.0
  9
$LIMMAX
 10
12.0
 20
9.0
  9
$ORTHOMODE
 70
     0
  9
$REGENMODE
 70
     1
  9
$FILLMODE
 70
     1
  9
$QTEXTMODE
 70
     0
  9
$MIRRTEXT
 70
     1
  9
$DRAGMODE
 70
     2
  9
$LTSCALE
 40
1.0
  9
$OSMODE
 70
    37
  9
$ATTMODE
 70
     1
  9
$TEXTSIZE
 40
0.2
  9
$TRACEWID
 40
0.05
  9
$TEXTSTYLE
  7
STANDARD
  9
$CLAYER
  8
0
  9
$CELTYPE
  6
BYLAYER
  9
$CECOLOR
 62
   256
  9
$DIMSCALE
 40
1.0
  9
$DIMASZ
 40
3.0
  9
$DIMEXO
 40
0.0625
  9
$DIMDLI
 40
0.38
  9
$DIMRND
 40
0.0
  9
$DIMDLE
 40
0.0
  9
$DIMEXE
 40
1.5
  9
$DIMTP
 40
0.0
  9
$DIMTM
 40
0.0
  9
$DIMTXT
 40
3.0
  9
$DIMCEN
 40
0.09
  9
$DIMTSZ
 40
0.0
  9
$DIMTOL
 70
     0
  9
$DIMLIM
 70
     0
  9
$DIMTIH
 70
     1
  9
$DIMTOH
 70
     1
  9
$DIMSE1
 70
     0
  9
$DIMSE2
 70
     0
  9
$DIMTAD
 70
     1
  9
$DIMZIN
 70
     0
  9
$DIMBLK
  1

  9
$DIMASO
 70
     1
  9
$DIMSHO
 70
     1
  9
$DIMPOST
  1

  9
$DIMAPOST
  1

  9
$DIMALT
 70
     0
  9
$DIMALTD
 70
     2
  9
$DIMALTF
 40
25.4
  9
$DIMLFAC
 40
1.0
  9
$DIMTOFL
 70
     0
  9
$DIMTVP
 40
0.0
  9
$DIMTIX
 70
     0
  9
$DIMSOXD
 70
     0
  9
$DIMSAH
 70
     0
  9
$DIMBLK1
  1

  9
$DIMBLK2
  1

  9
$LUNITS
 70
     2
  9
$LUPREC
 70
     4
  9
$SKETCHINC
 40
0.1
  9
$FILLETRAD
 40
0.5
  9
$AUNITS
 70
     0
  9
$AUPREC
 70
     0
  9
$MENU
  1
.
  9
$ELEVATION
 40
0.0
  9
$THICKNESS
 40
0.0
  9
$LIMCHECK
 70
     0
  9
$CHAMFERA
 40
0.0
  9
$CHAMFERB
 40
0.0
  9
$SKPOLY
 70
     0
  9
$TDCREATE
 40
2458915.382166666
  9
$TDUPDATE
 40
2458915.382166852
  9
$TDINDWG
 40
0.0000000116
  9
$TDUSRTIMER
 40
0.0000000116
  9
$USRTIMER
 70
     1
  9
$ANGBASE
 50
0.0
  9
$ANGDIR
 70
     0
  9
$PDMODE
 70
     0
  9
$PDSIZE
 40
0.0
  9
$PLINEWID
 40
0.0
  9
$COORDS
 70
     1
  9
$SPLFRAME
 70
     0
  9
$SPLINETYPE
 70
     6
  9
$SPLINESEGS
 70
     8
  9
$ATTDIA
 70
     0
  9
$ATTREQ
 70
     1
  9
$HANDLING
 70
     1
  9
$HANDSEED
  5
4F9
  9
$SURFTAB1
 70
     6
  9
$SURFTAB2
 70
     6
  9
$SURFTYPE
 70
     6
  9
$SURFU
 70
     6
  9
$SURFV
 70
     6
  9
$UCSNAME
  2

  9
$UCSORG
 10
0.0
 20
0.0
 30
0.0
  9
$UCSXDIR
 10
1.0
 20
0.0
 30
0.0
  9
$UCSYDIR
 10
0.0
 20
1.0
 30
0.0
  9
$USERI1
 70
     0
  9
$USERI2
 70
     0
  9
$USERI3
 70
     0
  9
$USERI4
 70
     0
  9
$USERI5
 70
     0
  9
$USERR1
 40
0.0
  9
$USERR2
 40
0.0
  9
$USERR3
 40
0.0
  9
$USERR4
 40
0.0
  9
$USERR5
 40
0.0
  9
$WORLDVIEW
 70
     1
  0
ENDSEC
  0
SECTION
  2
TABLES
  0
TABLE
  2
VPORT
 70
     1
  0
VPORT
  2
*ACTIVE
 70
     0
 10
0.0
 20
0.0
 11
1.0
 21
1.0
 12
-108.2679023328886
 22
132.6899822792466
 13
0.0
 23
0.0
 14
0.5
 24
0.5
 15
0.5
 25
0.5
 16
0.0
 26
0.0
 36
1.0
 17
0.0
 27
0.0
 37
0.0
 40
91.49957305276115
 41
1.6
 42
50.0
 43
0.0
 44
0.0
 50
0.0
 51
0.0
 71
     0
 72
   100
 73
     1
 74
     3
 75
     0
 76
     0
 77
     0
 78
     0
  0
ENDTAB
  0
TABLE
  2
LTYPE
 70
     2
  0
LTYPE
  2
CONTINUOUS
 70
     0
  3
Solid line
 72
    65
 73
     0
 40
0.0
  0
LTYPE
  2
CENTER
 70
     0
  3

 72
    65
 73
     0
 40
0.0
  0
ENDTAB
  0
TABLE
  2
LAYER
 70
     1
  0
LAYER
  2
0
 70
     0
 62
     7
  6
CONTINUOUS
  0
ENDTAB
  0
TABLE
  2
STYLE
 70
     2
  0
STYLE
  2
STANDARD
 70
     0
 40
0.0
 41
1.0
 50
0.0
 71
     0
 42
0.2
  3
txt
  4

  0
STYLE
  2
ＭＳ_ゴシック
 70
     0
 40
0.0
 41
1.0
 50
0.0
 71
     0
 42
0.2
  3
ＭＳ ゴシック.shx
  4

  0
ENDTAB
  0
TABLE
  2
VIEW
 70
     0
  0
ENDTAB
  0
TABLE
  2
UCS
 70
     0
  0
ENDTAB
  0
ENDSEC
  0
SECTION
  2
BLOCKS
  0
BLOCK
  8
0
  2
D_FRAME_VIEW_20681
 70
     0
 10
0.0
 20
0.0
 30
0.0
  0
LINE
  5
76
  8
0
  6
CONTINUOUS
 62
     7
 10
-149.3730814753485
 20
106.3605870693503
 30
0.0
 11
-149.2679023328886
 21
118.4129230255933
 31
0.0
  0
LINE
  5
77
  8
0
  6
CONTINUOUS
 62
     7
 10
-124.2679023328886
 20
118.4129230255933
 30
0.0
 11
-149.2679023328886
 21
118.4129230255933
 31
0.0
  0
LINE
  5
78
  8
0
  6
CONTINUOUS
 62
     7
 10
-124.2679023328886
 20
118.4129230255933
 30
0.0
 11
-124.1627231904286
 21
106.3605870693503
 31
0.0
  0
LINE
  5
79
  8
0
  6
CONTINUOUS
 62
     7
 10
-138.3085615946604
 20
116.8867550474718
 30
0.0
 11
-137.7715180755465
 21
116.4129230255933
 31
0.0
  0
LINE
  5
7A
  8
0
  6
CONTINUOUS
 62
     7
 10
-135.2272430711167
 20
116.8867550474718
 30
0.0
 11
-135.7642865902306
 21
116.4129230255933
 31
0.0
  0
LINE
  5
7B
  8
0
  6
CONTINUOUS
 62
     7
 10
-135.7642865902306
 20
116.4129230255933
 30
0.0
 11
-135.8183086603495
 21
116.4129230255933
 31
0.0
  0
LINE
  5
7C
  8
0
  6
CONTINUOUS
 62
     7
 10
-135.8183086603495
 20
116.4129230255933
 30
0.0
 11
-137.717449729211
 21
116.4129230255933
 31
0.0
  0
LINE
  5
7D
  8
0
  6
CONTINUOUS
 62
     7
 10
-137.7174497292109
 20
116.4129230255933
 30
0.0
 11
-137.7715180755465
 21
116.4129230255933
 31
0.0
  0
LINE
  5
7E
  8
0
  6
CONTINUOUS
 62
     7
 10
-137.7715180755465
 20
116.4129230255933
 30
0.0
 11
-137.7679023328886
 21
116.4129230255933
 31
0.0
  0
LINE
  5
7F
  8
0
  6
CONTINUOUS
 62
     7
 10
-137.7679023328886
 20
116.4129230255933
 30
0.0
 11
-137.7679023328886
 21
106.3867550474719
 31
0.0
  0
LINE
  5
80
  8
0
  6
CONTINUOUS
 62
     7
 10
-135.7679023328886
 20
106.3867550474719
 30
0.0
 11
-135.7679023328886
 21
116.4129230255933
 31
0.0
  0
LINE
  5
81
  8
0
  6
CONTINUOUS
 62
     7
 10
-135.7679023328886
 20
116.4129230255933
 30
0.0
 11
-135.7642865902306
 21
116.4129230255933
 31
0.0
  0
LINE
  5
82
  8
0
  6
CONTINUOUS
 62
     7
 10
-137.7679023328886
 20
106.3867550474719
 30
0.0
 11
-137.7679023328886
 21
105.9129230255933
 31
0.0
  0
ARC
  5
83
  8
0
  6
CONTINUOUS
 62
     7
 10
-138.2679023328886
 20
105.9129230255933
 30
0.0
 40
0.5000000000000004
 50
269.9999999999998
 51
0.0
  0
LINE
  5
84
  8
0
  6
CONTINUOUS
 62
     7
 10
-149.3813516141684
 20
105.4129230255933
 30
0.0
 11
-149.3730814753485
 21
106.3605870693503
 31
0.0
  0
LINE
  5
85
  8
0
  6
CONTINUOUS
 62
     7
 10
-138.2679023328886
 20
105.4129230255933
 30
0.0
 11
-149.3813516141684
 21
105.4129230255933
 31
0.0
  0
LINE
  5
86
  8
0
  6
CONTINUOUS
 62
     7
 10
-124.1627231904286
 20
106.3605870693503
 30
0.0
 11
-124.1544530516087
 21
105.4129230255933
 31
0.0
  0
LINE
  5
87
  8
0
  6
CONTINUOUS
 62
     7
 10
-124.1544530516087
 20
105.4129230255933
 30
0.0
 11
-135.2679023328886
 21
105.4129230255933
 31
0.0
  0
LINE
  5
88
  8
0
  6
CONTINUOUS
 62
     7
 10
-135.7679023328886
 20
105.9129230255933
 30
0.0
 11
-135.7679023328886
 21
106.3867550474719
 31
0.0
  0
ARC
  5
89
  8
0
  6
CONTINUOUS
 62
     7
 10
-135.2679023328886
 20
105.9129230255933
 30
0.0
 40
0.5000000000000004
 50
180.0
 51
270.0
  0
LINE
  5
8A
  8
0
  6
CONTINUOUS
 62
     7
 10
-135.2679023328886
 20
105.4129230255933
 30
0.0
 11
-138.2679023328886
 21
105.4129230255933
 31
0.0
  0
LINE
  5
8B
  8
0
  6
CONTINUOUS
 62
     7
 10
-124.5257535004764
 20
97.40419649009492
 30
0.0
 11
-124.4882536794868
 21
105.4129230255933
 31
0.0
  0
LINE
  5
8C
  8
0
  6
CONTINUOUS
 62
     7
 10
-149.0100511653008
 20
97.40419649009492
 30
0.0
 11
-149.0475509862903
 21
105.4129230255933
 31
0.0
  0
LINE
  5
8D
  8
0
  6
CONTINUOUS
 62
     7
 10
-125.0754421385528
 20
96.4129230255933
 30
0.0
 11
-148.4603625272243
 21
96.4129230255933
 31
0.0
  0
ARC
  5
8E
  8
0
  6
CONTINUOUS
 62
     7
 10
-147.4418654054818
 20
97.38838339855631
 30
0.0
 40
1.56826548491092
 50
179.4222669769512
 51
203.9661727514818
  0
POLYLINE
  5
8F
  8
0
  6
CONTINUOUS
 62
     7
 66
     1
 10
0.0
 20
0.0
 30
0.0
  0
VERTEX
  5
182
  8
0
  6
CONTINUOUS
 62
     7
 10
-148.8749235629448
 20
96.75135832174087
 30
0.0
  0
VERTEX
  5
183
  8
0
  6
CONTINUOUS
 62
     7
 10
-148.8182508753926
 20
96.64944404941774
 30
0.0
  0
VERTEX
  5
184
  8
0
  6
CONTINUOUS
 62
     7
 10
-148.7433583637599
 20
96.55219993543793
 30
0.0
  0
VERTEX
  5
185
  8
0
  6
CONTINUOUS
 62
     7
 10
-148.6633910333051
 20
96.4815195506989
 30
0.0
  0
VERTEX
  5
186
  8
0
  6
CONTINUOUS
 62
     7
 10
-148.5550784373724
 20
96.42731151004676
 30
0.0
  0
VERTEX
  5
187
  8
0
  6
CONTINUOUS
 62
     7
 10
-148.4603625272243
 20
96.4129230255933
 30
0.0
  0
SEQEND
  5
4D9
  8
0
  6
CONTINUOUS
 62
     7
  0
POLYLINE
  5
90
  8
0
  6
CONTINUOUS
 62
     7
 66
     1
 10
0.0
 20
0.0
 30
0.0
  0
VERTEX
  5
188
  8
0
  6
CONTINUOUS
 62
     7
 10
-125.0754421385528
 20
96.4129230255933
 30
0.0
  0
VERTEX
  5
189
  8
0
  6
CONTINUOUS
 62
     7
 10
-124.9599480892083
 20
96.43443185991461
 30
0.0
  0
VERTEX
  5
18A
  8
0
  6
CONTINUOUS
 62
     7
 10
-124.8528394504679
 20
96.4961515203898
 30
0.0
  0
VERTEX
  5
18B
  8
0
  6
CONTINUOUS
 62
     7
 10
-124.7746171291232
 20
96.57225673329803
 30
0.0
  0
VERTEX
  5
18C
  8
0
  6
CONTINUOUS
 62
     7
 10
-124.7066244651903
 20
96.66684785368973
 30
0.0
  0
VERTEX
  5
18D
  8
0
  6
CONTINUOUS
 62
     7
 10
-124.6565267756512
 20
96.76055570726834
 30
0.0
  0
VERTEX
  5
18E
  8
0
  6
CONTINUOUS
 62
     7
 10
-124.6133102323504
 20
96.86665233127813
 30
0.0
  0
SEQEND
  5
4DA
  8
0
  6
CONTINUOUS
 62
     7
  0
ARC
  5
91
  8
0
  6
CONTINUOUS
 62
     7
 10
-126.1806201820124
 20
97.39784308896732
 30
0.0
 40
1.654878877550902
 50
341.2775157326623
 51
0.2199701557358935
  0
LINE
  5
92
  8
0
  6
CONTINUOUS
 62
     7
 10
-124.1544530516087
 20
105.4129230255933
 30
0.0
 11
-123.7904732044072
 21
105.4129230255933
 31
0.0
  0
POLYLINE
  5
93
  8
0
  6
CONTINUOUS
 62
     7
 66
     1
 10
0.0
 20
0.0
 30
0.0
  0
VERTEX
  5
18F
  8
0
  6
CONTINUOUS
 62
     7
 10
-123.2980693279011
 20
105.8260989367598
 30
0.0
  0
VERTEX
  5
190
  8
0
  6
CONTINUOUS
 62
     7
 10
-123.3030092483163
 20
105.8016625586151
 30
0.0
  0
VERTEX
  5
191
  8
0
  6
CONTINUOUS
 62
     7
 10
-123.3091610809322
 20
105.7775027915218
 30
0.0
  0
VERTEX
  5
192
  8
0
  6
CONTINUOUS
 62
     7
 10
-123.3165095313236
 20
105.7536797004675
 30
0.0
  0
VERTEX
  5
193
  8
0
  6
CONTINUOUS
 62
     7
 10
-123.3250363300851
 20
105.7302525134101
 30
0.0
  0
VERTEX
  5
194
  8
0
  6
CONTINUOUS
 62
     7
 10
-123.3347202782514
 20
105.707279474028
 30
0.0
  0
VERTEX
  5
195
  8
0
  6
CONTINUOUS
 62
     7
 10
-123.3455373000015
 20
105.6848176969167
 30
0.0
  0
VERTEX
  5
196
  8
0
  6
CONTINUOUS
 62
     7
 10
-123.357460502515
 20
105.6629230255933
 30
0.0
  0
VERTEX
  5
197
  8
0
  6
CONTINUOUS
 62
     7
 10
-123.3704602428318
 20
105.6416498936604
 30
0.0
  0
VERTEX
  5
198
  8
0
  6
CONTINUOUS
 62
     7
 10
-123.3845042015493
 20
105.6210511894759
 30
0.0
  0
VERTEX
  5
199
  8
0
  6
CONTINUOUS
 62
     7
 10
-123.3995574631732
 20
105.6011781246639
 30
0.0
  0
VERTEX
  5
19A
  8
0
  6
CONTINUOUS
 62
     7
 10
-123.4155826029233
 20
105.5820801067949
 30
0.0
  0
VERTEX
  5
19B
  8
0
  6
CONTINUOUS
 62
     7
 10
-123.4325397797773
 20
105.5638046165503
 30
0.0
  0
VERTEX
  5
19C
  8
0
  6
CONTINUOUS
 62
     7
 10
-123.4503868355217
 20
105.5463970896784
 30
0.0
  0
VERTEX
  5
19D
  8
0
  6
CONTINUOUS
 62
     7
 10
-123.4690793995639
 20
105.5299008040338
 30
0.0
  0
VERTEX
  5
19E
  8
0
  6
CONTINUOUS
 62
     7
 10
-123.4885709992445
 20
105.5143567719818
 30
0.0
  0
VERTEX
  5
19F
  8
0
  6
CONTINUOUS
 62
     7
 10
-123.5088131753754
 20
105.4998036384353
 30
0.0
  0
VERTEX
  5
1A0
  8
0
  6
CONTINUOUS
 62
     7
 10
-123.5297556027175
 20
105.4862775847772
 30
0.0
  0
VERTEX
  5
1A1
  8
0
  6
CONTINUOUS
 62
     7
 10
-123.5513462150965
 20
105.4738122389082
 30
0.0
  0
VERTEX
  5
1A2
  8
0
  6
CONTINUOUS
 62
     7
 10
-123.5735313348484
 20
105.4624385916421
 30
0.0
  0
VERTEX
  5
1A3
  8
0
  6
CONTINUOUS
 62
     7
 10
-123.5962558062699
 20
105.4521849196581
 30
0.0
  0
VERTEX
  5
1A4
  8
0
  6
CONTINUOUS
 62
     7
 10
-123.6194631327444
 20
105.4430767152003
 30
0.0
  0
VERTEX
  5
1A5
  8
0
  6
CONTINUOUS
 62
     7
 10
-123.6430956172018
 20
105.4351366227002
 30
0.0
  0
VERTEX
  5
1A6
  8
0
  6
CONTINUOUS
 62
     7
 10
-123.667094505562
 20
105.4283843824788
 30
0.0
  0
VERTEX
  5
1A7
  8
0
  6
CONTINUOUS
 62
     7
 10
-123.6914001328075
 20
105.422836781669
 30
0.0
  0
VERTEX
  5
1A8
  8
0
  6
CONTINUOUS
 62
     7
 10
-123.7159520713191
 20
105.4185076124807
 30
0.0
  0
VERTEX
  5
1A9
  8
0
  6
CONTINUOUS
 62
     7
 10
-123.7406892811093
 20
105.4154076379106
 30
0.0
  0
VERTEX
  5
1AA
  8
0
  6
CONTINUOUS
 62
     7
 10
-123.7655502615769
 20
105.4135445649838
 30
0.0
  0
VERTEX
  5
1AB
  8
0
  6
CONTINUOUS
 62
     7
 10
-123.7904732044072
 20
105.4129230255933
 30
0.0
  0
SEQEND
  5
4DB
  8
0
  6
CONTINUOUS
 62
     7
  0
LINE
  5
94
  8
0
  6
CONTINUOUS
 62
     7
 10
-123.2980693279011
 20
105.8260989367598
 30
0.0
 11
-121.7839805624424
 21
114.4129230255933
 31
0.0
  0
LINE
  5
95
  8
0
  6
CONTINUOUS
 62
     7
 10
-121.7839805624424
 20
114.4129230255933
 30
0.0
 11
-118.9407860491623
 21
114.4129230255933
 31
0.0
  0
LINE
  5
96
  8
0
  6
CONTINUOUS
 62
     7
 10
-118.9407860491623
 20
114.4129230255933
 30
0.0
 11
-116.9407860491623
 21
114.4129230255933
 31
0.0
  0
LINE
  5
97
  8
0
  6
CONTINUOUS
 62
     7
 10
-116.9407860491623
 20
114.4129230255933
 30
0.0
 11
-116.9407860491623
 21
113.9990728311373
 31
0.0
  0
ARC
  5
98
  8
0
  6
CONTINUOUS
 62
     7
 10
-119.9407860491623
 20
113.9990728311373
 30
0.0
 40
3.0
 50
320.1944289077347
 51
0.0
  0
LINE
  5
99
  8
0
  6
CONTINUOUS
 62
     7
 10
-119.1561356927201
 20
110.254503453324
 30
0.0
 11
-117.6361222103702
 21
112.0785196321439
 31
0.0
  0
ARC
  5
9A
  8
0
  6
CONTINUOUS
 62
     7
 10
-119.9243569723175
 20
110.8946878529885
 30
0.0
 40
1.0
 50
280.9585915419877
 51
320.1944289077351
  0
LINE
  5
9B
  8
0
  6
CONTINUOUS
 62
     7
 10
-119.7342574623504
 20
109.9129230255933
 30
0.0
 11
-121.9398834448627
 21
97.40419649009493
 31
0.0
  0
ARC
  5
9C
  8
0
  6
CONTINUOUS
 62
     7
 10
-153.6114476934597
 20
110.8946878529885
 30
0.0
 40
1.0
 50
219.8055710922651
 51
259.0414084580123
  0
LINE
  5
9D
  8
0
  6
CONTINUOUS
 62
     7
 10
-154.3796689730571
 20
110.254503453324
 30
0.0
 11
-155.8996824554069
 21
112.0785196321439
 31
0.0
  0
ARC
  5
9E
  8
0
  6
CONTINUOUS
 62
     7
 10
-153.5950186166148
 20
113.9990728311373
 30
0.0
 40
3.0
 50
180.0
 51
219.8055710922654
  0
LINE
  5
9F
  8
0
  6
CONTINUOUS
 62
     7
 10
-154.5950186166149
 20
114.4129230255933
 30
0.0
 11
-156.5950186166149
 21
114.4129230255933
 31
0.0
  0
LINE
  5
A0
  8
0
  6
CONTINUOUS
 62
     7
 10
-154.5950186166149
 20
114.4129230255933
 30
0.0
 11
-151.7518241033348
 21
114.4129230255933
 31
0.0
  0
LINE
  5
A1
  8
0
  6
CONTINUOUS
 62
     7
 10
-150.237735337876
 20
105.8260989367598
 30
0.0
 11
-151.7518241033348
 21
114.4129230255933
 31
0.0
  0
POLYLINE
  5
A2
  8
0
  6
CONTINUOUS
 62
     7
 66
     1
 10
0.0
 20
0.0
 30
0.0
  0
VERTEX
  5
1AC
  8
0
  6
CONTINUOUS
 62
     7
 10
-149.7453314613699
 20
105.4129230255933
 30
0.0
  0
VERTEX
  5
1AD
  8
0
  6
CONTINUOUS
 62
     7
 10
-149.7702544042003
 20
105.4135445649838
 30
0.0
  0
VERTEX
  5
1AE
  8
0
  6
CONTINUOUS
 62
     7
 10
-149.7951153846678
 20
105.4154076379106
 30
0.0
  0
VERTEX
  5
1AF
  8
0
  6
CONTINUOUS
 62
     7
 10
-149.819852594458
 20
105.4185076124807
 30
0.0
  0
VERTEX
  5
1B0
  8
0
  6
CONTINUOUS
 62
     7
 10
-149.8444045329697
 20
105.422836781669
 30
0.0
  0
VERTEX
  5
1B1
  8
0
  6
CONTINUOUS
 62
     7
 10
-149.8687101602151
 20
105.4283843824788
 30
0.0
  0
VERTEX
  5
1B2
  8
0
  6
CONTINUOUS
 62
     7
 10
-149.8927090485754
 20
105.4351366227002
 30
0.0
  0
VERTEX
  5
1B3
  8
0
  6
CONTINUOUS
 62
     7
 10
-149.9163415330328
 20
105.4430767152003
 30
0.0
  0
VERTEX
  5
1B4
  8
0
  6
CONTINUOUS
 62
     7
 10
-149.9395488595073
 20
105.4521849196581
 30
0.0
  0
VERTEX
  5
1B5
  8
0
  6
CONTINUOUS
 62
     7
 10
-149.9622733309287
 20
105.4624385916421
 30
0.0
  0
VERTEX
  5
1B6
  8
0
  6
CONTINUOUS
 62
     7
 10
-149.9844584506806
 20
105.4738122389082
 30
0.0
  0
VERTEX
  5
1B7
  8
0
  6
CONTINUOUS
 62
     7
 10
-150.0060490630597
 20
105.4862775847772
 30
0.0
  0
VERTEX
  5
1B8
  8
0
  6
CONTINUOUS
 62
     7
 10
-150.0269914904017
 20
105.4998036384353
 30
0.0
  0
VERTEX
  5
1B9
  8
0
  6
CONTINUOUS
 62
     7
 10
-150.0472336665327
 20
105.5143567719818
 30
0.0
  0
VERTEX
  5
1BA
  8
0
  6
CONTINUOUS
 62
     7
 10
-150.0667252662132
 20
105.5299008040338
 30
0.0
  0
VERTEX
  5
1BB
  8
0
  6
CONTINUOUS
 62
     7
 10
-150.0854178302554
 20
105.5463970896784
 30
0.0
  0
VERTEX
  5
1BC
  8
0
  6
CONTINUOUS
 62
     7
 10
-150.1032648859998
 20
105.5638046165503
 30
0.0
  0
VERTEX
  5
1BD
  8
0
  6
CONTINUOUS
 62
     7
 10
-150.1202220628538
 20
105.5820801067949
 30
0.0
  0
VERTEX
  5
1BE
  8
0
  6
CONTINUOUS
 62
     7
 10
-150.136247202604
 20
105.6011781246639
 30
0.0
  0
VERTEX
  5
1BF
  8
0
  6
CONTINUOUS
 62
     7
 10
-150.1513004642279
 20
105.6210511894759
 30
0.0
  0
VERTEX
  5
1C0
  8
0
  6
CONTINUOUS
 62
     7
 10
-150.1653444229453
 20
105.6416498936604
 30
0.0
  0
VERTEX
  5
1C1
  8
0
  6
CONTINUOUS
 62
     7
 10
-150.1783441632622
 20
105.6629230255933
 30
0.0
  0
VERTEX
  5
1C2
  8
0
  6
CONTINUOUS
 62
     7
 10
-150.1902673657757
 20
105.6848176969167
 30
0.0
  0
VERTEX
  5
1C3
  8
0
  6
CONTINUOUS
 62
     7
 10
-150.2010843875258
 20
105.707279474028
 30
0.0
  0
VERTEX
  5
1C4
  8
0
  6
CONTINUOUS
 62
     7
 10
-150.210768335692
 20
105.7302525134101
 30
0.0
  0
VERTEX
  5
1C5
  8
0
  6
CONTINUOUS
 62
     7
 10
-150.2192951344535
 20
105.7536797004675
 30
0.0
  0
VERTEX
  5
1C6
  8
0
  6
CONTINUOUS
 62
     7
 10
-150.2266435848449
 20
105.7775027915218
 30
0.0
  0
VERTEX
  5
1C7
  8
0
  6
CONTINUOUS
 62
     7
 10
-150.2327954174608
 20
105.8016625586151
 30
0.0
  0
VERTEX
  5
1C8
  8
0
  6
CONTINUOUS
 62
     7
 10
-150.237735337876
 20
105.8260989367598
 30
0.0
  0
SEQEND
  5
4DC
  8
0
  6
CONTINUOUS
 62
     7
  0
LINE
  5
A3
  8
0
  6
CONTINUOUS
 62
     7
 10
-149.3813516141684
 20
105.4129230255933
 30
0.0
 11
-149.7453314613699
 21
105.4129230255933
 31
0.0
  0
LINE
  5
A4
  8
0
  6
CONTINUOUS
 62
     7
 10
-153.8015472034267
 20
109.9129230255933
 30
0.0
 11
-151.5959212209145
 21
97.40419649009492
 31
0.0
  0
LINE
  5
A5
  8
0
  6
CONTINUOUS
 62
     7
 10
-156.5950186166148
 20
114.4129230255933
 30
0.0
 11
-156.5950186166148
 21
113.9990728311373
 31
0.0
  0
LINE
  5
A6
  8
0
  6
CONTINUOUS
 62
     7
 10
-121.7839805624424
 20
114.4129230255933
 30
0.0
 11
-121.7533984475139
 21
117.9172862933425
 31
0.0
  0
LINE
  5
A7
  8
0
  6
CONTINUOUS
 62
     7
 10
-118.9713681640908
 20
117.9172862933425
 30
0.0
 11
-118.9407860491623
 21
114.4129230255933
 31
0.0
  0
LINE
  5
A8
  8
0
  6
CONTINUOUS
 62
     7
 10
-154.5644365016864
 20
117.9172862933425
 30
0.0
 11
-154.5950186166149
 21
114.4129230255933
 31
0.0
  0
LINE
  5
A9
  8
0
  6
CONTINUOUS
 62
     7
 10
-151.7518241033348
 20
114.4129230255933
 30
0.0
 11
-151.7824062182632
 21
117.9172862933425
 31
0.0
  0
LINE
  5
AA
  8
0
  6
CONTINUOUS
 62
     7
 10
-121.2534174859818
 20
118.4129230255933
 30
0.0
 11
-119.4713491256228
 21
118.4129230255933
 31
0.0
  0
POLYLINE
  5
AB
  8
0
  6
CONTINUOUS
 62
     7
 66
     1
 10
0.0
 20
0.0
 30
0.0
  0
VERTEX
  5
1C9
  8
0
  6
CONTINUOUS
 62
     7
 10
-121.2534174859818
 20
118.4129230255933
 30
0.0
  0
VERTEX
  5
1CA
  8
0
  6
CONTINUOUS
 62
     7
 10
-121.2778151326313
 20
118.412327425692
 30
0.0
  0
VERTEX
  5
1CB
  8
0
  6
CONTINUOUS
 62
     7
 10
-121.302154654337
 20
118.4105420449452
 30
0.0
  0
VERTEX
  5
1CC
  8
0
  6
CONTINUOUS
 62
     7
 10
-121.3263780646321
 20
118.4075711368431
 30
0.0
  0
VERTEX
  5
1CD
  8
0
  6
CONTINUOUS
 62
     7
 10
-121.3504276536735
 20
118.4034217792762
 30
0.0
  0
VERTEX
  5
1CE
  8
0
  6
CONTINUOUS
 62
     7
 10
-121.3742461257296
 20
118.3981038576721
 30
0.0
  0
VERTEX
  5
1CF
  8
0
  6
CONTINUOUS
 62
     7
 10
-121.3977767356821
 20
118.3916300414453
 30
0.0
  0
VERTEX
  5
1D0
  8
0
  6
CONTINUOUS
 62
     7
 10
-121.4209634242151
 20
118.384015753813
 30
0.0
  0
VERTEX
  5
1D1
  8
0
  6
CONTINUOUS
 62
     7
 10
-121.4437509513711
 20
118.375279135051
 30
0.0
  0
VERTEX
  5
1D2
  8
0
  6
CONTINUOUS
 62
     7
 10
-121.4660850281543
 20
118.3654409992765
 30
0.0
  0
VERTEX
  5
1D3
  8
0
  6
CONTINUOUS
 62
     7
 10
-121.4879124458689
 20
118.3545247848601
 30
0.0
  0
VERTEX
  5
1D4
  8
0
  6
CONTINUOUS
 62
     7
 10
-121.5091812028838
 20
118.3425564985868
 30
0.0
  0
VERTEX
  5
1D5
  8
0
  6
CONTINUOUS
 62
     7
 10
-121.5298406285205
 20
118.3295646536972
 30
0.0
  0
VERTEX
  5
1D6
  8
0
  6
CONTINUOUS
 62
     7
 10
-121.5498415037715
 20
118.3155802019573
 30
0.0
  0
VERTEX
  5
1D7
  8
0
  6
CONTINUOUS
 62
     7
 10
-121.5691361785597
 20
118.3006364599194
 30
0.0
  0
VERTEX
  5
1D8
  8
0
  6
CONTINUOUS
 62
     7
 10
-121.5876786852593
 20
118.2847690295487
 30
0.0
  0
VERTEX
  5
1D9
  8
0
  6
CONTINUOUS
 62
     7
 10
-121.6054248482098
 20
118.2680157134049
 30
0.0
  0
VERTEX
  5
1DA
  8
0
  6
CONTINUOUS
 62
     7
 10
-121.6223323889595
 20
118.250416424582
 30
0.0
  0
VERTEX
  5
1DB
  8
0
  6
CONTINUOUS
 62
     7
 10
-121.63836102699
 20
118.2320130916186
 30
0.0
  0
VERTEX
  5
1DC
  8
0
  6
CONTINUOUS
 62
     7
 10
-121.6534725756805
 20
118.212849558608
 30
0.0
  0
VERTEX
  5
1DD
  8
0
  6
CONTINUOUS
 62
     7
 10
-121.6676310332832
 20
118.1929714807435
 30
0.0
  0
VERTEX
  5
1DE
  8
0
  6
CONTINUOUS
 62
     7
 10
-121.6808026686944
 20
118.17242621555
 30
0.0
  0
VERTEX
  5
1DF
  8
0
  6
CONTINUOUS
 62
     7
 10
-121.6929561018151
 20
118.1512627100593
 30
0.0
  0
VERTEX
  5
1E0
  8
0
  6
CONTINUOUS
 62
     7
 10
-121.704062378311
 20
118.1295313841984
 30
0.0
  0
VERTEX
  5
1E1
  8
0
  6
CONTINUOUS
 62
     7
 10
-121.7140950385934
 20
118.1072840106695
 30
0.0
  0
VERTEX
  5
1E2
  8
0
  6
CONTINUOUS
 62
     7
 10
-121.7230301808564
 20
118.0845735916065
 30
0.0
  0
VERTEX
  5
1E3
  8
0
  6
CONTINUOUS
 62
     7
 10
-121.7308465180205
 20
118.0614542323029
 30
0.0
  0
VERTEX
  5
1E4
  8
0
  6
CONTINUOUS
 62
     7
 10
-121.7375254284472
 20
118.037981012311
 30
0.0
  0
VERTEX
  5
1E5
  8
0
  6
CONTINUOUS
 62
     7
 10
-121.743051000303
 20
118.014209854221
 30
0.0
  0
VERTEX
  5
1E6
  8
0
  6
CONTINUOUS
 62
     7
 10
-121.7474100694677
 20
117.9901973904304
 30
0.0
  0
VERTEX
  5
1E7
  8
0
  6
CONTINUOUS
 62
     7
 10
-121.7505922508965
 20
117.9660008282235
 30
0.0
  0
VERTEX
  5
1E8
  8
0
  6
CONTINUOUS
 62
     7
 10
-121.7525899633617
 20
117.9416778134807
 30
0.0
  0
VERTEX
  5
1E9
  8
0
  6
CONTINUOUS
 62
     7
 10
-121.7533984475139
 20
117.9172862933425
 30
0.0
  0
SEQEND
  5
4DD
  8
0
  6
CONTINUOUS
 62
     7
  0
POLYLINE
  5
AC
  8
0
  6
CONTINUOUS
 62
     7
 66
     1
 10
0.0
 20
0.0
 30
0.0
  0
VERTEX
  5
1EA
  8
0
  6
CONTINUOUS
 62
     7
 10
-119.4713491256228
 20
118.4129230255933
 30
0.0
  0
VERTEX
  5
1EB
  8
0
  6
CONTINUOUS
 62
     7
 10
-119.4469514789733
 20
118.412327425692
 30
0.0
  0
VERTEX
  5
1EC
  8
0
  6
CONTINUOUS
 62
     7
 10
-119.4226119572676
 20
118.4105420449452
 30
0.0
  0
VERTEX
  5
1ED
  8
0
  6
CONTINUOUS
 62
     7
 10
-119.3983885469725
 20
118.4075711368431
 30
0.0
  0
VERTEX
  5
1EE
  8
0
  6
CONTINUOUS
 62
     7
 10
-119.3743389579312
 20
118.4034217792762
 30
0.0
  0
VERTEX
  5
1EF
  8
0
  6
CONTINUOUS
 62
     7
 10
-119.3505204858751
 20
118.3981038576721
 30
0.0
  0
VERTEX
  5
1F0
  8
0
  6
CONTINUOUS
 62
     7
 10
-119.3269898759225
 20
118.3916300414453
 30
0.0
  0
VERTEX
  5
1F1
  8
0
  6
CONTINUOUS
 62
     7
 10
-119.3038031873895
 20
118.384015753813
 30
0.0
  0
VERTEX
  5
1F2
  8
0
  6
CONTINUOUS
 62
     7
 10
-119.2810156602335
 20
118.375279135051
 30
0.0
  0
VERTEX
  5
1F3
  8
0
  6
CONTINUOUS
 62
     7
 10
-119.2586815834504
 20
118.3654409992765
 30
0.0
  0
VERTEX
  5
1F4
  8
0
  6
CONTINUOUS
 62
     7
 10
-119.2368541657357
 20
118.3545247848601
 30
0.0
  0
VERTEX
  5
1F5
  8
0
  6
CONTINUOUS
 62
     7
 10
-119.2155854087209
 20
118.3425564985868
 30
0.0
  0
VERTEX
  5
1F6
  8
0
  6
CONTINUOUS
 62
     7
 10
-119.1949259830842
 20
118.3295646536972
 30
0.0
  0
VERTEX
  5
1F7
  8
0
  6
CONTINUOUS
 62
     7
 10
-119.1749251078331
 20
118.3155802019573
 30
0.0
  0
VERTEX
  5
1F8
  8
0
  6
CONTINUOUS
 62
     7
 10
-119.1556304330449
 20
118.3006364599194
 30
0.0
  0
VERTEX
  5
1F9
  8
0
  6
CONTINUOUS
 62
     7
 10
-119.1370879263453
 20
118.2847690295487
 30
0.0
  0
VERTEX
  5
1FA
  8
0
  6
CONTINUOUS
 62
     7
 10
-119.1193417633948
 20
118.2680157134049
 30
0.0
  0
VERTEX
  5
1FB
  8
0
  6
CONTINUOUS
 62
     7
 10
-119.1024342226451
 20
118.250416424582
 30
0.0
  0
VERTEX
  5
1FC
  8
0
  6
CONTINUOUS
 62
     7
 10
-119.0864055846146
 20
118.2320130916186
 30
0.0
  0
VERTEX
  5
1FD
  8
0
  6
CONTINUOUS
 62
     7
 10
-119.0712940359241
 20
118.212849558608
 30
0.0
  0
VERTEX
  5
1FE
  8
0
  6
CONTINUOUS
 62
     7
 10
-119.0571355783214
 20
118.1929714807435
 30
0.0
  0
VERTEX
  5
1FF
  8
0
  6
CONTINUOUS
 62
     7
 10
-119.0439639429102
 20
118.17242621555
 30
0.0
  0
VERTEX
  5
200
  8
0
  6
CONTINUOUS
 62
     7
 10
-119.0318105097895
 20
118.1512627100593
 30
0.0
  0
VERTEX
  5
201
  8
0
  6
CONTINUOUS
 62
     7
 10
-119.0207042332936
 20
118.1295313841984
 30
0.0
  0
VERTEX
  5
202
  8
0
  6
CONTINUOUS
 62
     7
 10
-119.0106715730112
 20
118.1072840106695
 30
0.0
  0
VERTEX
  5
203
  8
0
  6
CONTINUOUS
 62
     7
 10
-119.0017364307483
 20
118.0845735916065
 30
0.0
  0
VERTEX
  5
204
  8
0
  6
CONTINUOUS
 62
     7
 10
-118.9939200935841
 20
118.0614542323029
 30
0.0
  0
VERTEX
  5
205
  8
0
  6
CONTINUOUS
 62
     7
 10
-118.9872411831574
 20
118.037981012311
 30
0.0
  0
VERTEX
  5
206
  8
0
  6
CONTINUOUS
 62
     7
 10
-118.9817156113016
 20
118.014209854221
 30
0.0
  0
VERTEX
  5
207
  8
0
  6
CONTINUOUS
 62
     7
 10
-118.977356542137
 20
117.9901973904304
 30
0.0
  0
VERTEX
  5
208
  8
0
  6
CONTINUOUS
 62
     7
 10
-118.9741743607082
 20
117.9660008282235
 30
0.0
  0
VERTEX
  5
209
  8
0
  6
CONTINUOUS
 62
     7
 10
-118.972176648243
 20
117.9416778134807
 30
0.0
  0
VERTEX
  5
20A
  8
0
  6
CONTINUOUS
 62
     7
 10
-118.9713681640907
 20
117.9172862933425
 30
0.0
  0
SEQEND
  5
4DE
  8
0
  6
CONTINUOUS
 62
     7
  0
LINE
  5
AD
  8
0
  6
CONTINUOUS
 62
     7
 10
-154.0644555401543
 20
118.4129230255933
 30
0.0
 11
-152.2823871797953
 21
118.4129230255933
 31
0.0
  0
POLYLINE
  5
AE
  8
0
  6
CONTINUOUS
 62
     7
 66
     1
 10
0.0
 20
0.0
 30
0.0
  0
VERTEX
  5
20B
  8
0
  6
CONTINUOUS
 62
     7
 10
-151.7824062182632
 20
117.9172862933425
 30
0.0
  0
VERTEX
  5
20C
  8
0
  6
CONTINUOUS
 62
     7
 10
-151.7832147024154
 20
117.9416778134807
 30
0.0
  0
VERTEX
  5
20D
  8
0
  6
CONTINUOUS
 62
     7
 10
-151.7852124148806
 20
117.9660008282235
 30
0.0
  0
VERTEX
  5
20E
  8
0
  6
CONTINUOUS
 62
     7
 10
-151.7883945963094
 20
117.9901973904304
 30
0.0
  0
VERTEX
  5
20F
  8
0
  6
CONTINUOUS
 62
     7
 10
-151.7927536654741
 20
118.014209854221
 30
0.0
  0
VERTEX
  5
210
  8
0
  6
CONTINUOUS
 62
     7
 10
-151.7982792373299
 20
118.037981012311
 30
0.0
  0
VERTEX
  5
211
  8
0
  6
CONTINUOUS
 62
     7
 10
-151.8049581477566
 20
118.0614542323029
 30
0.0
  0
VERTEX
  5
212
  8
0
  6
CONTINUOUS
 62
     7
 10
-151.8127744849207
 20
118.0845735916065
 30
0.0
  0
VERTEX
  5
213
  8
0
  6
CONTINUOUS
 62
     7
 10
-151.8217096271837
 20
118.1072840106695
 30
0.0
  0
VERTEX
  5
214
  8
0
  6
CONTINUOUS
 62
     7
 10
-151.8317422874661
 20
118.1295313841984
 30
0.0
  0
VERTEX
  5
215
  8
0
  6
CONTINUOUS
 62
     7
 10
-151.842848563962
 20
118.1512627100593
 30
0.0
  0
VERTEX
  5
216
  8
0
  6
CONTINUOUS
 62
     7
 10
-151.8550019970827
 20
118.17242621555
 30
0.0
  0
VERTEX
  5
217
  8
0
  6
CONTINUOUS
 62
     7
 10
-151.8681736324939
 20
118.1929714807435
 30
0.0
  0
VERTEX
  5
218
  8
0
  6
CONTINUOUS
 62
     7
 10
-151.8823320900966
 20
118.2128495586079
 30
0.0
  0
VERTEX
  5
219
  8
0
  6
CONTINUOUS
 62
     7
 10
-151.8974436387871
 20
118.2320130916186
 30
0.0
  0
VERTEX
  5
21A
  8
0
  6
CONTINUOUS
 62
     7
 10
-151.9134722768176
 20
118.250416424582
 30
0.0
  0
VERTEX
  5
21B
  8
0
  6
CONTINUOUS
 62
     7
 10
-151.9303798175673
 20
118.2680157134049
 30
0.0
  0
VERTEX
  5
21C
  8
0
  6
CONTINUOUS
 62
     7
 10
-151.9481259805178
 20
118.2847690295487
 30
0.0
  0
VERTEX
  5
21D
  8
0
  6
CONTINUOUS
 62
     7
 10
-151.9666684872174
 20
118.3006364599194
 30
0.0
  0
VERTEX
  5
21E
  8
0
  6
CONTINUOUS
 62
     7
 10
-151.9859631620055
 20
118.3155802019573
 30
0.0
  0
VERTEX
  5
21F
  8
0
  6
CONTINUOUS
 62
     7
 10
-152.0059640372566
 20
118.3295646536972
 30
0.0
  0
VERTEX
  5
220
  8
0
  6
CONTINUOUS
 62
     7
 10
-152.0266234628933
 20
118.3425564985868
 30
0.0
  0
VERTEX
  5
221
  8
0
  6
CONTINUOUS
 62
     7
 10
-152.0478922199082
 20
118.3545247848601
 30
0.0
  0
VERTEX
  5
222
  8
0
  6
CONTINUOUS
 62
     7
 10
-152.0697196376228
 20
118.3654409992765
 30
0.0
  0
VERTEX
  5
223
  8
0
  6
CONTINUOUS
 62
     7
 10
-152.092053714406
 20
118.375279135051
 30
0.0
  0
VERTEX
  5
224
  8
0
  6
CONTINUOUS
 62
     7
 10
-152.114841241562
 20
118.384015753813
 30
0.0
  0
VERTEX
  5
225
  8
0
  6
CONTINUOUS
 62
     7
 10
-152.138027930095
 20
118.3916300414453
 30
0.0
  0
VERTEX
  5
226
  8
0
  6
CONTINUOUS
 62
     7
 10
-152.1615585400475
 20
118.3981038576721
 30
0.0
  0
VERTEX
  5
227
  8
0
  6
CONTINUOUS
 62
     7
 10
-152.1853770121036
 20
118.4034217792762
 30
0.0
  0
VERTEX
  5
228
  8
0
  6
CONTINUOUS
 62
     7
 10
-152.209426601145
 20
118.4075711368431
 30
0.0
  0
VERTEX
  5
229
  8
0
  6
CONTINUOUS
 62
     7
 10
-152.2336500114401
 20
118.4105420449452
 30
0.0
  0
VERTEX
  5
22A
  8
0
  6
CONTINUOUS
 62
     7
 10
-152.2579895331458
 20
118.412327425692
 30
0.0
  0
VERTEX
  5
22B
  8
0
  6
CONTINUOUS
 62
     7
 10
-152.2823871797953
 20
118.4129230255933
 30
0.0
  0
SEQEND
  5
4DF
  8
0
  6
CONTINUOUS
 62
     7
  0
POLYLINE
  5
AF
  8
0
  6
CONTINUOUS
 62
     7
 66
     1
 10
0.0
 20
0.0
 30
0.0
  0
VERTEX
  5
22C
  8
0
  6
CONTINUOUS
 62
     7
 10
-154.5644365016864
 20
117.9172862933425
 30
0.0
  0
VERTEX
  5
22D
  8
0
  6
CONTINUOUS
 62
     7
 10
-154.5636280175341
 20
117.9416778134807
 30
0.0
  0
VERTEX
  5
22E
  8
0
  6
CONTINUOUS
 62
     7
 10
-154.5616303050689
 20
117.9660008282235
 30
0.0
  0
VERTEX
  5
22F
  8
0
  6
CONTINUOUS
 62
     7
 10
-154.5584481236401
 20
117.9901973904304
 30
0.0
  0
VERTEX
  5
230
  8
0
  6
CONTINUOUS
 62
     7
 10
-154.5540890544755
 20
118.014209854221
 30
0.0
  0
VERTEX
  5
231
  8
0
  6
CONTINUOUS
 62
     7
 10
-154.5485634826197
 20
118.037981012311
 30
0.0
  0
VERTEX
  5
232
  8
0
  6
CONTINUOUS
 62
     7
 10
-154.541884572193
 20
118.0614542323029
 30
0.0
  0
VERTEX
  5
233
  8
0
  6
CONTINUOUS
 62
     7
 10
-154.5340682350289
 20
118.0845735916065
 30
0.0
  0
VERTEX
  5
234
  8
0
  6
CONTINUOUS
 62
     7
 10
-154.5251330927659
 20
118.1072840106695
 30
0.0
  0
VERTEX
  5
235
  8
0
  6
CONTINUOUS
 62
     7
 10
-154.5151004324835
 20
118.1295313841984
 30
0.0
  0
VERTEX
  5
236
  8
0
  6
CONTINUOUS
 62
     7
 10
-154.5039941559876
 20
118.1512627100593
 30
0.0
  0
VERTEX
  5
237
  8
0
  6
CONTINUOUS
 62
     7
 10
-154.4918407228669
 20
118.17242621555
 30
0.0
  0
VERTEX
  5
238
  8
0
  6
CONTINUOUS
 62
     7
 10
-154.4786690874557
 20
118.1929714807435
 30
0.0
  0
VERTEX
  5
239
  8
0
  6
CONTINUOUS
 62
     7
 10
-154.464510629853
 20
118.212849558608
 30
0.0
  0
VERTEX
  5
23A
  8
0
  6
CONTINUOUS
 62
     7
 10
-154.4493990811625
 20
118.2320130916186
 30
0.0
  0
VERTEX
  5
23B
  8
0
  6
CONTINUOUS
 62
     7
 10
-154.433370443132
 20
118.250416424582
 30
0.0
  0
VERTEX
  5
23C
  8
0
  6
CONTINUOUS
 62
     7
 10
-154.4164629023822
 20
118.2680157134049
 30
0.0
  0
VERTEX
  5
23D
  8
0
  6
CONTINUOUS
 62
     7
 10
-154.3987167394318
 20
118.2847690295487
 30
0.0
  0
VERTEX
  5
23E
  8
0
  6
CONTINUOUS
 62
     7
 10
-154.3801742327322
 20
118.3006364599194
 30
0.0
  0
VERTEX
  5
23F
  8
0
  6
CONTINUOUS
 62
     7
 10
-154.360879557944
 20
118.3155802019573
 30
0.0
  0
VERTEX
  5
240
  8
0
  6
CONTINUOUS
 62
     7
 10
-154.3408786826929
 20
118.3295646536972
 30
0.0
  0
VERTEX
  5
241
  8
0
  6
CONTINUOUS
 62
     7
 10
-154.3202192570562
 20
118.3425564985868
 30
0.0
  0
VERTEX
  5
242
  8
0
  6
CONTINUOUS
 62
     7
 10
-154.2989505000414
 20
118.3545247848601
 30
0.0
  0
VERTEX
  5
243
  8
0
  6
CONTINUOUS
 62
     7
 10
-154.2771230823267
 20
118.3654409992765
 30
0.0
  0
VERTEX
  5
244
  8
0
  6
CONTINUOUS
 62
     7
 10
-154.2547890055436
 20
118.375279135051
 30
0.0
  0
VERTEX
  5
245
  8
0
  6
CONTINUOUS
 62
     7
 10
-154.2320014783876
 20
118.384015753813
 30
0.0
  0
VERTEX
  5
246
  8
0
  6
CONTINUOUS
 62
     7
 10
-154.2088147898546
 20
118.3916300414453
 30
0.0
  0
VERTEX
  5
247
  8
0
  6
CONTINUOUS
 62
     7
 10
-154.1852841799021
 20
118.3981038576721
 30
0.0
  0
VERTEX
  5
248
  8
0
  6
CONTINUOUS
 62
     7
 10
-154.1614657078459
 20
118.4034217792762
 30
0.0
  0
VERTEX
  5
249
  8
0
  6
CONTINUOUS
 62
     7
 10
-154.1374161188046
 20
118.4075711368431
 30
0.0
  0
VERTEX
  5
24A
  8
0
  6
CONTINUOUS
 62
     7
 10
-154.1131927085095
 20
118.4105420449452
 30
0.0
  0
VERTEX
  5
24B
  8
0
  6
CONTINUOUS
 62
     7
 10
-154.0888531868038
 20
118.412327425692
 30
0.0
  0
VERTEX
  5
24C
  8
0
  6
CONTINUOUS
 62
     7
 10
-154.0644555401543
 20
118.4129230255933
 30
0.0
  0
SEQEND
  5
4E0
  8
0
  6
CONTINUOUS
 62
     7
  0
LINE
  5
B0
  8
0
  6
CONTINUOUS
 62
     7
 10
-151.4211329638625
 20
96.4129230255933
 30
0.0
 11
-151.5959212209145
 21
97.40419649009493
 31
0.0
  0
LINE
  5
B1
  8
0
  6
CONTINUOUS
 62
     7
 10
-148.4603625272243
 20
96.4129230255933
 30
0.0
 11
-151.4211329638624
 21
96.41292302559329
 31
0.0
  0
LINE
  5
B2
  8
0
  6
CONTINUOUS
 62
     7
 10
-121.9398834448627
 20
97.40419649009493
 30
0.0
 11
-122.1146717019147
 21
96.4129230255933
 31
0.0
  0
LINE
  5
B3
  8
0
  6
CONTINUOUS
 62
     7
 10
-122.1146717019147
 20
96.41292302559329
 30
0.0
 11
-125.0754421385528
 21
96.4129230255933
 31
0.0
  0
ARC
  5
B4
  8
0
  6
CONTINUOUS
 62
     7
 10
-136.7679023328886
 20
95.9129230255933
 30
0.0
 40
0.5000000000000004
 50
179.9999999999998
 51
269.9999999999998
  0
LINE
  5
B5
  8
0
  6
CONTINUOUS
 62
     7
 10
-137.2679023328886
 20
95.9129230255933
 30
0.0
 11
-137.2679023328886
 21
96.4129230255933
 31
0.0
  0
ARC
  5
B6
  8
0
  6
CONTINUOUS
 62
     7
 10
-136.7679023328886
 20
95.9129230255933
 30
0.0
 40
0.5000000000000004
 50
270.0
 51
0.0
  0
LINE
  5
B7
  8
0
  6
CONTINUOUS
 62
     7
 10
-136.2679023328886
 20
96.4129230255933
 30
0.0
 11
-136.2679023328886
 21
95.9129230255933
 31
0.0
  0
LINE
  5
B8
  8
0
  6
CONTINUOUS
 62
     7
 10
-140.6650166499185
 20
95.4129230255933
 30
0.0
 11
-141.0980293518108
 21
95.4129230255933
 31
0.0
  0
LINE
  5
B9
  8
0
  6
CONTINUOUS
 62
     7
 10
-132.4377753139664
 20
95.4129230255933
 30
0.0
 11
-132.8707880158586
 21
95.4129230255933
 31
0.0
  0
POLYLINE
  5
BA
  8
0
  6
CONTINUOUS
 62
     7
 66
     1
 10
0.0
 20
0.0
 30
0.0
  0
VERTEX
  5
24D
  8
0
  6
CONTINUOUS
 62
     7
 10
-140.6650166499185
 20
95.4129230255933
 30
0.0
  0
VERTEX
  5
24E
  8
0
  6
CONTINUOUS
 62
     7
 10
-140.5333804012519
 20
95.4228753231194
 30
0.0
  0
VERTEX
  5
24F
  8
0
  6
CONTINUOUS
 62
     7
 10
-140.4021197273423
 20
95.45324610936144
 30
0.0
  0
VERTEX
  5
250
  8
0
  6
CONTINUOUS
 62
     7
 10
-140.2758772659922
 20
95.50364615242428
 30
0.0
  0
VERTEX
  5
251
  8
0
  6
CONTINUOUS
 62
     7
 10
-140.1570067784643
 20
95.57351136979716
 30
0.0
  0
VERTEX
  5
252
  8
0
  6
CONTINUOUS
 62
     7
 10
-140.047973857903
 20
95.66199509996709
 30
0.0
  0
VERTEX
  5
253
  8
0
  6
CONTINUOUS
 62
     7
 10
-139.9513437971669
 20
95.76781584719899
 30
0.0
  0
VERTEX
  5
254
  8
0
  6
CONTINUOUS
 62
     7
 10
-139.869681176244
 20
95.8891131254133
 30
0.0
  0
SEQEND
  5
4E1
  8
0
  6
CONTINUOUS
 62
     7
  0
ARC
  5
BB
  8
0
  6
CONTINUOUS
 62
     7
 10
-140.7877455341554
 20
96.41041383274433
 30
0.0
 40
1.055744567938233
 50
330.4109681114255
 51
0.136175264307326
  0
ARC
  5
BC
  8
0
  6
CONTINUOUS
 62
     7
 10
-132.7467251024388
 20
96.4108344112441
 30
0.0
 40
1.057077678695859
 50
179.8867927423734
 51
210.0923827315187
  0
POLYLINE
  5
BD
  8
0
  6
CONTINUOUS
 62
     7
 66
     1
 10
0.0
 20
0.0
 30
0.0
  0
VERTEX
  5
255
  8
0
  6
CONTINUOUS
 62
     7
 10
-133.6613278293877
 20
95.88082019383593
 30
0.0
  0
VERTEX
  5
256
  8
0
  6
CONTINUOUS
 62
     7
 10
-133.5768631118154
 20
95.75827452806539
 30
0.0
  0
VERTEX
  5
257
  8
0
  6
CONTINUOUS
 62
     7
 10
-133.4768159982236
 20
95.65176790722111
 30
0.0
  0
VERTEX
  5
258
  8
0
  6
CONTINUOUS
 62
     7
 10
-133.3640931745624
 20
95.56351793536591
 30
0.0
  0
VERTEX
  5
259
  8
0
  6
CONTINUOUS
 62
     7
 10
-133.2417231085261
 20
95.49497722843344
 30
0.0
  0
VERTEX
  5
25A
  8
0
  6
CONTINUOUS
 62
     7
 10
-133.1126394971583
 20
95.44693699509351
 30
0.0
  0
VERTEX
  5
25B
  8
0
  6
CONTINUOUS
 62
     7
 10
-132.9795748410464
 20
95.41970913133389
 30
0.0
  0
VERTEX
  5
25C
  8
0
  6
CONTINUOUS
 62
     7
 10
-132.9112454856305
 20
95.41385879055431
 30
0.0
  0
SEQEND
  5
4E2
  8
0
  6
CONTINUOUS
 62
     7
  0
LINE
  5
BE
  8
0
  6
CONTINUOUS
 62
     7
 10
-132.9112454856305
 20
95.41385879055431
 30
0.0
 11
-132.8707880158586
 21
95.4129230255933
 31
0.0
  0
POLYLINE
  5
BF
  8
0
  6
CONTINUOUS
 62
     7
 66
     1
 10
0.0
 20
0.0
 30
0.0
  0
VERTEX
  5
25D
  8
0
  6
CONTINUOUS
 62
     7
 10
-132.4377753139664
 20
95.4129230255933
 30
0.0
  0
VERTEX
  5
25E
  8
0
  6
CONTINUOUS
 62
     7
 10
-132.3061390652998
 20
95.4228753231194
 30
0.0
  0
VERTEX
  5
25F
  8
0
  6
CONTINUOUS
 62
     7
 10
-132.1748783913901
 20
95.45324610936144
 30
0.0
  0
VERTEX
  5
260
  8
0
  6
CONTINUOUS
 62
     7
 10
-132.04863593004
 20
95.50364615242428
 30
0.0
  0
VERTEX
  5
261
  8
0
  6
CONTINUOUS
 62
     7
 10
-131.9297654425121
 20
95.57351136979716
 30
0.0
  0
VERTEX
  5
262
  8
0
  6
CONTINUOUS
 62
     7
 10
-131.8207325219508
 20
95.66199509996709
 30
0.0
  0
VERTEX
  5
263
  8
0
  6
CONTINUOUS
 62
     7
 10
-131.7241024612148
 20
95.76781584719899
 30
0.0
  0
VERTEX
  5
264
  8
0
  6
CONTINUOUS
 62
     7
 10
-131.6424398402918
 20
95.8891131254133
 30
0.0
  0
SEQEND
  5
4E3
  8
0
  6
CONTINUOUS
 62
     7
  0
ARC
  5
C0
  8
0
  6
CONTINUOUS
 62
     7
 10
-132.5605041982033
 20
96.41041383274433
 30
0.0
 40
1.055744567938233
 50
330.4109681114255
 51
0.136175264307326
  0
ARC
  5
C1
  8
0
  6
CONTINUOUS
 62
     7
 10
-140.973966438391
 20
96.4108344112441
 30
0.0
 40
1.057077678695859
 50
179.8867927423734
 51
210.0923827315187
  0
POLYLINE
  5
C2
  8
0
  6
CONTINUOUS
 62
     7
 66
     1
 10
0.0
 20
0.0
 30
0.0
  0
VERTEX
  5
265
  8
0
  6
CONTINUOUS
 62
     7
 10
-141.8885691653399
 20
95.88082019383593
 30
0.0
  0
VERTEX
  5
266
  8
0
  6
CONTINUOUS
 62
     7
 10
-141.8041044477675
 20
95.75827452806539
 30
0.0
  0
VERTEX
  5
267
  8
0
  6
CONTINUOUS
 62
     7
 10
-141.7040573341758
 20
95.65176790722111
 30
0.0
  0
VERTEX
  5
268
  8
0
  6
CONTINUOUS
 62
     7
 10
-141.5913345105146
 20
95.56351793536591
 30
0.0
  0
VERTEX
  5
269
  8
0
  6
CONTINUOUS
 62
     7
 10
-141.4689644444782
 20
95.49497722843344
 30
0.0
  0
VERTEX
  5
26A
  8
0
  6
CONTINUOUS
 62
     7
 10
-141.3398808331105
 20
95.44693699509351
 30
0.0
  0
VERTEX
  5
26B
  8
0
  6
CONTINUOUS
 62
     7
 10
-141.2068161769985
 20
95.41970913133389
 30
0.0
  0
VERTEX
  5
26C
  8
0
  6
CONTINUOUS
 62
     7
 10
-141.0980293518108
 20
95.4129230255933
 30
0.0
  0
SEQEND
  5
4E4
  8
0
  6
CONTINUOUS
 62
     7
  0
ENDBLK
  8
0
  0
BLOCK
  8
0
  2
D_FRAME_VIEW_20934
 70
     0
 10
0.0
 20
0.0
 30
0.0
  0
LINE
  5
C7
  8
0
  6
CONTINUOUS
 62
     7
 10
-86.01790233288858
 20
114.4129230255933
 30
0.0
 11
-69.51790233288858
 21
114.4129230255933
 31
0.0
  0
LINE
  5
C8
  8
0
  6
CONTINUOUS
 62
     7
 10
-69.51790233288858
 20
114.4129230255933
 30
0.0
 11
-69.52151394882078
 21
113.9990728311373
 31
0.0
  0
LINE
  5
C9
  8
0
  6
CONTINUOUS
 62
     7
 10
-86.01790233288858
 20
114.4129230255933
 30
0.0
 11
-86.01429071695638
 21
113.9990728311373
 31
0.0
  0
LINE
  5
CA
  8
0
  6
CONTINUOUS
 62
     7
 10
-69.52151394882078
 20
113.9990728311373
 30
0.0
 11
-69.5382743626735
 21
112.0785196321439
 31
0.0
  0
LINE
  5
CB
  8
0
  6
CONTINUOUS
 62
     7
 10
-85.99753030310364
 20
112.0785196321439
 30
0.0
 11
-86.01429071695638
 21
113.9990728311373
 31
0.0
  0
LINE
  5
CC
  8
0
  6
CONTINUOUS
 62
     7
 10
-69.5382743626735
 20
112.0785196321439
 30
0.0
 11
-69.55419231071427
 21
110.254503453324
 31
0.0
  0
LINE
  5
CD
  8
0
  6
CONTINUOUS
 62
     7
 10
-85.98161235506288
 20
110.254503453324
 30
0.0
 11
-85.99753030310364
 21
112.0785196321439
 31
0.0
  0
LINE
  5
CE
  8
0
  6
CONTINUOUS
 62
     7
 10
-85.98732021796015
 20
117.9172862933425
 30
0.0
 11
-86.01790233288858
 21
114.4129230255933
 31
0.0
  0
LINE
  5
CF
  8
0
  6
CONTINUOUS
 62
     7
 10
-81.01790233288858
 20
114.4129230255933
 30
0.0
 11
-81.04848444781702
 21
117.9172862933425
 31
0.0
  0
LINE
  5
D0
  8
0
  6
CONTINUOUS
 62
     7
 10
-74.48732021796015
 20
117.9172862933425
 30
0.0
 11
-74.51790233288857
 21
114.4129230255933
 31
0.0
  0
LINE
  5
D1
  8
0
  6
CONTINUOUS
 62
     7
 10
-69.54848444781702
 20
117.9172862933425
 30
0.0
 11
-69.51790233288858
 21
114.4129230255933
 31
0.0
  0
LINE
  5
D2
  8
0
  6
CONTINUOUS
 62
     7
 10
-73.98733925642806
 20
118.4129230255933
 30
0.0
 11
-70.0484654093491
 21
118.4129230255933
 31
0.0
  0
POLYLINE
  5
D3
  8
0
  6
CONTINUOUS
 62
     7
 66
     1
 10
0.0
 20
0.0
 30
0.0
  0
VERTEX
  5
26D
  8
0
  6
CONTINUOUS
 62
     7
 10
-70.0484654093491
 20
118.4129230255933
 30
0.0
  0
VERTEX
  5
26E
  8
0
  6
CONTINUOUS
 62
     7
 10
-70.02406776269962
 20
118.412327425692
 30
0.0
  0
VERTEX
  5
26F
  8
0
  6
CONTINUOUS
 62
     7
 10
-69.99972824099389
 20
118.4105420449452
 30
0.0
  0
VERTEX
  5
270
  8
0
  6
CONTINUOUS
 62
     7
 10
-69.9755048306988
 20
118.4075711368431
 30
0.0
  0
VERTEX
  5
271
  8
0
  6
CONTINUOUS
 62
     7
 10
-69.95145524165747
 20
118.4034217792762
 30
0.0
  0
VERTEX
  5
272
  8
0
  6
CONTINUOUS
 62
     7
 10
-69.92763676960132
 20
118.3981038576721
 30
0.0
  0
VERTEX
  5
273
  8
0
  6
CONTINUOUS
 62
     7
 10
-69.90410615964882
 20
118.3916300414453
 30
0.0
  0
VERTEX
  5
274
  8
0
  6
CONTINUOUS
 62
     7
 10
-69.88091947111579
 20
118.384015753813
 30
0.0
  0
VERTEX
  5
275
  8
0
  6
CONTINUOUS
 62
     7
 10
-69.85813194395983
 20
118.375279135051
 30
0.0
  0
VERTEX
  5
276
  8
0
  6
CONTINUOUS
 62
     7
 10
-69.83579786717667
 20
118.3654409992765
 30
0.0
  0
VERTEX
  5
277
  8
0
  6
CONTINUOUS
 62
     7
 10
-69.81397044946198
 20
118.3545247848601
 30
0.0
  0
VERTEX
  5
278
  8
0
  6
CONTINUOUS
 62
     7
 10
-69.79270169244714
 20
118.3425564985868
 30
0.0
  0
VERTEX
  5
279
  8
0
  6
CONTINUOUS
 62
     7
 10
-69.77204226681044
 20
118.3295646536972
 30
0.0
  0
VERTEX
  5
27A
  8
0
  6
CONTINUOUS
 62
     7
 10
-69.75204139155937
 20
118.3155802019573
 30
0.0
  0
VERTEX
  5
27B
  8
0
  6
CONTINUOUS
 62
     7
 10
-69.73274671677122
 20
118.3006364599194
 30
0.0
  0
VERTEX
  5
27C
  8
0
  6
CONTINUOUS
 62
     7
 10
-69.7142042100716
 20
118.2847690295487
 30
0.0
  0
VERTEX
  5
27D
  8
0
  6
CONTINUOUS
 62
     7
 10
-69.69645804712113
 20
118.2680157134049
 30
0.0
  0
VERTEX
  5
27E
  8
0
  6
CONTINUOUS
 62
     7
 10
-69.67955050637143
 20
118.250416424582
 30
0.0
  0
VERTEX
  5
27F
  8
0
  6
CONTINUOUS
 62
     7
 10
-69.6635218683409
 20
118.2320130916186
 30
0.0
  0
VERTEX
  5
280
  8
0
  6
CONTINUOUS
 62
     7
 10
-69.64841031965044
 20
118.2128495586079
 30
0.0
  0
VERTEX
  5
281
  8
0
  6
CONTINUOUS
 62
     7
 10
-69.6342518620477
 20
118.1929714807435
 30
0.0
  0
VERTEX
  5
282
  8
0
  6
CONTINUOUS
 62
     7
 10
-69.6210802266365
 20
118.17242621555
 30
0.0
  0
VERTEX
  5
283
  8
0
  6
CONTINUOUS
 62
     7
 10
-69.60892679351579
 20
118.1512627100593
 30
0.0
  0
VERTEX
  5
284
  8
0
  6
CONTINUOUS
 62
     7
 10
-69.59782051701988
 20
118.1295313841984
 30
0.0
  0
VERTEX
  5
285
  8
0
  6
CONTINUOUS
 62
     7
 10
-69.5877878567375
 20
118.1072840106695
 30
0.0
  0
VERTEX
  5
286
  8
0
  6
CONTINUOUS
 62
     7
 10
-69.57885271447456
 20
118.0845735916065
 30
0.0
  0
VERTEX
  5
287
  8
0
  6
CONTINUOUS
 62
     7
 10
-69.57103637731042
 20
118.0614542323029
 30
0.0
  0
VERTEX
  5
288
  8
0
  6
CONTINUOUS
 62
     7
 10
-69.56435746688368
 20
118.037981012311
 30
0.0
  0
VERTEX
  5
289
  8
0
  6
CONTINUOUS
 62
     7
 10
-69.55883189502788
 20
118.014209854221
 30
0.0
  0
VERTEX
  5
28A
  8
0
  6
CONTINUOUS
 62
     7
 10
-69.55447282586326
 20
117.9901973904304
 30
0.0
  0
VERTEX
  5
28B
  8
0
  6
CONTINUOUS
 62
     7
 10
-69.55129064443445
 20
117.9660008282235
 30
0.0
  0
VERTEX
  5
28C
  8
0
  6
CONTINUOUS
 62
     7
 10
-69.54929293196925
 20
117.9416778134807
 30
0.0
  0
VERTEX
  5
28D
  8
0
  6
CONTINUOUS
 62
     7
 10
-69.54848444781703
 20
117.9172862933425
 30
0.0
  0
SEQEND
  5
4E5
  8
0
  6
CONTINUOUS
 62
     7
  0
POLYLINE
  5
D4
  8
0
  6
CONTINUOUS
 62
     7
 66
     1
 10
0.0
 20
0.0
 30
0.0
  0
VERTEX
  5
28E
  8
0
  6
CONTINUOUS
 62
     7
 10
-74.48732021796015
 20
117.9172862933425
 30
0.0
  0
VERTEX
  5
28F
  8
0
  6
CONTINUOUS
 62
     7
 10
-74.48651173380792
 20
117.9416778134807
 30
0.0
  0
VERTEX
  5
290
  8
0
  6
CONTINUOUS
 62
     7
 10
-74.48451402134272
 20
117.9660008282235
 30
0.0
  0
VERTEX
  5
291
  8
0
  6
CONTINUOUS
 62
     7
 10
-74.4813318399139
 20
117.9901973904304
 30
0.0
  0
VERTEX
  5
292
  8
0
  6
CONTINUOUS
 62
     7
 10
-74.47697277074928
 20
118.014209854221
 30
0.0
  0
VERTEX
  5
293
  8
0
  6
CONTINUOUS
 62
     7
 10
-74.4714471988935
 20
118.037981012311
 30
0.0
  0
VERTEX
  5
294
  8
0
  6
CONTINUOUS
 62
     7
 10
-74.46476828846674
 20
118.0614542323029
 30
0.0
  0
VERTEX
  5
295
  8
0
  6
CONTINUOUS
 62
     7
 10
-74.45695195130261
 20
118.0845735916065
 30
0.0
  0
VERTEX
  5
296
  8
0
  6
CONTINUOUS
 62
     7
 10
-74.44801680903966
 20
118.1072840106695
 30
0.0
  0
VERTEX
  5
297
  8
0
  6
CONTINUOUS
 62
     7
 10
-74.43798414875727
 20
118.1295313841984
 30
0.0
  0
VERTEX
  5
298
  8
0
  6
CONTINUOUS
 62
     7
 10
-74.42687787226137
 20
118.1512627100593
 30
0.0
  0
VERTEX
  5
299
  8
0
  6
CONTINUOUS
 62
     7
 10
-74.41472443914067
 20
118.17242621555
 30
0.0
  0
VERTEX
  5
29A
  8
0
  6
CONTINUOUS
 62
     7
 10
-74.40155280372947
 20
118.1929714807435
 30
0.0
  0
VERTEX
  5
29B
  8
0
  6
CONTINUOUS
 62
     7
 10
-74.38739434612673
 20
118.212849558608
 30
0.0
  0
VERTEX
  5
29C
  8
0
  6
CONTINUOUS
 62
     7
 10
-74.37228279743628
 20
118.2320130916187
 30
0.0
  0
VERTEX
  5
29D
  8
0
  6
CONTINUOUS
 62
     7
 10
-74.35625415940575
 20
118.250416424582
 30
0.0
  0
VERTEX
  5
29E
  8
0
  6
CONTINUOUS
 62
     7
 10
-74.33934661865604
 20
118.2680157134049
 30
0.0
  0
VERTEX
  5
29F
  8
0
  6
CONTINUOUS
 62
     7
 10
-74.32160045570556
 20
118.2847690295487
 30
0.0
  0
VERTEX
  5
2A0
  8
0
  6
CONTINUOUS
 62
     7
 10
-74.30305794900595
 20
118.3006364599194
 30
0.0
  0
VERTEX
  5
2A1
  8
0
  6
CONTINUOUS
 62
     7
 10
-74.28376327421779
 20
118.3155802019573
 30
0.0
  0
VERTEX
  5
2A2
  8
0
  6
CONTINUOUS
 62
     7
 10
-74.26376239896672
 20
118.3295646536972
 30
0.0
  0
VERTEX
  5
2A3
  8
0
  6
CONTINUOUS
 62
     7
 10
-74.24310297333001
 20
118.3425564985868
 30
0.0
  0
VERTEX
  5
2A4
  8
0
  6
CONTINUOUS
 62
     7
 10
-74.22183421631517
 20
118.3545247848601
 30
0.0
  0
VERTEX
  5
2A5
  8
0
  6
CONTINUOUS
 62
     7
 10
-74.20000679860048
 20
118.3654409992765
 30
0.0
  0
VERTEX
  5
2A6
  8
0
  6
CONTINUOUS
 62
     7
 10
-74.17767272181733
 20
118.375279135051
 30
0.0
  0
VERTEX
  5
2A7
  8
0
  6
CONTINUOUS
 62
     7
 10
-74.15488519466138
 20
118.384015753813
 30
0.0
  0
VERTEX
  5
2A8
  8
0
  6
CONTINUOUS
 62
     7
 10
-74.13169850612834
 20
118.3916300414453
 30
0.0
  0
VERTEX
  5
2A9
  8
0
  6
CONTINUOUS
 62
     7
 10
-74.10816789617583
 20
118.3981038576721
 30
0.0
  0
VERTEX
  5
2AA
  8
0
  6
CONTINUOUS
 62
     7
 10
-74.08434942411971
 20
118.4034217792762
 30
0.0
  0
VERTEX
  5
2AB
  8
0
  6
CONTINUOUS
 62
     7
 10
-74.06029983507838
 20
118.4075711368431
 30
0.0
  0
VERTEX
  5
2AC
  8
0
  6
CONTINUOUS
 62
     7
 10
-74.03607642478327
 20
118.4105420449452
 30
0.0
  0
VERTEX
  5
2AD
  8
0
  6
CONTINUOUS
 62
     7
 10
-74.01173690307753
 20
118.412327425692
 30
0.0
  0
VERTEX
  5
2AE
  8
0
  6
CONTINUOUS
 62
     7
 10
-73.98733925642806
 20
118.4129230255933
 30
0.0
  0
SEQEND
  5
4E6
  8
0
  6
CONTINUOUS
 62
     7
  0
LINE
  5
D5
  8
0
  6
CONTINUOUS
 62
     7
 10
-85.48733925642806
 20
118.4129230255933
 30
0.0
 11
-81.54846540934912
 21
118.4129230255933
 31
0.0
  0
POLYLINE
  5
D6
  8
0
  6
CONTINUOUS
 62
     7
 66
     1
 10
0.0
 20
0.0
 30
0.0
  0
VERTEX
  5
2AF
  8
0
  6
CONTINUOUS
 62
     7
 10
-85.48733925642806
 20
118.4129230255933
 30
0.0
  0
VERTEX
  5
2B0
  8
0
  6
CONTINUOUS
 62
     7
 10
-85.51173690307753
 20
118.412327425692
 30
0.0
  0
VERTEX
  5
2B1
  8
0
  6
CONTINUOUS
 62
     7
 10
-85.53607642478327
 20
118.4105420449452
 30
0.0
  0
VERTEX
  5
2B2
  8
0
  6
CONTINUOUS
 62
     7
 10
-85.56029983507837
 20
118.4075711368431
 30
0.0
  0
VERTEX
  5
2B3
  8
0
  6
CONTINUOUS
 62
     7
 10
-85.5843494241197
 20
118.4034217792762
 30
0.0
  0
VERTEX
  5
2B4
  8
0
  6
CONTINUOUS
 62
     7
 10
-85.60816789617584
 20
118.3981038576721
 30
0.0
  0
VERTEX
  5
2B5
  8
0
  6
CONTINUOUS
 62
     7
 10
-85.63169850612836
 20
118.3916300414453
 30
0.0
  0
VERTEX
  5
2B6
  8
0
  6
CONTINUOUS
 62
     7
 10
-85.65488519466139
 20
118.384015753813
 30
0.0
  0
VERTEX
  5
2B7
  8
0
  6
CONTINUOUS
 62
     7
 10
-85.67767272181733
 20
118.375279135051
 30
0.0
  0
VERTEX
  5
2B8
  8
0
  6
CONTINUOUS
 62
     7
 10
-85.7000067986005
 20
118.3654409992765
 30
0.0
  0
VERTEX
  5
2B9
  8
0
  6
CONTINUOUS
 62
     7
 10
-85.72183421631519
 20
118.3545247848601
 30
0.0
  0
VERTEX
  5
2BA
  8
0
  6
CONTINUOUS
 62
     7
 10
-85.74310297333001
 20
118.3425564985868
 30
0.0
  0
VERTEX
  5
2BB
  8
0
  6
CONTINUOUS
 62
     7
 10
-85.76376239896673
 20
118.3295646536972
 30
0.0
  0
VERTEX
  5
2BC
  8
0
  6
CONTINUOUS
 62
     7
 10
-85.7837632742178
 20
118.3155802019573
 30
0.0
  0
VERTEX
  5
2BD
  8
0
  6
CONTINUOUS
 62
     7
 10
-85.80305794900595
 20
118.3006364599194
 30
0.0
  0
VERTEX
  5
2BE
  8
0
  6
CONTINUOUS
 62
     7
 10
-85.82160045570556
 20
118.2847690295487
 30
0.0
  0
VERTEX
  5
2BF
  8
0
  6
CONTINUOUS
 62
     7
 10
-85.83934661865604
 20
118.2680157134049
 30
0.0
  0
VERTEX
  5
2C0
  8
0
  6
CONTINUOUS
 62
     7
 10
-85.85625415940575
 20
118.250416424582
 30
0.0
  0
VERTEX
  5
2C1
  8
0
  6
CONTINUOUS
 62
     7
 10
-85.87228279743627
 20
118.2320130916186
 30
0.0
  0
VERTEX
  5
2C2
  8
0
  6
CONTINUOUS
 62
     7
 10
-85.88739434612673
 20
118.212849558608
 30
0.0
  0
VERTEX
  5
2C3
  8
0
  6
CONTINUOUS
 62
     7
 10
-85.90155280372946
 20
118.1929714807435
 30
0.0
  0
VERTEX
  5
2C4
  8
0
  6
CONTINUOUS
 62
     7
 10
-85.91472443914068
 20
118.17242621555
 30
0.0
  0
VERTEX
  5
2C5
  8
0
  6
CONTINUOUS
 62
     7
 10
-85.92687787226137
 20
118.1512627100593
 30
0.0
  0
VERTEX
  5
2C6
  8
0
  6
CONTINUOUS
 62
     7
 10
-85.93798414875728
 20
118.1295313841984
 30
0.0
  0
VERTEX
  5
2C7
  8
0
  6
CONTINUOUS
 62
     7
 10
-85.94801680903966
 20
118.1072840106695
 30
0.0
  0
VERTEX
  5
2C8
  8
0
  6
CONTINUOUS
 62
     7
 10
-85.95695195130261
 20
118.0845735916065
 30
0.0
  0
VERTEX
  5
2C9
  8
0
  6
CONTINUOUS
 62
     7
 10
-85.96476828846674
 20
118.0614542323029
 30
0.0
  0
VERTEX
  5
2CA
  8
0
  6
CONTINUOUS
 62
     7
 10
-85.97144719889349
 20
118.037981012311
 30
0.0
  0
VERTEX
  5
2CB
  8
0
  6
CONTINUOUS
 62
     7
 10
-85.97697277074928
 20
118.014209854221
 30
0.0
  0
VERTEX
  5
2CC
  8
0
  6
CONTINUOUS
 62
     7
 10
-85.9813318399139
 20
117.9901973904304
 30
0.0
  0
VERTEX
  5
2CD
  8
0
  6
CONTINUOUS
 62
     7
 10
-85.98451402134272
 20
117.9660008282235
 30
0.0
  0
VERTEX
  5
2CE
  8
0
  6
CONTINUOUS
 62
     7
 10
-85.98651173380792
 20
117.9416778134807
 30
0.0
  0
VERTEX
  5
2CF
  8
0
  6
CONTINUOUS
 62
     7
 10
-85.98732021796015
 20
117.9172862933425
 30
0.0
  0
SEQEND
  5
4E7
  8
0
  6
CONTINUOUS
 62
     7
  0
POLYLINE
  5
D7
  8
0
  6
CONTINUOUS
 62
     7
 66
     1
 10
0.0
 20
0.0
 30
0.0
  0
VERTEX
  5
2D0
  8
0
  6
CONTINUOUS
 62
     7
 10
-81.04848444781703
 20
117.9172862933425
 30
0.0
  0
VERTEX
  5
2D1
  8
0
  6
CONTINUOUS
 62
     7
 10
-81.04929293196926
 20
117.9416778134807
 30
0.0
  0
VERTEX
  5
2D2
  8
0
  6
CONTINUOUS
 62
     7
 10
-81.05129064443447
 20
117.9660008282235
 30
0.0
  0
VERTEX
  5
2D3
  8
0
  6
CONTINUOUS
 62
     7
 10
-81.05447282586329
 20
117.9901973904304
 30
0.0
  0
VERTEX
  5
2D4
  8
0
  6
CONTINUOUS
 62
     7
 10
-81.0588318950279
 20
118.014209854221
 30
0.0
  0
VERTEX
  5
2D5
  8
0
  6
CONTINUOUS
 62
     7
 10
-81.06435746688369
 20
118.037981012311
 30
0.0
  0
VERTEX
  5
2D6
  8
0
  6
CONTINUOUS
 62
     7
 10
-81.07103637731043
 20
118.0614542323029
 30
0.0
  0
VERTEX
  5
2D7
  8
0
  6
CONTINUOUS
 62
     7
 10
-81.07885271447456
 20
118.0845735916065
 30
0.0
  0
VERTEX
  5
2D8
  8
0
  6
CONTINUOUS
 62
     7
 10
-81.08778785673753
 20
118.1072840106695
 30
0.0
  0
VERTEX
  5
2D9
  8
0
  6
CONTINUOUS
 62
     7
 10
-81.09782051701991
 20
118.1295313841984
 30
0.0
  0
VERTEX
  5
2DA
  8
0
  6
CONTINUOUS
 62
     7
 10
-81.10892679351582
 20
118.1512627100593
 30
0.0
  0
VERTEX
  5
2DB
  8
0
  6
CONTINUOUS
 62
     7
 10
-81.12108022663651
 20
118.17242621555
 30
0.0
  0
VERTEX
  5
2DC
  8
0
  6
CONTINUOUS
 62
     7
 10
-81.13425186204773
 20
118.1929714807435
 30
0.0
  0
VERTEX
  5
2DD
  8
0
  6
CONTINUOUS
 62
     7
 10
-81.14841031965047
 20
118.212849558608
 30
0.0
  0
VERTEX
  5
2DE
  8
0
  6
CONTINUOUS
 62
     7
 10
-81.1635218683409
 20
118.2320130916186
 30
0.0
  0
VERTEX
  5
2DF
  8
0
  6
CONTINUOUS
 62
     7
 10
-81.17955050637143
 20
118.250416424582
 30
0.0
  0
VERTEX
  5
2E0
  8
0
  6
CONTINUOUS
 62
     7
 10
-81.19645804712114
 20
118.2680157134049
 30
0.0
  0
VERTEX
  5
2E1
  8
0
  6
CONTINUOUS
 62
     7
 10
-81.21420421007161
 20
118.2847690295487
 30
0.0
  0
VERTEX
  5
2E2
  8
0
  6
CONTINUOUS
 62
     7
 10
-81.23274671677125
 20
118.3006364599194
 30
0.0
  0
VERTEX
  5
2E3
  8
0
  6
CONTINUOUS
 62
     7
 10
-81.25204139155939
 20
118.3155802019573
 30
0.0
  0
VERTEX
  5
2E4
  8
0
  6
CONTINUOUS
 62
     7
 10
-81.27204226681046
 20
118.3295646536972
 30
0.0
  0
VERTEX
  5
2E5
  8
0
  6
CONTINUOUS
 62
     7
 10
-81.29270169244717
 20
118.3425564985868
 30
0.0
  0
VERTEX
  5
2E6
  8
0
  6
CONTINUOUS
 62
     7
 10
-81.313970449462
 20
118.3545247848601
 30
0.0
  0
VERTEX
  5
2E7
  8
0
  6
CONTINUOUS
 62
     7
 10
-81.3357978671767
 20
118.3654409992765
 30
0.0
  0
VERTEX
  5
2E8
  8
0
  6
CONTINUOUS
 62
     7
 10
-81.35813194395985
 20
118.375279135051
 30
0.0
  0
VERTEX
  5
2E9
  8
0
  6
CONTINUOUS
 62
     7
 10
-81.3809194711158
 20
118.384015753813
 30
0.0
  0
VERTEX
  5
2EA
  8
0
  6
CONTINUOUS
 62
     7
 10
-81.40410615964883
 20
118.3916300414453
 30
0.0
  0
VERTEX
  5
2EB
  8
0
  6
CONTINUOUS
 62
     7
 10
-81.42763676960135
 20
118.3981038576721
 30
0.0
  0
VERTEX
  5
2EC
  8
0
  6
CONTINUOUS
 62
     7
 10
-81.45145524165747
 20
118.4034217792762
 30
0.0
  0
VERTEX
  5
2ED
  8
0
  6
CONTINUOUS
 62
     7
 10
-81.47550483069881
 20
118.4075711368431
 30
0.0
  0
VERTEX
  5
2EE
  8
0
  6
CONTINUOUS
 62
     7
 10
-81.4997282409939
 20
118.4105420449452
 30
0.0
  0
VERTEX
  5
2EF
  8
0
  6
CONTINUOUS
 62
     7
 10
-81.52406776269964
 20
118.412327425692
 30
0.0
  0
VERTEX
  5
2F0
  8
0
  6
CONTINUOUS
 62
     7
 10
-81.54846540934912
 20
118.4129230255933
 30
0.0
  0
SEQEND
  5
4E8
  8
0
  6
CONTINUOUS
 62
     7
  0
LINE
  5
D8
  8
0
  6
CONTINUOUS
 62
     7
 10
-85.97863142783015
 20
109.9129230255933
 30
0.0
 11
-69.557173237947
 21
109.9129230255933
 31
0.0
  0
LINE
  5
D9
  8
0
  6
CONTINUOUS
 62
     7
 10
-69.55419231071427
 20
110.254503453324
 30
0.0
 11
-69.557173237947
 21
109.9129230255933
 31
0.0
  0
LINE
  5
DA
  8
0
  6
CONTINUOUS
 62
     7
 10
-85.97863142783015
 20
109.9129230255933
 30
0.0
 11
-85.98161235506288
 21
110.254503453324
 31
0.0
  0
LINE
  5
DB
  8
0
  6
CONTINUOUS
 62
     7
 10
-81.54846540934912
 20
118.4129230255933
 30
0.0
 11
-73.98733925642806
 21
118.4129230255933
 31
0.0
  0
ARC
  5
DC
  8
0
  6
CONTINUOUS
 62
     7
 10
-70.6662971637172
 20
97.4129230255933
 30
0.0
 40
1.0
 50
270.0
 51
359.5000000000003
  0
LINE
  5
DD
  8
0
  6
CONTINUOUS
 62
     7
 10
-84.86950750205995
 20
96.41292302559329
 30
0.0
 11
-70.6662971637172
 21
96.41292302559329
 31
0.0
  0
ARC
  5
DE
  8
0
  6
CONTINUOUS
 62
     7
 10
-84.86950750205995
 20
97.4129230255933
 30
0.0
 40
1.0
 50
180.4999999999997
 51
270.0
  0
LINE
  5
DF
  8
0
  6
CONTINUOUS
 62
     7
 10
-69.557173237947
 20
109.9129230255933
 30
0.0
 11
-69.66633524065304
 21
97.40419649009493
 31
0.0
  0
LINE
  5
E0
  8
0
  6
CONTINUOUS
 62
     7
 10
-85.97863142783015
 20
109.9129230255933
 30
0.0
 11
-85.86946942512412
 21
97.40419649009493
 31
0.0
  0
LINE
  5
E1
  8
0
  6
CONTINUOUS
 62
     7
 10
-89.70978522344203
 20
105.4129230255933
 30
0.0
 11
-85.93936052277175
 21
105.4129230255933
 31
0.0
  0
POLYLINE
  5
E2
  8
0
  6
CONTINUOUS
 62
     7
 66
     1
 10
0.0
 20
0.0
 30
0.0
  0
VERTEX
  5
2F1
  8
0
  6
CONTINUOUS
 62
     7
 10
-91.1285254039932
 20
106.3605870693503
 30
0.0
  0
VERTEX
  5
2F2
  8
0
  6
CONTINUOUS
 62
     7
 10
-91.11305778798132
 20
106.2584312505875
 30
0.0
  0
VERTEX
  5
2F3
  8
0
  6
CONTINUOUS
 62
     7
 10
-91.08285220886282
 20
106.1568552270842
 30
0.0
  0
VERTEX
  5
2F4
  8
0
  6
CONTINUOUS
 62
     7
 10
-91.03945788326013
 20
106.0602634678788
 30
0.0
  0
VERTEX
  5
2F5
  8
0
  6
CONTINUOUS
 62
     7
 10
-90.97203027101416
 20
105.9522667048734
 30
0.0
  0
VERTEX
  5
2F6
  8
0
  6
CONTINUOUS
 62
     7
 10
-90.89759633407974
 20
105.861708616428
 30
0.0
  0
VERTEX
  5
2F7
  8
0
  6
CONTINUOUS
 62
     7
 10
-90.7903114458955
 20
105.7603803165182
 30
0.0
  0
SEQEND
  5
4E9
  8
0
  6
CONTINUOUS
 62
     7
  0
ARC
  5
E3
  8
0
  6
CONTINUOUS
 62
     7
 10
-89.75952543462898
 20
107.1120847819741
 30
0.0
 40
1.699889632580892
 50
232.6714948546322
 51
271.6767623940008
  0
LINE
  5
E4
  8
0
  6
CONTINUOUS
 62
     7
 10
-92.07699035414275
 20
118.4129230255933
 30
0.0
 11
-91.1285254039932
 21
106.3605870693503
 31
0.0
  0
LINE
  5
E5
  8
0
  6
CONTINUOUS
 62
     7
 10
-63.45881431163441
 20
118.4129230255933
 30
0.0
 11
-70.0484654093491
 21
118.4129230255933
 31
0.0
  0
LINE
  5
E6
  8
0
  6
CONTINUOUS
 62
     7
 10
-85.48733925642806
 20
118.4129230255933
 30
0.0
 11
-92.07699035414275
 21
118.4129230255933
 31
0.0
  0
LINE
  5
E7
  8
0
  6
CONTINUOUS
 62
     7
 10
-64.40727926178397
 20
106.3605870693503
 30
0.0
 11
-63.45881431163441
 21
118.4129230255933
 31
0.0
  0
ARC
  5
E8
  8
0
  6
CONTINUOUS
 62
     7
 10
-65.79679594492671
 20
107.2185760225137
 30
0.0
 40
1.805889464526718
 50
269.0727803758509
 51
299.7828937884261
  0
POLYLINE
  5
E9
  8
0
  6
CONTINUOUS
 62
     7
 66
     1
 10
0.0
 20
0.0
 30
0.0
  0
VERTEX
  5
2F8
  8
0
  6
CONTINUOUS
 62
     7
 10
-64.89978381404788
 20
105.6512196510574
 30
0.0
  0
VERTEX
  5
2F9
  8
0
  6
CONTINUOUS
 62
     7
 10
-64.77793035119736
 20
105.7344458652473
 30
0.0
  0
VERTEX
  5
2FA
  8
0
  6
CONTINUOUS
 62
     7
 10
-64.69268978667928
 20
105.8068935848966
 30
0.0
  0
VERTEX
  5
2FB
  8
0
  6
CONTINUOUS
 62
     7
 10
-64.59583468755525
 20
105.9105654453029
 30
0.0
  0
VERTEX
  5
2FC
  8
0
  6
CONTINUOUS
 62
     7
 10
-64.5203979433612
 20
106.017689631272
 30
0.0
  0
VERTEX
  5
2FD
  8
0
  6
CONTINUOUS
 62
     7
 10
-64.46394109150886
 20
106.1290094736305
 30
0.0
  0
VERTEX
  5
2FE
  8
0
  6
CONTINUOUS
 62
     7
 10
-64.43031489779594
 20
106.2276020424844
 30
0.0
  0
VERTEX
  5
2FF
  8
0
  6
CONTINUOUS
 62
     7
 10
-64.41076119972801
 20
106.3270007948048
 30
0.0
  0
VERTEX
  5
300
  8
0
  6
CONTINUOUS
 62
     7
 10
-64.40727926178397
 20
106.3605870693503
 30
0.0
  0
SEQEND
  5
4EA
  8
0
  6
CONTINUOUS
 62
     7
  0
LINE
  5
EA
  8
0
  6
CONTINUOUS
 62
     7
 10
-69.5964441430054
 20
105.4129230255933
 30
0.0
 11
-65.82601944233512
 21
105.4129230255933
 31
0.0
  0
LINE
  5
EB
  8
0
  6
CONTINUOUS
 62
     7
 10
-61.16121930466767
 20
105.4129230255933
 30
0.0
 11
-61.02871846215019
 21
105.4228372624656
 31
0.0
  0
LINE
  5
EC
  8
0
  6
CONTINUOUS
 62
     7
 10
-61.16121930466764
 20
105.4129230255933
 30
0.0
 11
-65.82601944233511
 21
105.4129230255933
 31
0.0
  0
LINE
  5
ED
  8
0
  6
CONTINUOUS
 62
     7
 10
-89.70978522344203
 20
105.4129230255933
 30
0.0
 11
-95.0727476007063
 21
105.4129230255933
 31
0.0
  0
POLYLINE
  5
EE
  8
0
  6
CONTINUOUS
 62
     7
 66
     1
 10
0.0
 20
0.0
 30
0.0
  0
VERTEX
  5
301
  8
0
  6
CONTINUOUS
 62
     7
 10
-96.07143449896664
 20
106.3605870693504
 30
0.0
  0
VERTEX
  5
302
  8
0
  6
CONTINUOUS
 62
     7
 10
-96.06964130094418
 20
106.3334438299819
 30
0.0
  0
VERTEX
  5
303
  8
0
  6
CONTINUOUS
 62
     7
 10
-96.06710825585957
 20
106.3063394329932
 30
0.0
  0
VERTEX
  5
304
  8
0
  6
CONTINUOUS
 62
     7
 10
-96.06030682761465
 20
106.2553229866099
 30
0.0
  0
VERTEX
  5
305
  8
0
  6
CONTINUOUS
 62
     7
 10
-96.05086088133318
 20
106.2045905197919
 30
0.0
  0
VERTEX
  5
306
  8
0
  6
CONTINUOUS
 62
     7
 10
-96.04020880175356
 20
106.1596967355439
 30
0.0
  0
VERTEX
  5
307
  8
0
  6
CONTINUOUS
 62
     7
 10
-96.02746790417729
 20
106.1152486740032
 30
0.0
  0
VERTEX
  5
308
  8
0
  6
CONTINUOUS
 62
     7
 10
-96.01369828404754
 20
106.0742363987166
 30
0.0
  0
VERTEX
  5
309
  8
0
  6
CONTINUOUS
 62
     7
 10
-95.99813712239774
 20
106.0337837409033
 30
0.0
  0
VERTEX
  5
30A
  8
0
  6
CONTINUOUS
 62
     7
 10
-95.98348628826558
 20
105.9998330396647
 30
0.0
  0
VERTEX
  5
30B
  8
0
  6
CONTINUOUS
 62
     7
 10
-95.96756797886582
 20
105.9664025932789
 30
0.0
  0
VERTEX
  5
30C
  8
0
  6
CONTINUOUS
 62
     7
 10
-95.9515622490163
 20
105.9356764573989
 30
0.0
  0
VERTEX
  5
30D
  8
0
  6
CONTINUOUS
 62
     7
 10
-95.93450251467468
 20
105.9055237674648
 30
0.0
  0
VERTEX
  5
30E
  8
0
  6
CONTINUOUS
 62
     7
 10
-95.91631856156008
 20
105.875839422464
 30
0.0
  0
VERTEX
  5
30F
  8
0
  6
CONTINUOUS
 62
     7
 10
-95.89711328873027
 20
105.8468065418857
 30
0.0
  0
VERTEX
  5
310
  8
0
  6
CONTINUOUS
 62
     7
 10
-95.87930881405073
 20
105.8217196173413
 30
0.0
  0
VERTEX
  5
311
  8
0
  6
CONTINUOUS
 62
     7
 10
-95.86074179472895
 20
105.7971926806097
 30
0.0
  0
VERTEX
  5
312
  8
0
  6
CONTINUOUS
 62
     7
 10
-95.84135449057348
 20
105.7731590408933
 30
0.0
  0
VERTEX
  5
313
  8
0
  6
CONTINUOUS
 62
     7
 10
-95.82123514768878
 20
105.7497358768088
 30
0.0
  0
VERTEX
  5
314
  8
0
  6
CONTINUOUS
 62
     7
 10
-95.80292187371896
 20
105.7296273948172
 30
0.0
  0
VERTEX
  5
315
  8
0
  6
CONTINUOUS
 62
     7
 10
-95.78405484746851
 20
105.7100104904383
 30
0.0
  0
VERTEX
  5
316
  8
0
  6
CONTINUOUS
 62
     7
 10
-95.74695470135319
 20
105.6743550337088
 30
0.0
  0
VERTEX
  5
317
  8
0
  6
CONTINUOUS
 62
     7
 10
-95.70796585006339
 20
105.6405695747148
 30
0.0
  0
VERTEX
  5
318
  8
0
  6
CONTINUOUS
 62
     7
 10
-95.67167348055504
 20
105.6121015656135
 30
0.0
  0
VERTEX
  5
319
  8
0
  6
CONTINUOUS
 62
     7
 10
-95.63402715635863
 20
105.5852830191377
 30
0.0
  0
VERTEX
  5
31A
  8
0
  6
CONTINUOUS
 62
     7
 10
-95.59771838823572
 20
105.5617916944948
 30
0.0
  0
VERTEX
  5
31B
  8
0
  6
CONTINUOUS
 62
     7
 10
-95.5603586090732
 20
105.5398532180313
 30
0.0
  0
VERTEX
  5
31C
  8
0
  6
CONTINUOUS
 62
     7
 10
-95.53637851874194
 20
105.5268870452133
 30
0.0
  0
VERTEX
  5
31D
  8
0
  6
CONTINUOUS
 62
     7
 10
-95.51203626352776
 20
105.5145706382503
 30
0.0
  0
VERTEX
  5
31E
  8
0
  6
CONTINUOUS
 62
     7
 10
-95.46513262060695
 20
105.493117356791
 30
0.0
  0
VERTEX
  5
31F
  8
0
  6
CONTINUOUS
 62
     7
 10
-95.41705786531152
 20
105.4740639408292
 30
0.0
  0
VERTEX
  5
320
  8
0
  6
CONTINUOUS
 62
     7
 10
-95.3732913386415
 20
105.459152833293
 30
0.0
  0
VERTEX
  5
321
  8
0
  6
CONTINUOUS
 62
     7
 10
-95.32878786294681
 20
105.4462555176748
 30
0.0
  0
VERTEX
  5
322
  8
0
  6
CONTINUOUS
 62
     7
 10
-95.28664942326657
 20
105.4360670050624
 30
0.0
  0
VERTEX
  5
323
  8
0
  6
CONTINUOUS
 62
     7
 10
-95.24402948178181
 20
105.4277004821126
 30
0.0
  0
VERTEX
  5
324
  8
0
  6
CONTINUOUS
 62
     7
 10
-95.215582515358
 20
105.4231761983823
 30
0.0
  0
VERTEX
  5
325
  8
0
  6
CONTINUOUS
 62
     7
 10
-95.18699361193688
 20
105.4194703643429
 30
0.0
  0
VERTEX
  5
326
  8
0
  6
CONTINUOUS
 62
     7
 10
-95.18648822487562
 20
105.4194123774677
 30
0.0
  0
SEQEND
  5
4EB
  8
0
  6
CONTINUOUS
 62
     7
  0
LINE
  5
EF
  8
0
  6
CONTINUOUS
 62
     7
 10
-92.07699035414275
 20
118.4129230255933
 30
0.0
 11
-96.76790233288857
 21
118.4129230255933
 31
0.0
  0
LINE
  5
F0
  8
0
  6
CONTINUOUS
 62
     7
 10
-96.62508689205788
 20
116.8867550474718
 30
0.0
 11
-96.07143449896664
 21
106.3605870693504
 31
0.0
  0
LINE
  5
F1
  8
0
  6
CONTINUOUS
 62
     7
 10
-58.76790233288859
 20
118.4129230255933
 30
0.0
 11
-63.45881431163441
 21
118.4129230255933
 31
0.0
  0
LINE
  5
F2
  8
0
  6
CONTINUOUS
 62
     7
 10
-84.86950750205995
 20
96.4129230255933
 30
0.0
 11
-91.44804931217678
 21
96.4129230255933
 31
0.0
  0
LINE
  5
F3
  8
0
  6
CONTINUOUS
 62
     7
 10
-64.08775535360039
 20
96.4129230255933
 30
0.0
 11
-70.6662971637172
 21
96.4129230255933
 31
0.0
  0
LINE
  5
F4
  8
0
  6
CONTINUOUS
 62
     7
 10
-59.69107738346911
 20
116.7419364458139
 30
0.0
 11
-59.70668414937366
 21
116.8867550474718
 31
0.0
  0
LINE
  5
F5
  8
0
  6
CONTINUOUS
 62
     7
 10
-60.19716894550643
 20
106.3624017283312
 30
0.0
 11
-60.19733938692048
 21
106.3626773452529
 31
0.0
  0
LINE
  5
F6
  8
0
  6
CONTINUOUS
 62
     7
 10
-59.34720017481209
 20
116.4129230255933
 30
0.0
 11
-59.70633143145623
 21
116.4129230255933
 31
0.0
  0
LINE
  5
F7
  8
0
  6
CONTINUOUS
 62
     7
 10
-75.26790233288858
 20
95.4129230255933
 30
0.0
 11
-75.51790233288857
 21
95.4129230255933
 31
0.0
  0
LINE
  5
F8
  8
0
  6
CONTINUOUS
 62
     7
 10
-95.18648822487562
 20
105.4194123774677
 30
0.0
 11
-95.0727476007063
 21
105.4129230255933
 31
0.0
  0
ARC
  5
F9
  8
0
  6
CONTINUOUS
 62
     7
 10
-82.76790233288858
 20
96.4129230255933
 30
0.0
 40
1.000000000000001
 50
180.0
 51
270.0
  0
ARC
  5
FA
  8
0
  6
CONTINUOUS
 62
     7
 10
-82.26790233288858
 20
96.4129230255933
 30
0.0
 40
1.000000000000001
 50
270.0
 51
0.0
  0
LINE
  5
FB
  8
0
  6
CONTINUOUS
 62
     7
 10
-82.26790233288858
 20
95.4129230255933
 30
0.0
 11
-82.76790233288858
 21
95.4129230255933
 31
0.0
  0
LINE
  5
FC
  8
0
  6
CONTINUOUS
 62
     7
 10
-96.76790233288857
 20
118.4129230255933
 30
0.0
 11
-96.68791925834233
 21
116.8867550474718
 31
0.0
  0
LINE
  5
FD
  8
0
  6
CONTINUOUS
 62
     7
 10
-58.84788540743482
 20
116.8867550474718
 30
0.0
 11
-58.76790233288859
 21
118.4129230255933
 31
0.0
  0
ARC
  5
FE
  8
0
  6
CONTINUOUS
 62
     7
 10
-91.44804931217678
 20
97.4129230255933
 30
0.0
 40
1.000000000000003
 50
180.5
 51
270.0
  0
ARC
  5
FF
  8
0
  6
CONTINUOUS
 62
     7
 10
-64.08775535360039
 20
97.4129230255933
 30
0.0
 40
1.000000000000001
 50
270.0
 51
359.5000000000001
  0
LINE
  5
100
  8
0
  6
CONTINUOUS
 62
     7
 10
-92.51790233288858
 20
105.4129230255933
 30
0.0
 11
-92.44801123524094
 21
97.40419649009493
 31
0.0
  0
LINE
  5
101
  8
0
  6
CONTINUOUS
 62
     7
 10
-63.08779343053622
 20
97.40419649009493
 30
0.0
 11
-63.01790233288857
 21
105.4129230255933
 31
0.0
  0
LINE
  5
102
  8
0
  6
CONTINUOUS
 62
     7
 10
-60.19716894603612
 20
106.3624017178925
 30
0.0
 11
-59.69107639422531
 21
116.7419561720967
 31
0.0
  0
ARC
  5
103
  8
0
  6
CONTINUOUS
 62
     7
 10
-59.34720017481209
 20
116.9129230255933
 30
0.0
 40
0.5000000000000004
 50
270.0000000000007
 51
356.9999999999998
  0
POLYLINE
  5
104
  8
0
  6
CONTINUOUS
 62
     7
 66
     1
 10
0.0
 20
0.0
 30
0.0
  0
VERTEX
  5
327
  8
0
  6
CONTINUOUS
 62
     7
 10
-61.02874538949091
 20
105.4228332128408
 30
0.0
  0
VERTEX
  5
328
  8
0
  6
CONTINUOUS
 62
     7
 10
-60.98996392350949
 20
105.4289552400433
 30
0.0
  0
VERTEX
  5
329
  8
0
  6
CONTINUOUS
 62
     7
 10
-60.95293932577472
 20
105.4364905785269
 30
0.0
  0
VERTEX
  5
32A
  8
0
  6
CONTINUOUS
 62
     7
 10
-60.91767029055349
 20
105.4452341130379
 30
0.0
  0
VERTEX
  5
32B
  8
0
  6
CONTINUOUS
 62
     7
 10
-60.88414550747473
 20
105.454993833807
 30
0.0
  0
VERTEX
  5
32C
  8
0
  6
CONTINUOUS
 62
     7
 10
-60.85234531731927
 20
105.4655902410499
 30
0.0
  0
VERTEX
  5
32D
  8
0
  6
CONTINUOUS
 62
     7
 10
-60.82224385191637
 20
105.4768554967626
 30
0.0
  0
VERTEX
  5
32E
  8
0
  6
CONTINUOUS
 62
     7
 10
-60.78851711362113
 20
105.4909530404073
 30
0.0
  0
VERTEX
  5
32F
  8
0
  6
CONTINUOUS
 62
     7
 10
-60.75743647663418
 20
105.5053778723158
 30
0.0
  0
VERTEX
  5
330
  8
0
  6
CONTINUOUS
 62
     7
 10
-60.72887050332444
 20
105.5198949994543
 30
0.0
  0
VERTEX
  5
331
  8
0
  6
CONTINUOUS
 62
     7
 10
-60.70269190143657
 20
105.5342964961137
 30
0.0
  0
VERTEX
  5
332
  8
0
  6
CONTINUOUS
 62
     7
 10
-60.67877888118905
 20
105.5483985537407
 30
0.0
  0
VERTEX
  5
333
  8
0
  6
CONTINUOUS
 62
     7
 10
-60.64364936453609
 20
105.5708046374991
 30
0.0
  0
VERTEX
  5
334
  8
0
  6
CONTINUOUS
 62
     7
 10
-60.6140134321771
 20
105.5913000671963
 30
0.0
  0
VERTEX
  5
335
  8
0
  6
CONTINUOUS
 62
     7
 10
-60.58945822779179
 20
105.6093744568826
 30
0.0
  0
VERTEX
  5
336
  8
0
  6
CONTINUOUS
 62
     7
 10
-60.56687137578636
 20
105.6269358426515
 30
0.0
  0
VERTEX
  5
337
  8
0
  6
CONTINUOUS
 62
     7
 10
-60.54158956489644
 20
105.6479183604382
 30
0.0
  0
VERTEX
  5
338
  8
0
  6
CONTINUOUS
 62
     7
 10
-60.51387298303639
 20
105.672680371652
 30
0.0
  0
VERTEX
  5
339
  8
0
  6
CONTINUOUS
 62
     7
 10
-60.49416991816658
 20
105.6915060624054
 30
0.0
  0
VERTEX
  5
33A
  8
0
  6
CONTINUOUS
 62
     7
 10
-60.47373874937087
 20
105.7122011210342
 30
0.0
  0
VERTEX
  5
33B
  8
0
  6
CONTINUOUS
 62
     7
 10
-60.45270207478156
 20
105.7348733810571
 30
0.0
  0
VERTEX
  5
33C
  8
0
  6
CONTINUOUS
 62
     7
 10
-60.43119054668959
 20
105.7596380452984
 30
0.0
  0
VERTEX
  5
33D
  8
0
  6
CONTINUOUS
 62
     7
 10
-60.40934390360858
 20
105.7866187100391
 30
0.0
  0
VERTEX
  5
33E
  8
0
  6
CONTINUOUS
 62
     7
 10
-60.38770650855069
 20
105.8154035908005
 30
0.0
  0
VERTEX
  5
33F
  8
0
  6
CONTINUOUS
 62
     7
 10
-60.36604472731907
 20
105.8465919812242
 30
0.0
  0
VERTEX
  5
340
  8
0
  6
CONTINUOUS
 62
     7
 10
-60.3445264111301
 20
105.8803343268727
 30
0.0
  0
VERTEX
  5
341
  8
0
  6
CONTINUOUS
 62
     7
 10
-60.32335909591789
 20
105.9167562961455
 30
0.0
  0
VERTEX
  5
342
  8
0
  6
CONTINUOUS
 62
     7
 10
-60.30478379943571
 20
105.9519597552938
 30
0.0
  0
VERTEX
  5
343
  8
0
  6
CONTINUOUS
 62
     7
 10
-60.28704639834594
 20
105.9891271869726
 30
0.0
  0
VERTEX
  5
344
  8
0
  6
CONTINUOUS
 62
     7
 10
-60.27029995374078
 20
106.0283203065548
 30
0.0
  0
VERTEX
  5
345
  8
0
  6
CONTINUOUS
 62
     7
 10
-60.254709532022
 20
106.0696062629291
 30
0.0
  0
VERTEX
  5
346
  8
0
  6
CONTINUOUS
 62
     7
 10
-60.24045520746214
 20
106.113059019216
 30
0.0
  0
VERTEX
  5
347
  8
0
  6
CONTINUOUS
 62
     7
 10
-60.22974006166837
 20
106.1509840819964
 30
0.0
  0
VERTEX
  5
348
  8
0
  6
CONTINUOUS
 62
     7
 10
-60.22021793766618
 20
106.1905243899692
 30
0.0
  0
VERTEX
  5
349
  8
0
  6
CONTINUOUS
 62
     7
 10
-60.21204750202802
 20
106.2316432834014
 30
0.0
  0
VERTEX
  5
34A
  8
0
  6
CONTINUOUS
 62
     7
 10
-60.20542433876646
 20
106.2740446767139
 30
0.0
  0
VERTEX
  5
34B
  8
0
  6
CONTINUOUS
 62
     7
 10
-60.20047646358201
 20
106.317716548503
 30
0.0
  0
VERTEX
  5
34C
  8
0
  6
CONTINUOUS
 62
     7
 10
-60.19733940353593
 20
106.3626773585924
 30
0.0
  0
SEQEND
  5
4EC
  8
0
  6
CONTINUOUS
 62
     7
  0
POLYLINE
  5
105
  8
0
  6
CONTINUOUS
 62
     7
 66
     1
 10
0.0
 20
0.0
 30
0.0
  0
VERTEX
  5
34D
  8
0
  6
CONTINUOUS
 62
     7
 10
-75.26790233288858
 20
95.4129230255933
 30
0.0
  0
VERTEX
  5
34E
  8
0
  6
CONTINUOUS
 62
     7
 10
-75.13921104213182
 20
95.42629346960352
 30
0.0
  0
VERTEX
  5
34F
  8
0
  6
CONTINUOUS
 62
     7
 10
-75.0138237787613
 20
95.46650156068478
 30
0.0
  0
VERTEX
  5
350
  8
0
  6
CONTINUOUS
 62
     7
 10
-74.924308380126
 20
95.51421963177808
 30
0.0
  0
VERTEX
  5
351
  8
0
  6
CONTINUOUS
 62
     7
 10
-74.83927414584862
 20
95.57783189808742
 30
0.0
  0
VERTEX
  5
352
  8
0
  6
CONTINUOUS
 62
     7
 10
-74.759019824961
 20
95.65949695757284
 30
0.0
  0
VERTEX
  5
353
  8
0
  6
CONTINUOUS
 62
     7
 10
-74.68438080977363
 20
95.76288915899154
 30
0.0
  0
SEQEND
  5
4ED
  8
0
  6
CONTINUOUS
 62
     7
  0
ARC
  5
106
  8
0
  6
CONTINUOUS
 62
     7
 10
-75.68029623512776
 20
96.35134073577555
 30
0.0
 40
1.156772576039855
 50
329.422645203207
 51
351.6531757451971
  0
POLYLINE
  5
107
  8
0
  6
CONTINUOUS
 62
     7
 66
     1
 10
0.0
 20
0.0
 30
0.0
  0
VERTEX
  5
354
  8
0
  6
CONTINUOUS
 62
     7
 10
-74.53577678954325
 20
96.18341804119021
 30
0.0
  0
VERTEX
  5
355
  8
0
  6
CONTINUOUS
 62
     7
 10
-74.5201169929655
 20
96.33150263154717
 30
0.0
  0
VERTEX
  5
356
  8
0
  6
CONTINUOUS
 62
     7
 10
-74.51790233288858
 20
96.4129230255933
 30
0.0
  0
SEQEND
  5
4EE
  8
0
  6
CONTINUOUS
 62
     7
  0
ARC
  5
108
  8
0
  6
CONTINUOUS
 62
     7
 10
-74.95322131764908
 20
96.39754673888629
 30
0.0
 40
1.314770931388441
 50
179.3299088107599
 51
205.2343014373732
  0
POLYLINE
  5
109
  8
0
  6
CONTINUOUS
 62
     7
 66
     1
 10
0.0
 20
0.0
 30
0.0
  0
VERTEX
  5
357
  8
0
  6
CONTINUOUS
 62
     7
 10
-76.14252627250094
 20
95.8370323979557
 30
0.0
  0
VERTEX
  5
358
  8
0
  6
CONTINUOUS
 62
     7
 10
-76.06995458694108
 20
95.71524583656237
 30
0.0
  0
VERTEX
  5
359
  8
0
  6
CONTINUOUS
 62
     7
 10
-75.99205415481123
 20
95.62109830566365
 30
0.0
  0
VERTEX
  5
35A
  8
0
  6
CONTINUOUS
 62
     7
 10
-75.909694049735
 20
95.54778910715628
 30
0.0
  0
VERTEX
  5
35B
  8
0
  6
CONTINUOUS
 62
     7
 10
-75.81717458548204
 20
95.48839594682478
 30
0.0
  0
VERTEX
  5
35C
  8
0
  6
CONTINUOUS
 62
     7
 10
-75.71900583616238
 20
95.44601764080467
 30
0.0
  0
VERTEX
  5
35D
  8
0
  6
CONTINUOUS
 62
     7
 10
-75.61967443127695
 20
95.42125622735868
 30
0.0
  0
VERTEX
  5
35E
  8
0
  6
CONTINUOUS
 62
     7
 10
-75.51790233288857
 20
95.4129230255933
 30
0.0
  0
SEQEND
  5
4EF
  8
0
  6
CONTINUOUS
 62
     7
  0
POLYLINE
  5
10A
  8
0
  6
CONTINUOUS
 62
     7
 66
     1
 10
0.0
 20
0.0
 30
0.0
  0
VERTEX
  5
35F
  8
0
  6
CONTINUOUS
 62
     7
 10
-96.06700063111072
 20
106.3608202615771
 30
0.0
  0
VERTEX
  5
360
  8
0
  6
CONTINUOUS
 62
     7
 10
-96.06407668080413
 20
106.3205587069568
 30
0.0
  0
VERTEX
  5
361
  8
0
  6
CONTINUOUS
 62
     7
 10
-96.05968876368841
 20
106.2817919126388
 30
0.0
  0
VERTEX
  5
362
  8
0
  6
CONTINUOUS
 62
     7
 10
-96.0539902243367
 20
106.2444868964152
 30
0.0
  0
VERTEX
  5
363
  8
0
  6
CONTINUOUS
 62
     7
 10
-96.0471209797199
 20
106.208613399587
 30
0.0
  0
VERTEX
  5
364
  8
0
  6
CONTINUOUS
 62
     7
 10
-96.03920981117052
 20
106.174143408481
 30
0.0
  0
VERTEX
  5
365
  8
0
  6
CONTINUOUS
 62
     7
 10
-96.03037620430358
 20
106.1410507717125
 30
0.0
  0
VERTEX
  5
366
  8
0
  6
CONTINUOUS
 62
     7
 10
-96.01871503240872
 20
106.1031231745976
 30
0.0
  0
VERTEX
  5
367
  8
0
  6
CONTINUOUS
 62
     7
 10
-96.00606670591792
 20
106.0671035397908
 30
0.0
  0
VERTEX
  5
368
  8
0
  6
CONTINUOUS
 62
     7
 10
-95.99260124981181
 20
106.032955293778
 30
0.0
  0
VERTEX
  5
369
  8
0
  6
CONTINUOUS
 62
     7
 10
-95.97858083184093
 20
106.0008637535313
 30
0.0
  0
VERTEX
  5
36A
  8
0
  6
CONTINUOUS
 62
     7
 10
-95.96424324560078
 20
105.9709084872897
 30
0.0
  0
VERTEX
  5
36B
  8
0
  6
CONTINUOUS
 62
     7
 10
-95.94799745329676
 20
105.9397762399704
 30
0.0
  0
VERTEX
  5
36C
  8
0
  6
CONTINUOUS
 62
     7
 10
-95.93174222464249
 20
105.9110795987994
 30
0.0
  0
VERTEX
  5
36D
  8
0
  6
CONTINUOUS
 62
     7
 10
-95.91565676301879
 20
105.8847054535364
 30
0.0
  0
VERTEX
  5
36E
  8
0
  6
CONTINUOUS
 62
     7
 10
-95.89990540780128
 20
105.8605498037085
 30
0.0
  0
VERTEX
  5
36F
  8
0
  6
CONTINUOUS
 62
     7
 10
-95.88463935916437
 20
105.8385167361944
 30
0.0
  0
VERTEX
  5
370
  8
0
  6
CONTINUOUS
 62
     7
 10
-95.8656129451284
 20
105.8127268117632
 30
0.0
  0
VERTEX
  5
371
  8
0
  6
CONTINUOUS
 62
     7
 10
-95.84794104310065
 20
105.7902444082603
 30
0.0
  0
VERTEX
  5
372
  8
0
  6
CONTINUOUS
 62
     7
 10
-95.83157649939298
 20
105.7705376444902
 30
0.0
  0
VERTEX
  5
373
  8
0
  6
CONTINUOUS
 62
     7
 10
-95.81769032280194
 20
105.7544589853889
 30
0.0
  0
VERTEX
  5
374
  8
0
  6
CONTINUOUS
 62
     7
 10
-95.80182957610847
 20
105.7367799893268
 30
0.0
  0
VERTEX
  5
375
  8
0
  6
CONTINUOUS
 62
     7
 10
-95.78393257131415
 20
105.7177000041949
 30
0.0
  0
VERTEX
  5
376
  8
0
  6
CONTINUOUS
 62
     7
 10
-95.76386976560865
 20
105.6973673481224
 30
0.0
  0
VERTEX
  5
377
  8
0
  6
CONTINUOUS
 62
     7
 10
-95.74149908876184
 20
105.6759446266688
 30
0.0
  0
VERTEX
  5
378
  8
0
  6
CONTINUOUS
 62
     7
 10
-95.71713186478281
 20
105.654015711049
 30
0.0
  0
VERTEX
  5
379
  8
0
  6
CONTINUOUS
 62
     7
 10
-95.69023041646176
 20
105.6313919168248
 30
0.0
  0
VERTEX
  5
37A
  8
0
  6
CONTINUOUS
 62
     7
 10
-95.66062273763491
 20
105.6082759238538
 30
0.0
  0
VERTEX
  5
37B
  8
0
  6
CONTINUOUS
 62
     7
 10
-95.62812231435424
 20
105.5848909006353
 30
0.0
  0
VERTEX
  5
37C
  8
0
  6
CONTINUOUS
 62
     7
 10
-95.60145136318026
 20
105.5671460895304
 30
0.0
  0
VERTEX
  5
37D
  8
0
  6
CONTINUOUS
 62
     7
 10
-95.5729084825799
 20
105.5495062326401
 30
0.0
  0
VERTEX
  5
37E
  8
0
  6
CONTINUOUS
 62
     7
 10
-95.54244742703168
 20
105.5321301859771
 30
0.0
  0
VERTEX
  5
37F
  8
0
  6
CONTINUOUS
 62
     7
 10
-95.5102661615266
 20
105.515301001043
 30
0.0
  0
VERTEX
  5
380
  8
0
  6
CONTINUOUS
 62
     7
 10
-95.47635331667468
 20
105.4991734780691
 30
0.0
  0
VERTEX
  5
381
  8
0
  6
CONTINUOUS
 62
     7
 10
-95.440659813669
 20
105.483889876222
 30
0.0
  0
VERTEX
  5
382
  8
0
  6
CONTINUOUS
 62
     7
 10
-95.40860958836649
 20
105.4715762057852
 30
0.0
  0
VERTEX
  5
383
  8
0
  6
CONTINUOUS
 62
     7
 10
-95.37518036017066
 20
105.4600962818111
 30
0.0
  0
VERTEX
  5
384
  8
0
  6
CONTINUOUS
 62
     7
 10
-95.34381354805026
 20
105.4505467354387
 30
0.0
  0
SEQEND
  5
4F0
  8
0
  6
CONTINUOUS
 62
     7
  0
LINE
  5
10B
  8
0
  6
CONTINUOUS
 62
     7
 10
-95.34381354805026
 20
105.4505467354387
 30
0.0
 11
-95.18648112028856
 21
105.4194115641612
 31
0.0
  0
ARC
  5
10C
  8
0
  6
CONTINUOUS
 62
     7
 10
-96.18860449096506
 20
116.9129230255933
 30
0.0
 40
0.4999999999999994
 50
182.9999999999979
 51
211.9919483935163
  0
ENDBLK
  8
0
  0
BLOCK
  8
0
  2
D_FRAME_VIEW_17356
 70
     0
 10
0.0
 20
0.0
 30
0.0
  0
POLYLINE
  5
113
  8
0
  6
CONTINUOUS
 62
     7
 66
     1
 10
0.0
 20
0.0
 30
0.0
  0
VERTEX
  5
387
  8
0
  6
CONTINUOUS
 62
     7
 10
-142.1736887506483
 20
171.8640825305054
 30
0.0
  0
VERTEX
  5
388
  8
0
  6
CONTINUOUS
 62
     7
 10
-142.1963848399256
 20
171.8562059286083
 30
0.0
  0
VERTEX
  5
389
  8
0
  6
CONTINUOUS
 62
     7
 10
-142.2195027169538
 20
171.8494196780815
 30
0.0
  0
VERTEX
  5
38A
  8
0
  6
CONTINUOUS
 62
     7
 10
-142.2429605201141
 20
171.8437395246039
 30
0.0
  0
VERTEX
  5
38B
  8
0
  6
CONTINUOUS
 62
     7
 10
-142.2666763877874
 20
171.8391812138548
 30
0.0
  0
VERTEX
  5
38C
  8
0
  6
CONTINUOUS
 62
     7
 10
-142.2905684583548
 20
171.8357604915131
 30
0.0
  0
VERTEX
  5
38D
  8
0
  6
CONTINUOUS
 62
     7
 10
-142.3145548701973
 20
171.833493103258
 30
0.0
  0
VERTEX
  5
38E
  8
0
  6
CONTINUOUS
 62
     7
 10
-142.338553761696
 20
171.8323947947686
 30
0.0
  0
VERTEX
  5
38F
  8
0
  6
CONTINUOUS
 62
     7
 10
-142.362577691461
 20
171.8324746480678
 30
0.0
  0
VERTEX
  5
390
  8
0
  6
CONTINUOUS
 62
     7
 10
-142.3866387272668
 20
171.8337230862076
 30
0.0
  0
VERTEX
  5
391
  8
0
  6
CONTINUOUS
 62
     7
 10
-142.4106544014041
 20
171.8361278636501
 30
0.0
  0
VERTEX
  5
392
  8
0
  6
CONTINUOUS
 62
     7
 10
-142.4345422461639
 20
171.8396767348577
 30
0.0
  0
VERTEX
  5
393
  8
0
  6
CONTINUOUS
 62
     7
 10
-142.4582197938368
 20
171.8443574542924
 30
0.0
  0
VERTEX
  5
394
  8
0
  6
CONTINUOUS
 62
     7
 10
-142.4816045767137
 20
171.8501577764166
 30
0.0
  0
VERTEX
  5
395
  8
0
  6
CONTINUOUS
 62
     7
 10
-142.5046141270854
 20
171.8570654556924
 30
0.0
  0
VERTEX
  5
396
  8
0
  6
CONTINUOUS
 62
     7
 10
-142.5272563459283
 20
171.8650928505064
 30
0.0
  0
VERTEX
  5
397
  8
0
  6
CONTINUOUS
 62
     7
 10
-142.5495467695244
 20
171.8742351760608
 30
0.0
  0
VERTEX
  5
398
  8
0
  6
CONTINUOUS
 62
     7
 10
-142.5714116432142
 20
171.8844535756711
 30
0.0
  0
VERTEX
  5
399
  8
0
  6
CONTINUOUS
 62
     7
 10
-142.5927772123384
 20
171.8957091926527
 30
0.0
  0
VERTEX
  5
39A
  8
0
  6
CONTINUOUS
 62
     7
 10
-142.6135697222375
 20
171.9079631703212
 30
0.0
  0
VERTEX
  5
39B
  8
0
  6
CONTINUOUS
 62
     7
 10
-142.6337154182521
 20
171.921176651992
 30
0.0
  0
VERTEX
  5
39C
  8
0
  6
CONTINUOUS
 62
     7
 10
-142.6531405457229
 20
171.9353107809806
 30
0.0
  0
VERTEX
  5
39D
  8
0
  6
CONTINUOUS
 62
     7
 10
-142.6718489241118
 20
171.9503802047952
 30
0.0
  0
VERTEX
  5
39E
  8
0
  6
CONTINUOUS
 62
     7
 10
-142.6898563180307
 20
171.9663852099578
 30
0.0
  0
VERTEX
  5
39F
  8
0
  6
CONTINUOUS
 62
     7
 10
-142.7071060037939
 20
171.9832647192088
 30
0.0
  0
VERTEX
  5
3A0
  8
0
  6
CONTINUOUS
 62
     7
 10
-142.7235412577161
 20
172.0009576552887
 30
0.0
  0
VERTEX
  5
3A1
  8
0
  6
CONTINUOUS
 62
     7
 10
-142.7391053561117
 20
172.0194029409382
 30
0.0
  0
VERTEX
  5
3A2
  8
0
  6
CONTINUOUS
 62
     7
 10
-142.7537415752952
 20
172.0385394988978
 30
0.0
  0
VERTEX
  5
3A3
  8
0
  6
CONTINUOUS
 62
     7
 10
-142.7673931915812
 20
172.058306251908
 30
0.0
  0
VERTEX
  5
3A4
  8
0
  6
CONTINUOUS
 62
     7
 10
-142.7802945225059
 20
172.0791016577453
 30
0.0
  0
VERTEX
  5
3A5
  8
0
  6
CONTINUOUS
 62
     7
 10
-142.7921771345802
 20
172.1005291314073
 30
0.0
  0
VERTEX
  5
3A6
  8
0
  6
CONTINUOUS
 62
     7
 10
-142.8030002932559
 20
172.1225107689542
 30
0.0
  0
VERTEX
  5
3A7
  8
0
  6
CONTINUOUS
 62
     7
 10
-142.8127232639848
 20
172.1449686664459
 30
0.0
  0
SEQEND
  5
4F1
  8
0
  6
CONTINUOUS
 62
     7
  0
CIRCLE
  5
114
  8
0
  6
CONTINUOUS
 62
     7
 10
-136.7679023328886
 20
157.4397688056272
 30
0.0
 40
10.49749999999999
  0
ARC
  5
115
  8
0
  6
CONTINUOUS
 62
     7
 10
-136.7679023328886
 20
157.4397688056272
 30
0.0
 40
18.99999999999999
 50
228.8604895851009
 51
311.1395104148992
  0
LINE
  5
116
  8
0
  6
CONTINUOUS
 62
     7
 10
-149.2679023328886
 20
143.130680784373
 30
0.0
 11
-149.2679023328886
 21
171.7488568268813
 31
0.0
  0
ARC
  5
117
  8
0
  6
CONTINUOUS
 62
     7
 10
-136.7679023328886
 20
157.4397688056272
 30
0.0
 40
18.99999999999998
 50
48.86048958510082
 51
131.1395104148992
  0
LINE
  5
118
  8
0
  6
CONTINUOUS
 62
     7
 10
-124.2679023328886
 20
171.7488568268813
 30
0.0
 11
-124.2679023328886
 21
143.130680784373
 31
0.0
  0
POLYLINE
  5
119
  8
0
  6
CONTINUOUS
 62
     7
 66
     1
 10
0.0
 20
0.0
 30
0.0
  0
VERTEX
  5
3A8
  8
0
  6
CONTINUOUS
 62
     7
 10
-130.7230814017924
 20
172.1449686664459
 30
0.0
  0
VERTEX
  5
3A9
  8
0
  6
CONTINUOUS
 62
     7
 10
-130.732624522009
 20
172.1229213949032
 30
0.0
  0
VERTEX
  5
3AA
  8
0
  6
CONTINUOUS
 62
     7
 10
-130.7432561587514
 20
172.1013006239943
 30
0.0
  0
VERTEX
  5
3AB
  8
0
  6
CONTINUOUS
 62
     7
 10
-130.7549325609894
 20
172.0801773121464
 30
0.0
  0
VERTEX
  5
3AC
  8
0
  6
CONTINUOUS
 62
     7
 10
-130.7676099776925
 20
172.0596224177868
 30
0.0
  0
VERTEX
  5
3AD
  8
0
  6
CONTINUOUS
 62
     7
 10
-130.7812446578302
 20
172.0397068993429
 30
0.0
  0
VERTEX
  5
3AE
  8
0
  6
CONTINUOUS
 62
     7
 10
-130.7957928503722
 20
172.0205017152418
 30
0.0
  0
VERTEX
  5
3AF
  8
0
  6
CONTINUOUS
 62
     7
 10
-130.811210804288
 20
172.002077823911
 30
0.0
  0
VERTEX
  5
3B0
  8
0
  6
CONTINUOUS
 62
     7
 10
-130.8275137024394
 20
171.9844321136738
 30
0.0
  0
VERTEX
  5
3B1
  8
0
  6
CONTINUOUS
 62
     7
 10
-130.8447026487501
 20
171.9675492179929
 30
0.0
  0
VERTEX
  5
3B2
  8
0
  6
CONTINUOUS
 62
     7
 10
-130.8627128597596
 20
171.95148161524
 30
0.0
  0
VERTEX
  5
3B3
  8
0
  6
CONTINUOUS
 62
     7
 10
-130.8814795520073
 20
171.9362817837871
 30
0.0
  0
VERTEX
  5
3B4
  8
0
  6
CONTINUOUS
 62
     7
 10
-130.9009379420328
 20
171.9220022020057
 30
0.0
  0
VERTEX
  5
3B5
  8
0
  6
CONTINUOUS
 62
     7
 10
-130.9210232463757
 20
171.9086953482677
 30
0.0
  0
VERTEX
  5
3B6
  8
0
  6
CONTINUOUS
 62
     7
 10
-130.9416706815755
 20
171.896413700945
 30
0.0
  0
VERTEX
  5
3B7
  8
0
  6
CONTINUOUS
 62
     7
 10
-130.9628946950523
 20
171.8851597952384
 30
0.0
  0
VERTEX
  5
3B8
  8
0
  6
CONTINUOUS
 62
     7
 10
-130.984702266632
 20
171.8749189494471
 30
0.0
  0
VERTEX
  5
3B9
  8
0
  6
CONTINUOUS
 62
     7
 10
-131.0070148984425
 20
171.8657192291335
 30
0.0
  0
VERTEX
  5
3BA
  8
0
  6
CONTINUOUS
 62
     7
 10
-131.0297540926115
 20
171.8575886998597
 30
0.0
  0
VERTEX
  5
3BB
  8
0
  6
CONTINUOUS
 62
     7
 10
-131.0528413512668
 20
171.8505554271877
 30
0.0
  0
VERTEX
  5
3BC
  8
0
  6
CONTINUOUS
 62
     7
 10
-131.076198176536
 20
171.8446474766796
 30
0.0
  0
VERTEX
  5
3BD
  8
0
  6
CONTINUOUS
 62
     7
 10
-131.0997460705472
 20
171.8398929138978
 30
0.0
  0
VERTEX
  5
3BE
  8
0
  6
CONTINUOUS
 62
     7
 10
-131.1234984074692
 20
171.8362988289288
 30
0.0
  0
VERTEX
  5
3BF
  8
0
  6
CONTINUOUS
 62
     7
 10
-131.1474660578301
 20
171.8338538008815
 30
0.0
  0
VERTEX
  5
3C0
  8
0
  6
CONTINUOUS
 62
     7
 10
-131.1715656683766
 20
171.8325583229893
 30
0.0
  0
VERTEX
  5
3C1
  8
0
  6
CONTINUOUS
 62
     7
 10
-131.1957138858552
 20
171.8324128884859
 30
0.0
  0
VERTEX
  5
3C2
  8
0
  6
CONTINUOUS
 62
     7
 10
-131.2198273570126
 20
171.833417990605
 30
0.0
  0
VERTEX
  5
3C3
  8
0
  6
CONTINUOUS
 62
     7
 10
-131.2438227285956
 20
171.83557412258
 30
0.0
  0
VERTEX
  5
3C4
  8
0
  6
CONTINUOUS
 62
     7
 10
-131.2676166473509
 20
171.8388817776447
 30
0.0
  0
VERTEX
  5
3C5
  8
0
  6
CONTINUOUS
 62
     7
 10
-131.2916611148563
 20
171.8434377436014
 30
0.0
  0
VERTEX
  5
3C6
  8
0
  6
CONTINUOUS
 62
     7
 10
-131.3154824413988
 20
171.8491716339788
 30
0.0
  0
VERTEX
  5
3C7
  8
0
  6
CONTINUOUS
 62
     7
 10
-131.3389956878617
 20
171.8560607844044
 30
0.0
  0
VERTEX
  5
3C8
  8
0
  6
CONTINUOUS
 62
     7
 10
-131.3621159151289
 20
171.8640825305054
 30
0.0
  0
SEQEND
  5
4F2
  8
0
  6
CONTINUOUS
 62
     7
  0
ARC
  5
11A
  8
0
  6
CONTINUOUS
 62
     7
 10
-136.7679023328886
 20
157.4397688056272
 30
0.0
 40
15.40400445430165
 50
69.45555649172402
 51
110.544443508276
  0
POLYLINE
  5
11B
  8
0
  6
CONTINUOUS
 62
     7
 66
     1
 10
0.0
 20
0.0
 30
0.0
  0
VERTEX
  5
3C9
  8
0
  6
CONTINUOUS
 62
     7
 10
-146.6719067871902
 20
166.5539853284759
 30
0.0
  0
VERTEX
  5
3CA
  8
0
  6
CONTINUOUS
 62
     7
 10
-146.671317537664
 20
166.5299622747974
 30
0.0
  0
VERTEX
  5
3CB
  8
0
  6
CONTINUOUS
 62
     7
 10
-146.6695590937731
 20
166.505926886146
 30
0.0
  0
VERTEX
  5
3CC
  8
0
  6
CONTINUOUS
 62
     7
 10
-146.666645412549
 20
166.481961360871
 30
0.0
  0
VERTEX
  5
3CD
  8
0
  6
CONTINUOUS
 62
     7
 10
-146.6625904510233
 20
166.4581478973219
 30
0.0
  0
VERTEX
  5
3CE
  8
0
  6
CONTINUOUS
 62
     7
 10
-146.6574081662277
 20
166.434568693848
 30
0.0
  0
VERTEX
  5
3CF
  8
0
  6
CONTINUOUS
 62
     7
 10
-146.6511125151936
 20
166.4113059487985
 30
0.0
  0
VERTEX
  5
3D0
  8
0
  6
CONTINUOUS
 62
     7
 10
-146.6437174549526
 20
166.3884418605229
 30
0.0
  0
VERTEX
  5
3D1
  8
0
  6
CONTINUOUS
 62
     7
 10
-146.6352099722394
 20
166.3659677194325
 30
0.0
  0
VERTEX
  5
3D2
  8
0
  6
CONTINUOUS
 62
     7
 10
-146.6255948037593
 20
166.343869022304
 30
0.0
  0
VERTEX
  5
3D3
  8
0
  6
CONTINUOUS
 62
     7
 10
-146.6149123483942
 20
166.3222187549981
 30
0.0
  0
VERTEX
  5
3D4
  8
0
  6
CONTINUOUS
 62
     7
 10
-146.6032030050263
 20
166.3010899033756
 30
0.0
  0
VERTEX
  5
3D5
  8
0
  6
CONTINUOUS
 62
     7
 10
-146.5905071725374
 20
166.2805554532972
 30
0.0
  0
VERTEX
  5
3D6
  8
0
  6
CONTINUOUS
 62
     7
 10
-146.5768652498097
 20
166.2606883906238
 30
0.0
  0
VERTEX
  5
3D7
  8
0
  6
CONTINUOUS
 62
     7
 10
-146.5623176357251
 20
166.241561701216
 30
0.0
  0
VERTEX
  5
3D8
  8
0
  6
CONTINUOUS
 62
     7
 10
-146.5468523457726
 20
166.2231750723783
 30
0.0
  0
VERTEX
  5
3D9
  8
0
  6
CONTINUOUS
 62
     7
 10
-146.5304662531646
 20
166.2055093511401
 30
0.0
  0
VERTEX
  5
3DA
  8
0
  6
CONTINUOUS
 62
     7
 10
-146.5132216447687
 20
166.1886200138015
 30
0.0
  0
VERTEX
  5
3DB
  8
0
  6
CONTINUOUS
 62
     7
 10
-146.4951808074527
 20
166.1725625366624
 30
0.0
  0
VERTEX
  5
3DC
  8
0
  6
CONTINUOUS
 62
     7
 10
-146.4764060280843
 20
166.157392396023
 30
0.0
  0
VERTEX
  5
3DD
  8
0
  6
CONTINUOUS
 62
     7
 10
-146.4569595935314
 20
166.1431650681832
 30
0.0
  0
VERTEX
  5
3DE
  8
0
  6
CONTINUOUS
 62
     7
 10
-146.4369037906616
 20
166.1299360294431
 30
0.0
  0
VERTEX
  5
3DF
  8
0
  6
CONTINUOUS
 62
     7
 10
-146.4162280110357
 20
166.1177093707989
 30
0.0
  0
VERTEX
  5
3E0
  8
0
  6
CONTINUOUS
 62
     7
 10
-146.3949222462874
 20
166.1064675211927
 30
0.0
  0
VERTEX
  5
3E1
  8
0
  6
CONTINUOUS
 62
     7
 10
-146.3730636082584
 20
166.0962421662492
 30
0.0
  0
VERTEX
  5
3E2
  8
0
  6
CONTINUOUS
 62
     7
 10
-146.3507292087902
 20
166.0870649915931
 30
0.0
  0
VERTEX
  5
3E3
  8
0
  6
CONTINUOUS
 62
     7
 10
-146.3279961597244
 20
166.0789676828491
 30
0.0
  0
VERTEX
  5
3E4
  8
0
  6
CONTINUOUS
 62
     7
 10
-146.3049415729024
 20
166.0719819256418
 30
0.0
  0
VERTEX
  5
3E5
  8
0
  6
CONTINUOUS
 62
     7
 10
-146.281642560166
 20
166.0661394055961
 30
0.0
  0
VERTEX
  5
3E6
  8
0
  6
CONTINUOUS
 62
     7
 10
-146.258087324339
 20
166.0614469078363
 30
0.0
  0
VERTEX
  5
3E7
  8
0
  6
CONTINUOUS
 62
     7
 10
-146.2342637028252
 20
166.0578919931351
 30
0.0
  0
VERTEX
  5
3E8
  8
0
  6
CONTINUOUS
 62
     7
 10
-146.210254912204
 20
166.0554790064458
 30
0.0
  0
VERTEX
  5
3E9
  8
0
  6
CONTINUOUS
 62
     7
 10
-146.1861441690544
 20
166.0542122927216
 30
0.0
  0
VERTEX
  5
3EA
  8
0
  6
CONTINUOUS
 62
     7
 10
-146.1620146899557
 20
166.0540961969158
 30
0.0
  0
VERTEX
  5
3EB
  8
0
  6
CONTINUOUS
 62
     7
 10
-146.1379496914871
 20
166.0551350639816
 30
0.0
  0
VERTEX
  5
3EC
  8
0
  6
CONTINUOUS
 62
     7
 10
-146.1140323902277
 20
166.0573332388722
 30
0.0
  0
VERTEX
  5
3ED
  8
0
  6
CONTINUOUS
 62
     7
 10
-146.0902497495516
 20
166.0607016850472
 30
0.0
  0
VERTEX
  5
3EE
  8
0
  6
CONTINUOUS
 62
     7
 10
-146.0665903689214
 20
166.0652323895814
 30
0.0
  0
VERTEX
  5
3EF
  8
0
  6
CONTINUOUS
 62
     7
 10
-146.0431341924919
 20
166.0709019011355
 30
0.0
  0
VERTEX
  5
3F0
  8
0
  6
CONTINUOUS
 62
     7
 10
-146.019961164418
 20
166.0776867683707
 30
0.0
  0
VERTEX
  5
3F1
  8
0
  6
CONTINUOUS
 62
     7
 10
-145.9971512288548
 20
166.085563539948
 30
0.0
  0
VERTEX
  5
3F2
  8
0
  6
CONTINUOUS
 62
     7
 10
-145.9747843299571
 20
166.0945087645283
 30
0.0
  0
VERTEX
  5
3F3
  8
0
  6
CONTINUOUS
 62
     7
 10
-145.9529404118797
 20
166.1044989907726
 30
0.0
  0
VERTEX
  5
3F4
  8
0
  6
CONTINUOUS
 62
     7
 10
-145.9309691056054
 20
166.1159030388822
 30
0.0
  0
VERTEX
  5
3F5
  8
0
  6
CONTINUOUS
 62
     7
 10
-145.9095298712718
 20
166.1284293411927
 30
0.0
  0
VERTEX
  5
3F6
  8
0
  6
CONTINUOUS
 62
     7
 10
-145.8886964874112
 20
166.1420243598814
 30
0.0
  0
VERTEX
  5
3F7
  8
0
  6
CONTINUOUS
 62
     7
 10
-145.8685427325556
 20
166.1566345571256
 30
0.0
  0
VERTEX
  5
3F8
  8
0
  6
CONTINUOUS
 62
     7
 10
-145.8491423852372
 20
166.1722063951026
 30
0.0
  0
VERTEX
  5
3F9
  8
0
  6
CONTINUOUS
 62
     7
 10
-145.8305692239882
 20
166.1886863359898
 30
0.0
  0
VERTEX
  5
3FA
  8
0
  6
CONTINUOUS
 62
     7
 10
-145.8128970273407
 20
166.2060208419644
 30
0.0
  0
SEQEND
  5
4F3
  8
0
  6
CONTINUOUS
 62
     7
  0
ARC
  5
11C
  8
0
  6
CONTINUOUS
 62
     7
 10
-136.7679023328886
 20
157.4397688056272
 30
0.0
 40
16.40400445430166
 50
232.8606734673339
 51
262.6590550709395
  0
ARC
  5
11D
  8
0
  6
CONTINUOUS
 62
     7
 10
-136.7679023328886
 20
157.4397688056272
 30
0.0
 40
16.40400445430166
 50
112.3352944111179
 51
127.1393265326662
  0
ARC
  5
11E
  8
0
  6
CONTINUOUS
 62
     7
 10
-136.7679023328886
 20
157.4397688056272
 30
0.0
 40
14.90400445430165
 50
264.0528827486144
 51
275.9471172513856
  0
LINE
  5
11F
  8
0
  6
CONTINUOUS
 62
     7
 10
-134.6719067871902
 20
142.1186884214523
 30
0.0
 11
-134.6719067871902
 21
141.1702216450833
 31
0.0
  0
LINE
  5
120
  8
0
  6
CONTINUOUS
 62
     7
 10
-126.8638978785869
 20
166.553985328476
 30
0.0
 11
-126.8638978785869
 21
170.516544322012
 31
0.0
  0
ARC
  5
121
  8
0
  6
CONTINUOUS
 62
     7
 10
-136.7679023328886
 20
157.4397688056272
 30
0.0
 40
16.40400445430166
 50
277.3409449290605
 51
307.139326532666
  0
LINE
  5
122
  8
0
  6
CONTINUOUS
 62
     7
 10
-146.6719067871902
 20
144.3629932892424
 30
0.0
 11
-146.6719067871902
 21
148.3255522827784
 31
0.0
  0
LINE
  5
123
  8
0
  6
CONTINUOUS
 62
     7
 10
-126.8638978785869
 20
148.3255522827784
 30
0.0
 11
-126.8638978785869
 21
144.3629932892424
 31
0.0
  0
LINE
  5
124
  8
0
  6
CONTINUOUS
 62
     7
 10
-149.3813516141684
 20
145.4978859150737
 30
0.0
 11
-149.3730814753485
 21
144.0791457345226
 31
0.0
  0
LINE
  5
125
  8
0
  6
CONTINUOUS
 62
     7
 10
-149.3813516141684
 20
149.268310615744
 30
0.0
 11
-149.3813516141684
 21
145.4978859150737
 31
0.0
  0
LINE
  5
126
  8
0
  6
CONTINUOUS
 62
     7
 10
-149.3813516141684
 20
165.6112269955103
 30
0.0
 11
-149.3813516141684
 21
149.268310615744
 31
0.0
  0
LINE
  5
127
  8
0
  6
CONTINUOUS
 62
     7
 10
-149.3813516141684
 20
169.3816516961806
 30
0.0
 11
-149.3813516141684
 21
165.6112269955103
 31
0.0
  0
LINE
  5
128
  8
0
  6
CONTINUOUS
 62
     7
 10
-149.3730814753485
 20
170.8003918767318
 30
0.0
 11
-149.3813516141684
 21
169.3816516961806
 31
0.0
  0
LINE
  5
129
  8
0
  6
CONTINUOUS
 62
     7
 10
-149.2679023328886
 20
171.7488568268813
 30
0.0
 11
-149.3730814753485
 21
170.8003918767318
 31
0.0
  0
LINE
  5
12A
  8
0
  6
CONTINUOUS
 62
     7
 10
-149.3730814753485
 20
144.0791457345226
 30
0.0
 11
-149.2679023328886
 21
143.130680784373
 31
0.0
  0
LINE
  5
12B
  8
0
  6
CONTINUOUS
 62
     7
 10
-124.1544530516087
 20
149.268310615744
 30
0.0
 11
-124.1544530516087
 21
165.6112269955103
 31
0.0
  0
LINE
  5
12C
  8
0
  6
CONTINUOUS
 62
     7
 10
-124.1544530516087
 20
145.4978859150737
 30
0.0
 11
-124.1544530516087
 21
149.268310615744
 31
0.0
  0
LINE
  5
12D
  8
0
  6
CONTINUOUS
 62
     7
 10
-124.1627231904286
 20
144.0791457345226
 30
0.0
 11
-124.1544530516087
 21
145.4978859150737
 31
0.0
  0
LINE
  5
12E
  8
0
  6
CONTINUOUS
 62
     7
 10
-124.1627231904286
 20
170.8003918767318
 30
0.0
 11
-124.2679023328886
 21
171.7488568268813
 31
0.0
  0
LINE
  5
12F
  8
0
  6
CONTINUOUS
 62
     7
 10
-124.1544530516087
 20
169.3816516961806
 30
0.0
 11
-124.1627231904286
 21
170.8003918767318
 31
0.0
  0
LINE
  5
130
  8
0
  6
CONTINUOUS
 62
     7
 10
-124.1544530516087
 20
165.6112269955103
 30
0.0
 11
-124.1544530516087
 21
169.3816516961806
 31
0.0
  0
LINE
  5
131
  8
0
  6
CONTINUOUS
 62
     7
 10
-124.2679023328886
 20
143.130680784373
 30
0.0
 11
-124.1627231904286
 21
144.0791457345226
 31
0.0
  0
LINE
  5
132
  8
0
  6
CONTINUOUS
 62
     7
 10
-146.6719067871902
 20
170.516544322012
 30
0.0
 11
-146.6719067871902
 21
166.5539853284759
 31
0.0
  0
ARC
  5
133
  8
0
  6
CONTINUOUS
 62
     7
 10
-136.7679023328886
 20
157.4397688056272
 30
0.0
 40
16.40400445430166
 50
52.86067346733392
 51
67.66470558888216
  0
ARC
  5
134
  8
0
  6
CONTINUOUS
 62
     7
 10
-136.7679023328886
 20
157.4397688056272
 30
0.0
 40
12.59599554569836
 50
224.10340502959
 51
315.89659497041
  0
LINE
  5
135
  8
0
  6
CONTINUOUS
 62
     7
 10
-142.8127232639848
 20
172.1449686664459
 30
0.0
 11
-143.0018508592181
 21
172.6130758910263
 31
0.0
  0
LINE
  5
136
  8
0
  6
CONTINUOUS
 62
     7
 10
-130.533953806559
 20
172.6130758910263
 30
0.0
 11
-130.7230814017924
 21
172.1449686664459
 31
0.0
  0
LINE
  5
137
  8
0
  6
CONTINUOUS
 62
     7
 10
-138.8638978785869
 20
141.1702216450833
 30
0.0
 11
-138.8638978785869
 21
142.1186884214523
 31
0.0
  0
POLYLINE
  5
138
  8
0
  6
CONTINUOUS
 62
     7
 66
     1
 10
0.0
 20
0.0
 30
0.0
  0
VERTEX
  5
3FB
  8
0
  6
CONTINUOUS
 62
     7
 10
-145.8128970273406
 20
148.6735167692899
 30
0.0
  0
VERTEX
  5
3FC
  8
0
  6
CONTINUOUS
 62
     7
 10
-145.830039134266
 20
148.6903572709321
 30
0.0
  0
VERTEX
  5
3FD
  8
0
  6
CONTINUOUS
 62
     7
 10
-145.8480294066451
 20
148.7063929229184
 30
0.0
  0
VERTEX
  5
3FE
  8
0
  6
CONTINUOUS
 62
     7
 10
-145.8668006157538
 20
148.7215744133238
 30
0.0
  0
VERTEX
  5
3FF
  8
0
  6
CONTINUOUS
 62
     7
 10
-145.8862855328678
 20
148.7358524302229
 30
0.0
  0
VERTEX
  5
400
  8
0
  6
CONTINUOUS
 62
     7
 10
-145.9064169292628
 20
148.7491776616907
 30
0.0
  0
VERTEX
  5
401
  8
0
  6
CONTINUOUS
 62
     7
 10
-145.9271275762147
 20
148.7615007958019
 30
0.0
  0
VERTEX
  5
402
  8
0
  6
CONTINUOUS
 62
     7
 10
-145.9483502449991
 20
148.7727725206313
 30
0.0
  0
VERTEX
  5
403
  8
0
  6
CONTINUOUS
 62
     7
 10
-145.9701003417383
 20
148.7829900337509
 30
0.0
  0
VERTEX
  5
404
  8
0
  6
CONTINUOUS
 62
     7
 10
-145.9923845586685
 20
148.7921670462386
 30
0.0
  0
VERTEX
  5
405
  8
0
  6
CONTINUOUS
 62
     7
 10
-146.0151230910507
 20
148.8002792638688
 30
0.0
  0
VERTEX
  5
406
  8
0
  6
CONTINUOUS
 62
     7
 10
-146.0382361341463
 20
148.8073023924161
 30
0.0
  0
VERTEX
  5
407
  8
0
  6
CONTINUOUS
 62
     7
 10
-146.0616438832164
 20
148.8132121376549
 30
0.0
  0
VERTEX
  5
408
  8
0
  6
CONTINUOUS
 62
     7
 10
-146.0852665335223
 20
148.8179842053597
 30
0.0
  0
VERTEX
  5
409
  8
0
  6
CONTINUOUS
 62
     7
 10
-146.1090242803253
 20
148.821594301305
 30
0.0
  0
VERTEX
  5
40A
  8
0
  6
CONTINUOUS
 62
     7
 10
-146.1329259470139
 20
148.8240343093359
 30
0.0
  0
VERTEX
  5
40B
  8
0
  6
CONTINUOUS
 62
     7
 10
-146.1569871086305
 20
148.82531580683
 30
0.0
  0
VERTEX
  5
40C
  8
0
  6
CONTINUOUS
 62
     7
 10
-146.1811244288787
 20
148.8254423059788
 30
0.0
  0
VERTEX
  5
40D
  8
0
  6
CONTINUOUS
 62
     7
 10
-146.2052545714625
 20
148.8244173189737
 30
0.0
  0
VERTEX
  5
40E
  8
0
  6
CONTINUOUS
 62
     7
 10
-146.2292942000855
 20
148.8222443580062
 30
0.0
  0
VERTEX
  5
40F
  8
0
  6
CONTINUOUS
 62
     7
 10
-146.2531599784514
 20
148.8189269352678
 30
0.0
  0
VERTEX
  5
410
  8
0
  6
CONTINUOUS
 62
     7
 10
-146.2767685702642
 20
148.81446856295
 30
0.0
  0
VERTEX
  5
411
  8
0
  6
CONTINUOUS
 62
     7
 10
-146.3001247460901
 20
148.8088589203808
 30
0.0
  0
VERTEX
  5
412
  8
0
  6
CONTINUOUS
 62
     7
 10
-146.3232479215038
 20
148.8021036596893
 30
0.0
  0
VERTEX
  5
413
  8
0
  6
CONTINUOUS
 62
     7
 10
-146.346060671871
 20
148.7942336943143
 30
0.0
  0
VERTEX
  5
414
  8
0
  6
CONTINUOUS
 62
     7
 10
-146.3684855725573
 20
148.7852799376947
 30
0.0
  0
VERTEX
  5
415
  8
0
  6
CONTINUOUS
 62
     7
 10
-146.3904451989281
 20
148.7752733032694
 30
0.0
  0
VERTEX
  5
416
  8
0
  6
CONTINUOUS
 62
     7
 10
-146.4118621263491
 20
148.7642447044772
 30
0.0
  0
VERTEX
  5
417
  8
0
  6
CONTINUOUS
 62
     7
 10
-146.4326589301859
 20
148.7522250547569
 30
0.0
  0
VERTEX
  5
418
  8
0
  6
CONTINUOUS
 62
     7
 10
-146.452839359763
 20
148.7392012714411
 30
0.0
  0
VERTEX
  5
419
  8
0
  6
CONTINUOUS
 62
     7
 10
-146.4724208059066
 20
148.7251738223811
 30
0.0
  0
VERTEX
  5
41A
  8
0
  6
CONTINUOUS
 62
     7
 10
-146.4913404881513
 20
148.7101975025649
 30
0.0
  0
VERTEX
  5
41B
  8
0
  6
CONTINUOUS
 62
     7
 10
-146.509535626032
 20
148.6943271069804
 30
0.0
  0
VERTEX
  5
41C
  8
0
  6
CONTINUOUS
 62
     7
 10
-146.5269434390832
 20
148.6776174306156
 30
0.0
  0
VERTEX
  5
41D
  8
0
  6
CONTINUOUS
 62
     7
 10
-146.5435011468397
 20
148.6601232684584
 30
0.0
  0
VERTEX
  5
41E
  8
0
  6
CONTINUOUS
 62
     7
 10
-146.5591459688361
 20
148.6418994154966
 30
0.0
  0
VERTEX
  5
41F
  8
0
  6
CONTINUOUS
 62
     7
 10
-146.5738796364701
 20
148.622928926026
 30
0.0
  0
VERTEX
  5
420
  8
0
  6
CONTINUOUS
 62
     7
 10
-146.5877159128533
 20
148.6032096198307
 30
0.0
  0
VERTEX
  5
421
  8
0
  6
CONTINUOUS
 62
     7
 10
-146.6006137123785
 20
148.5828139745364
 30
0.0
  0
VERTEX
  5
422
  8
0
  6
CONTINUOUS
 62
     7
 10
-146.6125319494388
 20
148.5618144677686
 30
0.0
  0
VERTEX
  5
423
  8
0
  6
CONTINUOUS
 62
     7
 10
-146.623429538427
 20
148.5402835771527
 30
0.0
  0
VERTEX
  5
424
  8
0
  6
CONTINUOUS
 62
     7
 10
-146.6332653937363
 20
148.5182937803145
 30
0.0
  0
VERTEX
  5
425
  8
0
  6
CONTINUOUS
 62
     7
 10
-146.6419984297594
 20
148.4959175548793
 30
0.0
  0
VERTEX
  5
426
  8
0
  6
CONTINUOUS
 62
     7
 10
-146.649838984216
 20
148.4724374288637
 30
0.0
  0
VERTEX
  5
427
  8
0
  6
CONTINUOUS
 62
     7
 10
-146.6565164268732
 20
148.4485217273857
 30
0.0
  0
VERTEX
  5
428
  8
0
  6
CONTINUOUS
 62
     7
 10
-146.6620150384175
 20
148.4242602417231
 30
0.0
  0
VERTEX
  5
429
  8
0
  6
CONTINUOUS
 62
     7
 10
-146.666319099535
 20
148.3997427631534
 30
0.0
  0
VERTEX
  5
42A
  8
0
  6
CONTINUOUS
 62
     7
 10
-146.6694128909121
 20
148.3750590829543
 30
0.0
  0
VERTEX
  5
42B
  8
0
  6
CONTINUOUS
 62
     7
 10
-146.6712806932351
 20
148.3502989924034
 30
0.0
  0
VERTEX
  5
42C
  8
0
  6
CONTINUOUS
 62
     7
 10
-146.6719067871902
 20
148.3255522827784
 30
0.0
  0
SEQEND
  5
4F4
  8
0
  6
CONTINUOUS
 62
     7
  0
POLYLINE
  5
139
  8
0
  6
CONTINUOUS
 62
     7
 66
     1
 10
0.0
 20
0.0
 30
0.0
  0
VERTEX
  5
42D
  8
0
  6
CONTINUOUS
 62
     7
 10
-126.8638978785869
 20
148.3255522827784
 30
0.0
  0
VERTEX
  5
42E
  8
0
  6
CONTINUOUS
 62
     7
 10
-126.8644871281132
 20
148.349575336457
 30
0.0
  0
VERTEX
  5
42F
  8
0
  6
CONTINUOUS
 62
     7
 10
-126.8662455720041
 20
148.3736107251084
 30
0.0
  0
VERTEX
  5
430
  8
0
  6
CONTINUOUS
 62
     7
 10
-126.8691592532282
 20
148.3975762503833
 30
0.0
  0
VERTEX
  5
431
  8
0
  6
CONTINUOUS
 62
     7
 10
-126.8732142147538
 20
148.4213897139324
 30
0.0
  0
VERTEX
  5
432
  8
0
  6
CONTINUOUS
 62
     7
 10
-126.8783964995495
 20
148.4449689174064
 30
0.0
  0
VERTEX
  5
433
  8
0
  6
CONTINUOUS
 62
     7
 10
-126.8846921505836
 20
148.4682316624558
 30
0.0
  0
VERTEX
  5
434
  8
0
  6
CONTINUOUS
 62
     7
 10
-126.8920872108245
 20
148.4910957507314
 30
0.0
  0
VERTEX
  5
435
  8
0
  6
CONTINUOUS
 62
     7
 10
-126.9005946935378
 20
148.5135698918218
 30
0.0
  0
VERTEX
  5
436
  8
0
  6
CONTINUOUS
 62
     7
 10
-126.9102098620179
 20
148.5356685889504
 30
0.0
  0
VERTEX
  5
437
  8
0
  6
CONTINUOUS
 62
     7
 10
-126.920892317383
 20
148.5573188562563
 30
0.0
  0
VERTEX
  5
438
  8
0
  6
CONTINUOUS
 62
     7
 10
-126.9326016607509
 20
148.5784477078788
 30
0.0
  0
VERTEX
  5
439
  8
0
  6
CONTINUOUS
 62
     7
 10
-126.9452974932397
 20
148.5989821579571
 30
0.0
  0
VERTEX
  5
43A
  8
0
  6
CONTINUOUS
 62
     7
 10
-126.9589394159675
 20
148.6188492206306
 30
0.0
  0
VERTEX
  5
43B
  8
0
  6
CONTINUOUS
 62
     7
 10
-126.9734870300521
 20
148.6379759100383
 30
0.0
  0
VERTEX
  5
43C
  8
0
  6
CONTINUOUS
 62
     7
 10
-126.9889523200046
 20
148.6563625388761
 30
0.0
  0
VERTEX
  5
43D
  8
0
  6
CONTINUOUS
 62
     7
 10
-127.0053384126126
 20
148.6740282601143
 30
0.0
  0
VERTEX
  5
43E
  8
0
  6
CONTINUOUS
 62
     7
 10
-127.0225830210085
 20
148.6909175974529
 30
0.0
  0
VERTEX
  5
43F
  8
0
  6
CONTINUOUS
 62
     7
 10
-127.0406238583245
 20
148.7069750745919
 30
0.0
  0
VERTEX
  5
440
  8
0
  6
CONTINUOUS
 62
     7
 10
-127.0593986376929
 20
148.7221452152313
 30
0.0
  0
VERTEX
  5
441
  8
0
  6
CONTINUOUS
 62
     7
 10
-127.0788450722458
 20
148.7363725430711
 30
0.0
  0
VERTEX
  5
442
  8
0
  6
CONTINUOUS
 62
     7
 10
-127.0989008751155
 20
148.7496015818113
 30
0.0
  0
VERTEX
  5
443
  8
0
  6
CONTINUOUS
 62
     7
 10
-127.1195766547415
 20
148.7618282404554
 30
0.0
  0
VERTEX
  5
444
  8
0
  6
CONTINUOUS
 62
     7
 10
-127.1408824194898
 20
148.7730700900616
 30
0.0
  0
VERTEX
  5
445
  8
0
  6
CONTINUOUS
 62
     7
 10
-127.1627410575188
 20
148.7832954450051
 30
0.0
  0
VERTEX
  5
446
  8
0
  6
CONTINUOUS
 62
     7
 10
-127.185075456987
 20
148.7924726196612
 30
0.0
  0
VERTEX
  5
447
  8
0
  6
CONTINUOUS
 62
     7
 10
-127.2078085060528
 20
148.8005699284052
 30
0.0
  0
VERTEX
  5
448
  8
0
  6
CONTINUOUS
 62
     7
 10
-127.2308630928747
 20
148.8075556856125
 30
0.0
  0
VERTEX
  5
449
  8
0
  6
CONTINUOUS
 62
     7
 10
-127.2541621056111
 20
148.8133982056583
 30
0.0
  0
VERTEX
  5
44A
  8
0
  6
CONTINUOUS
 62
     7
 10
-127.2777173414382
 20
148.8180907034181
 30
0.0
  0
VERTEX
  5
44B
  8
0
  6
CONTINUOUS
 62
     7
 10
-127.3015409629519
 20
148.8216456181192
 30
0.0
  0
VERTEX
  5
44C
  8
0
  6
CONTINUOUS
 62
     7
 10
-127.3255497535732
 20
148.8240586048085
 30
0.0
  0
VERTEX
  5
44D
  8
0
  6
CONTINUOUS
 62
     7
 10
-127.3496604967227
 20
148.8253253185327
 30
0.0
  0
VERTEX
  5
44E
  8
0
  6
CONTINUOUS
 62
     7
 10
-127.3737899758214
 20
148.8254414143385
 30
0.0
  0
VERTEX
  5
44F
  8
0
  6
CONTINUOUS
 62
     7
 10
-127.3978549742901
 20
148.8244025472727
 30
0.0
  0
VERTEX
  5
450
  8
0
  6
CONTINUOUS
 62
     7
 10
-127.4217722755494
 20
148.8222043723821
 30
0.0
  0
VERTEX
  5
451
  8
0
  6
CONTINUOUS
 62
     7
 10
-127.4455549162256
 20
148.8188359262071
 30
0.0
  0
VERTEX
  5
452
  8
0
  6
CONTINUOUS
 62
     7
 10
-127.4692142968558
 20
148.814305221673
 30
0.0
  0
VERTEX
  5
453
  8
0
  6
CONTINUOUS
 62
     7
 10
-127.4926704732853
 20
148.8086357101188
 30
0.0
  0
VERTEX
  5
454
  8
0
  6
CONTINUOUS
 62
     7
 10
-127.5158435013591
 20
148.8018508428836
 30
0.0
  0
VERTEX
  5
455
  8
0
  6
CONTINUOUS
 62
     7
 10
-127.5386534369223
 20
148.7939740713063
 30
0.0
  0
VERTEX
  5
456
  8
0
  6
CONTINUOUS
 62
     7
 10
-127.5610203358201
 20
148.785028846726
 30
0.0
  0
VERTEX
  5
457
  8
0
  6
CONTINUOUS
 62
     7
 10
-127.5828642538974
 20
148.7750386204817
 30
0.0
  0
VERTEX
  5
458
  8
0
  6
CONTINUOUS
 62
     7
 10
-127.6048355601718
 20
148.7636345723721
 30
0.0
  0
VERTEX
  5
459
  8
0
  6
CONTINUOUS
 62
     7
 10
-127.6262747945054
 20
148.7511082700616
 30
0.0
  0
VERTEX
  5
45A
  8
0
  6
CONTINUOUS
 62
     7
 10
-127.647108178366
 20
148.7375132513729
 30
0.0
  0
VERTEX
  5
45B
  8
0
  6
CONTINUOUS
 62
     7
 10
-127.6672619332216
 20
148.7229030541288
 30
0.0
  0
VERTEX
  5
45C
  8
0
  6
CONTINUOUS
 62
     7
 10
-127.6866622805399
 20
148.7073312161518
 30
0.0
  0
VERTEX
  5
45D
  8
0
  6
CONTINUOUS
 62
     7
 10
-127.705235441789
 20
148.6908512752646
 30
0.0
  0
VERTEX
  5
45E
  8
0
  6
CONTINUOUS
 62
     7
 10
-127.7229076384365
 20
148.6735167692899
 30
0.0
  0
SEQEND
  5
4F5
  8
0
  6
CONTINUOUS
 62
     7
  0
POLYLINE
  5
13A
  8
0
  6
CONTINUOUS
 62
     7
 66
     1
 10
0.0
 20
0.0
 30
0.0
  0
VERTEX
  5
45F
  8
0
  6
CONTINUOUS
 62
     7
 10
-127.7229076384365
 20
166.2060208419644
 30
0.0
  0
VERTEX
  5
460
  8
0
  6
CONTINUOUS
 62
     7
 10
-127.7057655315112
 20
166.1891803403223
 30
0.0
  0
VERTEX
  5
461
  8
0
  6
CONTINUOUS
 62
     7
 10
-127.6877752591321
 20
166.173144688336
 30
0.0
  0
VERTEX
  5
462
  8
0
  6
CONTINUOUS
 62
     7
 10
-127.6690040500233
 20
166.1579631979306
 30
0.0
  0
VERTEX
  5
463
  8
0
  6
CONTINUOUS
 62
     7
 10
-127.6495191329094
 20
166.1436851810314
 30
0.0
  0
VERTEX
  5
464
  8
0
  6
CONTINUOUS
 62
     7
 10
-127.6293877365143
 20
166.1303599495636
 30
0.0
  0
VERTEX
  5
465
  8
0
  6
CONTINUOUS
 62
     7
 10
-127.6086770895625
 20
166.1180368154524
 30
0.0
  0
VERTEX
  5
466
  8
0
  6
CONTINUOUS
 62
     7
 10
-127.5874544207781
 20
166.106765090623
 30
0.0
  0
VERTEX
  5
467
  8
0
  6
CONTINUOUS
 62
     7
 10
-127.5657043240388
 20
166.0965475775034
 30
0.0
  0
VERTEX
  5
468
  8
0
  6
CONTINUOUS
 62
     7
 10
-127.5434201071087
 20
166.0873705650157
 30
0.0
  0
VERTEX
  5
469
  8
0
  6
CONTINUOUS
 62
     7
 10
-127.5206815747264
 20
166.0792583473855
 30
0.0
  0
VERTEX
  5
46A
  8
0
  6
CONTINUOUS
 62
     7
 10
-127.4975685316308
 20
166.0722352188383
 30
0.0
  0
VERTEX
  5
46B
  8
0
  6
CONTINUOUS
 62
     7
 10
-127.4741607825607
 20
166.0663254735994
 30
0.0
  0
VERTEX
  5
46C
  8
0
  6
CONTINUOUS
 62
     7
 10
-127.4505381322548
 20
166.0615534058946
 30
0.0
  0
VERTEX
  5
46D
  8
0
  6
CONTINUOUS
 62
     7
 10
-127.4267803854519
 20
166.0579433099494
 30
0.0
  0
VERTEX
  5
46E
  8
0
  6
CONTINUOUS
 62
     7
 10
-127.4028787187633
 20
166.0555033019185
 30
0.0
  0
VERTEX
  5
46F
  8
0
  6
CONTINUOUS
 62
     7
 10
-127.3788175571467
 20
166.0542218044243
 30
0.0
  0
VERTEX
  5
470
  8
0
  6
CONTINUOUS
 62
     7
 10
-127.3546802368984
 20
166.0540953052756
 30
0.0
  0
VERTEX
  5
471
  8
0
  6
CONTINUOUS
 62
     7
 10
-127.3305500943146
 20
166.0551202922806
 30
0.0
  0
VERTEX
  5
472
  8
0
  6
CONTINUOUS
 62
     7
 10
-127.3065104656916
 20
166.0572932532481
 30
0.0
  0
VERTEX
  5
473
  8
0
  6
CONTINUOUS
 62
     7
 10
-127.2826446873257
 20
166.0606106759865
 30
0.0
  0
VERTEX
  5
474
  8
0
  6
CONTINUOUS
 62
     7
 10
-127.259036095513
 20
166.0650690483044
 30
0.0
  0
VERTEX
  5
475
  8
0
  6
CONTINUOUS
 62
     7
 10
-127.2356799196871
 20
166.0706786908736
 30
0.0
  0
VERTEX
  5
476
  8
0
  6
CONTINUOUS
 62
     7
 10
-127.2125567442733
 20
166.0774339515651
 30
0.0
  0
VERTEX
  5
477
  8
0
  6
CONTINUOUS
 62
     7
 10
-127.1897439939061
 20
166.0853039169401
 30
0.0
  0
VERTEX
  5
478
  8
0
  6
CONTINUOUS
 62
     7
 10
-127.1673190932199
 20
166.0942576735596
 30
0.0
  0
VERTEX
  5
479
  8
0
  6
CONTINUOUS
 62
     7
 10
-127.1453594668491
 20
166.104264307985
 30
0.0
  0
VERTEX
  5
47A
  8
0
  6
CONTINUOUS
 62
     7
 10
-127.123942539428
 20
166.1152929067772
 30
0.0
  0
VERTEX
  5
47B
  8
0
  6
CONTINUOUS
 62
     7
 10
-127.1031457355913
 20
166.1273125564974
 30
0.0
  0
VERTEX
  5
47C
  8
0
  6
CONTINUOUS
 62
     7
 10
-127.0829653060142
 20
166.1403363398133
 30
0.0
  0
VERTEX
  5
47D
  8
0
  6
CONTINUOUS
 62
     7
 10
-127.0633838598706
 20
166.1543637888733
 30
0.0
  0
VERTEX
  5
47E
  8
0
  6
CONTINUOUS
 62
     7
 10
-127.0444641776258
 20
166.1693401086895
 30
0.0
  0
VERTEX
  5
47F
  8
0
  6
CONTINUOUS
 62
     7
 10
-127.0262690397452
 20
166.185210504274
 30
0.0
  0
VERTEX
  5
480
  8
0
  6
CONTINUOUS
 62
     7
 10
-127.008861226694
 20
166.2019201806388
 30
0.0
  0
VERTEX
  5
481
  8
0
  6
CONTINUOUS
 62
     7
 10
-126.9923035189375
 20
166.219414342796
 30
0.0
  0
VERTEX
  5
482
  8
0
  6
CONTINUOUS
 62
     7
 10
-126.976658696941
 20
166.2376381957577
 30
0.0
  0
VERTEX
  5
483
  8
0
  6
CONTINUOUS
 62
     7
 10
-126.961925029307
 20
166.2566086852284
 30
0.0
  0
VERTEX
  5
484
  8
0
  6
CONTINUOUS
 62
     7
 10
-126.9480887529239
 20
166.2763279914237
 30
0.0
  0
VERTEX
  5
485
  8
0
  6
CONTINUOUS
 62
     7
 10
-126.9351909533987
 20
166.296723636718
 30
0.0
  0
VERTEX
  5
486
  8
0
  6
CONTINUOUS
 62
     7
 10
-126.9232727163384
 20
166.3177231434858
 30
0.0
  0
VERTEX
  5
487
  8
0
  6
CONTINUOUS
 62
     7
 10
-126.9123751273501
 20
166.3392540341017
 30
0.0
  0
VERTEX
  5
488
  8
0
  6
CONTINUOUS
 62
     7
 10
-126.9025392720409
 20
166.3612438309399
 30
0.0
  0
VERTEX
  5
489
  8
0
  6
CONTINUOUS
 62
     7
 10
-126.8938062360178
 20
166.3836200563751
 30
0.0
  0
VERTEX
  5
48A
  8
0
  6
CONTINUOUS
 62
     7
 10
-126.8859656815612
 20
166.4071001823907
 30
0.0
  0
VERTEX
  5
48B
  8
0
  6
CONTINUOUS
 62
     7
 10
-126.8792882389039
 20
166.4310158838686
 30
0.0
  0
VERTEX
  5
48C
  8
0
  6
CONTINUOUS
 62
     7
 10
-126.8737896273597
 20
166.4552773695313
 30
0.0
  0
VERTEX
  5
48D
  8
0
  6
CONTINUOUS
 62
     7
 10
-126.8694855662422
 20
166.479794848101
 30
0.0
  0
VERTEX
  5
48E
  8
0
  6
CONTINUOUS
 62
     7
 10
-126.8663917748651
 20
166.5044785283
 30
0.0
  0
VERTEX
  5
48F
  8
0
  6
CONTINUOUS
 62
     7
 10
-126.8645239725421
 20
166.5292386188509
 30
0.0
  0
VERTEX
  5
490
  8
0
  6
CONTINUOUS
 62
     7
 10
-126.8638978785869
 20
166.553985328476
 30
0.0
  0
SEQEND
  5
4F6
  8
0
  6
CONTINUOUS
 62
     7
  0
POLYLINE
  5
13B
  8
0
  6
CONTINUOUS
 62
     7
 66
     1
 10
0.0
 20
0.0
 30
0.0
  0
VERTEX
  5
491
  8
0
  6
CONTINUOUS
 62
     7
 10
-135.2236910246194
 20
142.6159784600625
 30
0.0
  0
VERTEX
  5
492
  8
0
  6
CONTINUOUS
 62
     7
 10
-135.1997421783305
 20
142.6178808762387
 30
0.0
  0
VERTEX
  5
493
  8
0
  6
CONTINUOUS
 62
     7
 10
-135.1756599528341
 20
142.6186218327488
 30
0.0
  0
VERTEX
  5
494
  8
0
  6
CONTINUOUS
 62
     7
 10
-135.151527536068
 20
142.6182067210602
 30
0.0
  0
VERTEX
  5
495
  8
0
  6
CONTINUOUS
 62
     7
 10
-135.12742811597
 20
142.6166409326404
 30
0.0
  0
VERTEX
  5
496
  8
0
  6
CONTINUOUS
 62
     7
 10
-135.103444880478
 20
142.6139298589569
 30
0.0
  0
VERTEX
  5
497
  8
0
  6
CONTINUOUS
 62
     7
 10
-135.0796610175298
 20
142.6100788914772
 30
0.0
  0
VERTEX
  5
498
  8
0
  6
CONTINUOUS
 62
     7
 10
-135.0561597150633
 20
142.6050934216688
 30
0.0
  0
VERTEX
  5
499
  8
0
  6
CONTINUOUS
 62
     7
 10
-135.032931098439
 20
142.5989614894436
 30
0.0
  0
VERTEX
  5
49A
  8
0
  6
CONTINUOUS
 62
     7
 10
-135.0099610871867
 20
142.5916893205338
 30
0.0
  0
VERTEX
  5
49B
  8
0
  6
CONTINUOUS
 62
     7
 10
-134.9873264043687
 20
142.5833095479927
 30
0.0
  0
VERTEX
  5
49C
  8
0
  6
CONTINUOUS
 62
     7
 10
-134.9651037730471
 20
142.5738548048735
 30
0.0
  0
VERTEX
  5
49D
  8
0
  6
CONTINUOUS
 62
     7
 10
-134.9433699162841
 20
142.5633577242295
 30
0.0
  0
VERTEX
  5
49E
  8
0
  6
CONTINUOUS
 62
     7
 10
-134.922201557142
 20
142.5518509391141
 30
0.0
  0
VERTEX
  5
49F
  8
0
  6
CONTINUOUS
 62
     7
 10
-134.9016754186829
 20
142.5393670825805
 30
0.0
  0
VERTEX
  5
4A0
  8
0
  6
CONTINUOUS
 62
     7
 10
-134.8817871760267
 20
142.525892347444
 30
0.0
  0
VERTEX
  5
4A1
  8
0
  6
CONTINUOUS
 62
     7
 10
-134.8625203711369
 20
142.5114273214209
 30
0.0
  0
VERTEX
  5
4A2
  8
0
  6
CONTINUOUS
 62
     7
 10
-134.843936587572
 20
142.4960281955397
 30
0.0
  0
VERTEX
  5
4A3
  8
0
  6
CONTINUOUS
 62
     7
 10
-134.8260974088905
 20
142.4797511608294
 30
0.0
  0
VERTEX
  5
4A4
  8
0
  6
CONTINUOUS
 62
     7
 10
-134.8090644186509
 20
142.4626524083187
 30
0.0
  0
VERTEX
  5
4A5
  8
0
  6
CONTINUOUS
 62
     7
 10
-134.7928992004115
 20
142.4447881290363
 30
0.0
  0
VERTEX
  5
4A6
  8
0
  6
CONTINUOUS
 62
     7
 10
-134.7776633377309
 20
142.4262145140111
 30
0.0
  0
VERTEX
  5
4A7
  8
0
  6
CONTINUOUS
 62
     7
 10
-134.7633570013648
 20
142.4069166720795
 30
0.0
  0
VERTEX
  5
4A8
  8
0
  6
CONTINUOUS
 62
     7
 10
-134.7499648108601
 20
142.3868901240295
 30
0.0
  0
VERTEX
  5
4A9
  8
0
  6
CONTINUOUS
 62
     7
 10
-134.7375262654081
 20
142.3662082715665
 30
0.0
  0
VERTEX
  5
4AA
  8
0
  6
CONTINUOUS
 62
     7
 10
-134.7260808641996
 20
142.3449445163953
 30
0.0
  0
VERTEX
  5
4AB
  8
0
  6
CONTINUOUS
 62
     7
 10
-134.7156681064256
 20
142.323172260221
 30
0.0
  0
VERTEX
  5
4AC
  8
0
  6
CONTINUOUS
 62
     7
 10
-134.7063274912771
 20
142.3009649047488
 30
0.0
  0
VERTEX
  5
4AD
  8
0
  6
CONTINUOUS
 62
     7
 10
-134.6980985179452
 20
142.2783958516837
 30
0.0
  0
VERTEX
  5
4AE
  8
0
  6
CONTINUOUS
 62
     7
 10
-134.6912220979179
 20
142.2562837006767
 30
0.0
  0
VERTEX
  5
4AF
  8
0
  6
CONTINUOUS
 62
     7
 10
-134.6853704797092
 20
142.2338143849533
 30
0.0
  0
VERTEX
  5
4B0
  8
0
  6
CONTINUOUS
 62
     7
 10
-134.6805557310688
 20
142.2110615641097
 30
0.0
  0
VERTEX
  5
4B1
  8
0
  6
CONTINUOUS
 62
     7
 10
-134.6767899197468
 20
142.1880988977417
 30
0.0
  0
VERTEX
  5
4B2
  8
0
  6
CONTINUOUS
 62
     7
 10
-134.6740851134931
 20
142.1650000454455
 30
0.0
  0
VERTEX
  5
4B3
  8
0
  6
CONTINUOUS
 62
     7
 10
-134.6724533800576
 20
142.141838666817
 30
0.0
  0
VERTEX
  5
4B4
  8
0
  6
CONTINUOUS
 62
     7
 10
-134.6719067871902
 20
142.1186884214523
 30
0.0
  0
SEQEND
  5
4F7
  8
0
  6
CONTINUOUS
 62
     7
  0
POLYLINE
  5
13C
  8
0
  6
CONTINUOUS
 62
     7
 66
     1
 10
0.0
 20
0.0
 30
0.0
  0
VERTEX
  5
4B5
  8
0
  6
CONTINUOUS
 62
     7
 10
-138.8638978785869
 20
142.1186884214523
 30
0.0
  0
VERTEX
  5
4B6
  8
0
  6
CONTINUOUS
 62
     7
 10
-138.8633087039968
 20
142.1427054841201
 30
0.0
  0
VERTEX
  5
4B7
  8
0
  6
CONTINUOUS
 62
     7
 10
-138.8615505012892
 20
142.1667348687285
 30
0.0
  0
VERTEX
  5
4B8
  8
0
  6
CONTINUOUS
 62
     7
 10
-138.8586372520581
 20
142.190694393674
 30
0.0
  0
VERTEX
  5
4B9
  8
0
  6
CONTINUOUS
 62
     7
 10
-138.8545829378975
 20
142.2145018773531
 30
0.0
  0
VERTEX
  5
4BA
  8
0
  6
CONTINUOUS
 62
     7
 10
-138.8494015404013
 20
142.2380751381624
 30
0.0
  0
VERTEX
  5
4BB
  8
0
  6
CONTINUOUS
 62
     7
 10
-138.8431070411635
 20
142.2613319944982
 30
0.0
  0
VERTEX
  5
4BC
  8
0
  6
CONTINUOUS
 62
     7
 10
-138.8357134217783
 20
142.2841902647571
 30
0.0
  0
VERTEX
  5
4BD
  8
0
  6
CONTINUOUS
 62
     7
 10
-138.8272077634109
 20
142.306658531242
 30
0.0
  0
VERTEX
  5
4BE
  8
0
  6
CONTINUOUS
 62
     7
 10
-138.8175947994021
 20
142.3287514436925
 30
0.0
  0
VERTEX
  5
4BF
  8
0
  6
CONTINUOUS
 62
     7
 10
-138.8069149364867
 20
142.3503960731008
 30
0.0
  0
VERTEX
  5
4C0
  8
0
  6
CONTINUOUS
 62
     7
 10
-138.7952085813999
 20
142.3715194904589
 30
0.0
  0
VERTEX
  5
4C1
  8
0
  6
CONTINUOUS
 62
     7
 10
-138.782516140877
 20
142.392048766759
 30
0.0
  0
VERTEX
  5
4C2
  8
0
  6
CONTINUOUS
 62
     7
 10
-138.7688780216529
 20
142.4119109729933
 30
0.0
  0
VERTEX
  5
4C3
  8
0
  6
CONTINUOUS
 62
     7
 10
-138.7543346304629
 20
142.4310331801538
 30
0.0
  0
VERTEX
  5
4C4
  8
0
  6
CONTINUOUS
 62
     7
 10
-138.738871786328
 20
142.4494182592771
 30
0.0
  0
VERTEX
  5
4C5
  8
0
  6
CONTINUOUS
 62
     7
 10
-138.7224883685778
 20
142.4670826407126
 30
0.0
  0
VERTEX
  5
4C6
  8
0
  6
CONTINUOUS
 62
     7
 10
-138.7052466465212
 20
142.483970894328
 30
0.0
  0
VERTEX
  5
4C7
  8
0
  6
CONTINUOUS
 62
     7
 10
-138.6872088894671
 20
142.5000275899909
 30
0.0
  0
VERTEX
  5
4C8
  8
0
  6
CONTINUOUS
 62
     7
 10
-138.6684373667244
 20
142.5151972975693
 30
0.0
  0
VERTEX
  5
4C9
  8
0
  6
CONTINUOUS
 62
     7
 10
-138.6489943476021
 20
142.5294245869307
 30
0.0
  0
VERTEX
  5
4CA
  8
0
  6
CONTINUOUS
 62
     7
 10
-138.628942101409
 20
142.542654027943
 30
0.0
  0
VERTEX
  5
4CB
  8
0
  6
CONTINUOUS
 62
     7
 10
-138.6082658348215
 20
142.554883907887
 30
0.0
  0
VERTEX
  5
4CC
  8
0
  6
CONTINUOUS
 62
     7
 10
-138.586959499156
 20
142.5661290603455
 30
0.0
  0
VERTEX
  5
4CD
  8
0
  6
CONTINUOUS
 62
     7
 10
-138.5651001935967
 20
142.5763578039017
 30
0.0
  0
VERTEX
  5
4CE
  8
0
  6
CONTINUOUS
 62
     7
 10
-138.5427650173278
 20
142.585538457138
 30
0.0
  0
VERTEX
  5
4CF
  8
0
  6
CONTINUOUS
 62
     7
 10
-138.5200310695336
 20
142.5936393386374
 30
0.0
  0
VERTEX
  5
4D0
  8
0
  6
CONTINUOUS
 62
     7
 10
-138.4969754493981
 20
142.6006287669827
 30
0.0
  0
VERTEX
  5
4D1
  8
0
  6
CONTINUOUS
 62
     7
 10
-138.4736752561057
 20
142.6064750607566
 30
0.0
  0
VERTEX
  5
4D2
  8
0
  6
CONTINUOUS
 62
     7
 10
-138.450969644525
 20
142.611023420585
 30
0.0
  0
VERTEX
  5
4D3
  8
0
  6
CONTINUOUS
 62
     7
 10
-138.4280149707325
 20
142.6145154881168
 30
0.0
  0
VERTEX
  5
4D4
  8
0
  6
CONTINUOUS
 62
     7
 10
-138.4048857482301
 20
142.6169468924587
 30
0.0
  0
VERTEX
  5
4D5
  8
0
  6
CONTINUOUS
 62
     7
 10
-138.3816564905195
 20
142.6183132627175
 30
0.0
  0
VERTEX
  5
4D6
  8
0
  6
CONTINUOUS
 62
     7
 10
-138.3584017111027
 20
142.618610228
 30
0.0
  0
VERTEX
  5
4D7
  8
0
  6
CONTINUOUS
 62
     7
 10
-138.3351959234815
 20
142.6178334174127
 30
0.0
  0
VERTEX
  5
4D8
  8
0
  6
CONTINUOUS
 62
     7
 10
-138.3121136411578
 20
142.6159784600625
 30
0.0
  0
SEQEND
  5
4F8
  8
0
  6
CONTINUOUS
 62
     7
  0
ARC
  5
13D
  8
0
  6
CONTINUOUS
 62
     7
 10
-136.7679023328886
 20
157.4397688056272
 30
0.0
 40
12.59599554569835
 50
44.10340502959003
 51
135.8965949704101
  0
LINE
  5
13E
  8
0
  6
CONTINUOUS
 62
     7
 10
-151.7518241033348
 20
165.6897688056272
 30
0.0
 11
-154.5950186166148
 21
165.6897688056272
 31
0.0
  0
LINE
  5
13F
  8
0
  6
CONTINUOUS
 62
     7
 10
-151.7518241033348
 20
165.6897688056272
 30
0.0
 11
-151.7824062182632
 21
165.6591866906987
 31
0.0
  0
LINE
  5
140
  8
0
  6
CONTINUOUS
 62
     7
 10
-154.5644365016864
 20
165.6591866906987
 30
0.0
 11
-154.5950186166148
 21
165.6897688056272
 31
0.0
  0
LINE
  5
141
  8
0
  6
CONTINUOUS
 62
     7
 10
-118.9407860491623
 20
149.1897688056272
 30
0.0
 11
-118.9407860491623
 21
154.1897688056272
 31
0.0
  0
LINE
  5
142
  8
0
  6
CONTINUOUS
 62
     7
 10
-118.9713681640908
 20
149.2203509205556
 30
0.0
 11
-118.9407860491623
 21
149.1897688056272
 31
0.0
  0
LINE
  5
143
  8
0
  6
CONTINUOUS
 62
     7
 10
-118.9407860491623
 20
154.1897688056272
 30
0.0
 11
-118.9713681640908
 21
154.1591866906988
 31
0.0
  0
LINE
  5
144
  8
0
  6
CONTINUOUS
 62
     7
 10
-154.5950186166148
 20
160.6897688056272
 30
0.0
 11
-153.9679023328886
 21
160.6897688056272
 31
0.0
  0
LINE
  5
145
  8
0
  6
CONTINUOUS
 62
     7
 10
-154.5950186166148
 20
160.6897688056272
 30
0.0
 11
-154.5644365016864
 21
160.7203509205556
 31
0.0
  0
LINE
  5
146
  8
0
  6
CONTINUOUS
 62
     7
 10
-153.9373202179601
 20
160.7203509205556
 30
0.0
 11
-153.9679023328886
 21
160.6897688056272
 31
0.0
  0
LINE
  5
147
  8
0
  6
CONTINUOUS
 62
     7
 10
-121.7839805624424
 20
149.1897688056272
 30
0.0
 11
-118.9407860491623
 21
149.1897688056272
 31
0.0
  0
LINE
  5
148
  8
0
  6
CONTINUOUS
 62
     7
 10
-121.7839805624424
 20
149.1897688056272
 30
0.0
 11
-121.7533984475139
 21
149.2203509205556
 31
0.0
  0
LINE
  5
149
  8
0
  6
CONTINUOUS
 62
     7
 10
-154.5950186166149
 20
149.1897688056272
 30
0.0
 11
-151.7518241033348
 21
149.1897688056272
 31
0.0
  0
LINE
  5
14A
  8
0
  6
CONTINUOUS
 62
     7
 10
-154.5644365016864
 20
149.2203509205556
 30
0.0
 11
-154.5950186166149
 21
149.1897688056272
 31
0.0
  0
LINE
  5
14B
  8
0
  6
CONTINUOUS
 62
     7
 10
-151.7518241033348
 20
149.1897688056272
 30
0.0
 11
-151.7824062182632
 21
149.2203509205556
 31
0.0
  0
LINE
  5
14C
  8
0
  6
CONTINUOUS
 62
     7
 10
-121.7839805624424
 20
165.6897688056272
 30
0.0
 11
-121.7839805624424
 21
149.1897688056272
 31
0.0
  0
LINE
  5
14D
  8
0
  6
CONTINUOUS
 62
     7
 10
-121.7839805624424
 20
165.6897688056272
 30
0.0
 11
-121.7533984475139
 21
165.6591866906987
 31
0.0
  0
LINE
  5
14E
  8
0
  6
CONTINUOUS
 62
     7
 10
-118.9407860491623
 20
160.6897688056272
 30
0.0
 11
-118.9407860491623
 21
165.6897688056272
 31
0.0
  0
LINE
  5
14F
  8
0
  6
CONTINUOUS
 62
     7
 10
-118.9713681640908
 20
160.7203509205556
 30
0.0
 11
-118.9407860491623
 21
160.6897688056272
 31
0.0
  0
LINE
  5
150
  8
0
  6
CONTINUOUS
 62
     7
 10
-118.9713681640908
 20
165.6591866906987
 30
0.0
 11
-118.9407860491623
 21
165.6897688056272
 31
0.0
  0
LINE
  5
151
  8
0
  6
CONTINUOUS
 62
     7
 10
-154.5950186166149
 20
149.1897688056272
 30
0.0
 11
-154.5950186166149
 21
154.1897688056272
 31
0.0
  0
LINE
  5
152
  8
0
  6
CONTINUOUS
 62
     7
 10
-154.5644365016864
 20
154.1591866906988
 30
0.0
 11
-154.5950186166149
 21
154.1897688056272
 31
0.0
  0
LINE
  5
153
  8
0
  6
CONTINUOUS
 62
     7
 10
-118.9407860491623
 20
154.1897688056272
 30
0.0
 11
-119.5679023328886
 21
154.1897688056272
 31
0.0
  0
LINE
  5
154
  8
0
  6
CONTINUOUS
 62
     7
 10
-119.5679023328886
 20
154.1897688056272
 30
0.0
 11
-119.598484447817
 21
154.1591866906988
 31
0.0
  0
LINE
  5
155
  8
0
  6
CONTINUOUS
 62
     7
 10
-118.9407860491623
 20
160.6897688056272
 30
0.0
 11
-119.5679023328886
 21
160.6897688056272
 31
0.0
  0
LINE
  5
156
  8
0
  6
CONTINUOUS
 62
     7
 10
-119.598484447817
 20
160.7203509205556
 30
0.0
 11
-119.5679023328886
 21
160.6897688056272
 31
0.0
  0
LINE
  5
157
  8
0
  6
CONTINUOUS
 62
     7
 10
-153.9679023328886
 20
160.6897688056272
 30
0.0
 11
-153.9679023328886
 21
154.1897688056272
 31
0.0
  0
LINE
  5
158
  8
0
  6
CONTINUOUS
 62
     7
 10
-153.9679023328886
 20
154.1897688056272
 30
0.0
 11
-153.9373202179601
 21
154.1591866906988
 31
0.0
  0
LINE
  5
159
  8
0
  6
CONTINUOUS
 62
     7
 10
-118.9407860491623
 20
165.6897688056272
 30
0.0
 11
-121.7839805624424
 21
165.6897688056272
 31
0.0
  0
LINE
  5
15A
  8
0
  6
CONTINUOUS
 62
     7
 10
-119.5679023328886
 20
160.6897688056272
 30
0.0
 11
-119.5679023328886
 21
154.1897688056272
 31
0.0
  0
LINE
  5
15B
  8
0
  6
CONTINUOUS
 62
     7
 10
-154.5950186166148
 20
160.6897688056272
 30
0.0
 11
-154.5950186166148
 21
165.6897688056272
 31
0.0
  0
LINE
  5
15C
  8
0
  6
CONTINUOUS
 62
     7
 10
-154.5950186166148
 20
154.1897688056272
 30
0.0
 11
-153.9679023328886
 21
154.1897688056272
 31
0.0
  0
LINE
  5
15D
  8
0
  6
CONTINUOUS
 62
     7
 10
-151.7518241033348
 20
165.6897688056272
 30
0.0
 11
-151.7518241033348
 21
149.1897688056272
 31
0.0
  0
LINE
  5
15E
  8
0
  6
CONTINUOUS
 62
     7
 10
-123.2980693279011
 20
149.2647048841929
 30
0.0
 11
-121.7839805624424
 21
149.1897688056272
 31
0.0
  0
LINE
  5
15F
  8
0
  6
CONTINUOUS
 62
     7
 10
-123.2980693279011
 20
165.6148327270614
 30
0.0
 11
-121.7839805624424
 21
165.6897688056272
 31
0.0
  0
LINE
  5
160
  8
0
  6
CONTINUOUS
 62
     7
 10
-156.5950186166148
 20
149.1897688056272
 30
0.0
 11
-156.5950186166148
 21
165.6897688056272
 31
0.0
  0
LINE
  5
161
  8
0
  6
CONTINUOUS
 62
     7
 10
-154.5950186166148
 20
165.6897688056272
 30
0.0
 11
-156.5950186166148
 21
165.6897688056272
 31
0.0
  0
LINE
  5
162
  8
0
  6
CONTINUOUS
 62
     7
 10
-154.5950186166149
 20
149.1897688056272
 30
0.0
 11
-156.5950186166149
 21
149.1897688056272
 31
0.0
  0
LINE
  5
163
  8
0
  6
CONTINUOUS
 62
     7
 10
-118.9407860491623
 20
165.6897688056272
 30
0.0
 11
-116.9407860491623
 21
165.6897688056272
 31
0.0
  0
LINE
  5
164
  8
0
  6
CONTINUOUS
 62
     7
 10
-118.9407860491623
 20
149.1897688056272
 30
0.0
 11
-116.9407860491623
 21
149.1897688056272
 31
0.0
  0
LINE
  5
165
  8
0
  6
CONTINUOUS
 62
     7
 10
-116.9407860491623
 20
149.1897688056272
 30
0.0
 11
-116.9407860491623
 21
165.6897688056272
 31
0.0
  0
LINE
  5
166
  8
0
  6
CONTINUOUS
 62
     7
 10
-150.237735337876
 20
165.6148327270614
 30
0.0
 11
-151.7518241033348
 21
165.6897688056272
 31
0.0
  0
LINE
  5
167
  8
0
  6
CONTINUOUS
 62
     7
 10
-150.237735337876
 20
149.2647048841929
 30
0.0
 11
-151.7518241033348
 21
149.1897688056272
 31
0.0
  0
CIRCLE
  5
168
  8
0
  6
CONTINUOUS
 62
     7
 10
-136.7679023328886
 20
157.4397688056272
 30
0.0
 40
4.762500000000003
  0
LINE
  5
169
  8
0
  6
CONTINUOUS
 62
     7
 10
-132.0054023328886
 20
157.4397688056272
 30
0.0
 11
-132.9044023328886
 21
157.4397688056272
 31
0.0
  0
ARC
  5
16A
  8
0
  6
CONTINUOUS
 62
     7
 10
-137.2046087017257
 20
157.6765736311671
 30
0.0
 40
4.306721646448304
 50
356.8480054552026
 51
126.8081837546971
  0
ARC
  5
16B
  8
0
  6
CONTINUOUS
 62
     7
 10
-136.767788711047
 20
157.4528604438237
 30
0.0
 40
3.863408559540554
 50
359.8058457862923
 51
359.671225121858
  0
LINE
  5
16C
  8
0
  6
CONTINUOUS
 62
     7
 10
-123.2980693279011
 20
149.2647048841929
 30
0.0
 11
-123.7904732044072
 21
149.268310615744
 31
0.0
  0
LINE
  5
16D
  8
0
  6
CONTINUOUS
 62
     7
 10
-123.7904732044072
 20
165.6112269955103
 30
0.0
 11
-123.2980693279011
 21
165.6148327270614
 31
0.0
  0
LINE
  5
16E
  8
0
  6
CONTINUOUS
 62
     7
 10
-150.237735337876
 20
165.6148327270614
 30
0.0
 11
-149.7453314613699
 21
165.6112269955103
 31
0.0
  0
LINE
  5
16F
  8
0
  6
CONTINUOUS
 62
     7
 10
-149.7453314613699
 20
149.268310615744
 30
0.0
 11
-150.237735337876
 21
149.2647048841929
 31
0.0
  0
LINE
  5
170
  8
0
  6
CONTINUOUS
 62
     7
 10
-149.3813516141684
 20
165.6112269955103
 30
0.0
 11
-149.7453314613699
 21
165.6112269955103
 31
0.0
  0
LINE
  5
171
  8
0
  6
CONTINUOUS
 62
     7
 10
-149.3813516141684
 20
149.268310615744
 30
0.0
 11
-149.7453314613699
 21
149.268310615744
 31
0.0
  0
LINE
  5
172
  8
0
  6
CONTINUOUS
 62
     7
 10
-124.1544530516087
 20
149.268310615744
 30
0.0
 11
-123.7904732044072
 21
149.268310615744
 31
0.0
  0
LINE
  5
173
  8
0
  6
CONTINUOUS
 62
     7
 10
-124.1544530516087
 20
165.6112269955103
 30
0.0
 11
-123.7904732044072
 21
165.6112269955103
 31
0.0
  0
ARC
  5
174
  8
0
  6
CONTINUOUS
 62
     7
 10
-136.7679023328886
 20
153.4397688056272
 30
0.0
 40
0.5000000000000004
 50
90.00000000000001
 51
160.5503248798859
  0
ARC
  5
175
  8
0
  6
CONTINUOUS
 62
     7
 10
-136.7679023328886
 20
153.4397688056272
 30
0.0
 40
0.4999999999999999
 50
19.48312671517277
 51
90.00000000000001
  0
ARC
  5
176
  8
0
  6
CONTINUOUS
 62
     7
 10
-133.3038007177508
 20
159.4397688056272
 30
0.0
 40
0.500000000000002
 50
210.0
 51
280.6313414178974
  0
ARC
  5
177
  8
0
  6
CONTINUOUS
 62
     7
 10
-133.3038007177508
 20
159.4397688056272
 30
0.0
 40
0.5000000000000112
 50
139.3294976723564
 51
210.0000000000001
  0
ARC
  5
178
  8
0
  6
CONTINUOUS
 62
     7
 10
-140.2320039480263
 20
159.4397688056272
 30
0.0
 40
0.499999999999988
 50
330.0000000000011
 51
40.57771285688256
  0
ARC
  5
179
  8
0
  6
CONTINUOUS
 62
     7
 10
-140.2320039480263
 20
159.4397688056272
 30
0.0
 40
0.5000000000000138
 50
259.3916697687166
 51
330.0
  0
ENDBLK
  8
0
  0
ENDSEC
  0
SECTION
  2
ENTITIES
  0
TEXT
  5
6F
  8
0
  6
CONTINUOUS
 62
     7
 10
-141.7164142748668
 20
86.59816123992368
 30
0.0
 40
3.0
  1
GGDA-3
  0
LINE
  5
70
  8
0
  6
CENTER
 62
     1
 10
-136.7679023328886
 20
92.4129230255933
 30
0.0
 11
-136.7679023328886
 21
121.4129230255933
 31
0.0
  0
LINE
  5
72
  8
0
  6
CENTER
 62
     1
 10
-77.76790233288858
 20
92.4129230255933
 30
0.0
 11
-77.76790233288858
 21
121.4129230255933
 31
0.0
  0
LINE
  5
73
  8
0
  6
CENTER
 62
     1
 10
-136.7679023328886
 20
136.4397688056272
 30
0.0
 11
-136.7679023328886
 21
178.4397688056272
 31
0.0
  0
LINE
  5
74
  8
0
  6
CENTER
 62
     1
 10
-157.7679023328886
 20
157.4397688056272
 30
0.0
 11
-115.7679023328886
 21
157.4397688056272
 31
0.0
  0
INSERT
  5
C3
  8
0
  6
CONTINUOUS
 62
     7
  2
D_FRAME_VIEW_20681
 10
0.0
 20
0.0
 30
0.0
  0
INSERT
  5
10D
  8
0
  6
CENTER
 62
     7
  2
D_FRAME_VIEW_20934
 10
0.0
 20
0.0
 30
0.0
  0
POINT
  5
10E
  8
0
 62
     1
 10
-77.76790233288858
 20
106.9129230255933
 30
0.0
  0
POINT
  5
10F
  8
0
 62
     7
 10
-136.7679023328886
 20
106.9129230255933
 30
0.0
  0
INSERT
  5
17A
  8
0
  6
CONTINUOUS
 62
     7
  2
D_FRAME_VIEW_17356
 10
0.0
 20
0.0
 30
0.0
  0
ENDSEC
  0
EOF
