  0
SECTION
  2
HEADER
  9
$ACADVER
  1
AC1006
  9
$DWGCODEPAGE
  3
ansi_932
  9
$INSBASE
 10
0.0
 20
0.0
 30
0.0
  9
$EXTMIN
 10
40.29915450951287
 20
72.13862306094099
  9
$EXTMAX
 10
141.6131813146979
 20
178.0575702083873
  9
$LIMMIN
 10
0.0
 20
0.0
  9
$LIMMAX
 10
12.0
 20
9.0
  9
$ORTHOMODE
 70
     0
  9
$REGENMODE
 70
     1
  9
$FILLMODE
 70
     1
  9
$QTEXTMODE
 70
     0
  9
$MIRRTEXT
 70
     1
  9
$DRAGMODE
 70
     2
  9
$LTSCALE
 40
1.0
  9
$OSMODE
 70
    37
  9
$ATTMODE
 70
     1
  9
$TEXTSIZE
 40
0.2
  9
$TRACEWID
 40
0.05
  9
$TEXTSTYLE
  7
STANDARD
  9
$CLAYER
  8
0
  9
$CELTYPE
  6
BYLAYER
  9
$CECOLOR
 62
   256
  9
$DIMSCALE
 40
1.0
  9
$DIMASZ
 40
3.0
  9
$DIMEXO
 40
0.0625
  9
$DIMDLI
 40
0.38
  9
$DIMRND
 40
0.0
  9
$DIMDLE
 40
0.0
  9
$DIMEXE
 40
1.5
  9
$DIMTP
 40
0.0
  9
$DIMTM
 40
0.0
  9
$DIMTXT
 40
3.0
  9
$DIMCEN
 40
0.09
  9
$DIMTSZ
 40
0.0
  9
$DIMTOL
 70
     0
  9
$DIMLIM
 70
     0
  9
$DIMTIH
 70
     1
  9
$DIMTOH
 70
     1
  9
$DIMSE1
 70
     0
  9
$DIMSE2
 70
     0
  9
$DIMTAD
 70
     1
  9
$DIMZIN
 70
     0
  9
$DIMBLK
  1

  9
$DIMASO
 70
     1
  9
$DIMSHO
 70
     1
  9
$DIMPOST
  1

  9
$DIMAPOST
  1

  9
$DIMALT
 70
     0
  9
$DIMALTD
 70
     2
  9
$DIMALTF
 40
25.4
  9
$DIMLFAC
 40
1.0
  9
$DIMTOFL
 70
     0
  9
$DIMTVP
 40
0.0
  9
$DIMTIX
 70
     0
  9
$DIMSOXD
 70
     0
  9
$DIMSAH
 70
     0
  9
$DIMBLK1
  1

  9
$DIMBLK2
  1

  9
$LUNITS
 70
     2
  9
$LUPREC
 70
     4
  9
$SKETCHINC
 40
0.1
  9
$FILLETRAD
 40
0.5
  9
$AUNITS
 70
     0
  9
$AUPREC
 70
     0
  9
$MENU
  1
.
  9
$ELEVATION
 40
0.0
  9
$THICKNESS
 40
0.0
  9
$LIMCHECK
 70
     0
  9
$CHAMFERA
 40
0.0
  9
$CHAMFERB
 40
0.0
  9
$SKPOLY
 70
     0
  9
$TDCREATE
 40
2458915.385118437
  9
$TDUPDATE
 40
2458915.385118623
  9
$TDINDWG
 40
0.0000000116
  9
$TDUSRTIMER
 40
0.0000000116
  9
$USRTIMER
 70
     1
  9
$ANGBASE
 50
0.0
  9
$ANGDIR
 70
     0
  9
$PDMODE
 70
     0
  9
$PDSIZE
 40
0.0
  9
$PLINEWID
 40
0.0
  9
$COORDS
 70
     1
  9
$SPLFRAME
 70
     0
  9
$SPLINETYPE
 70
     6
  9
$SPLINESEGS
 70
     8
  9
$ATTDIA
 70
     0
  9
$ATTREQ
 70
     1
  9
$HANDLING
 70
     1
  9
$HANDSEED
  5
508
  9
$SURFTAB1
 70
     6
  9
$SURFTAB2
 70
     6
  9
$SURFTYPE
 70
     6
  9
$SURFU
 70
     6
  9
$SURFV
 70
     6
  9
$UCSNAME
  2

  9
$UCSORG
 10
0.0
 20
0.0
 30
0.0
  9
$UCSXDIR
 10
1.0
 20
0.0
 30
0.0
  9
$UCSYDIR
 10
0.0
 20
1.0
 30
0.0
  9
$USERI1
 70
     0
  9
$USERI2
 70
     0
  9
$USERI3
 70
     0
  9
$USERI4
 70
     0
  9
$USERI5
 70
     0
  9
$USERR1
 40
0.0
  9
$USERR2
 40
0.0
  9
$USERR3
 40
0.0
  9
$USERR4
 40
0.0
  9
$USERR5
 40
0.0
  9
$WORLDVIEW
 70
     1
  0
ENDSEC
  0
SECTION
  2
TABLES
  0
TABLE
  2
VPORT
 70
     1
  0
VPORT
  2
*ACTIVE
 70
     0
 10
0.0
 20
0.0
 11
1.0
 21
1.0
 12
90.95616791210537
 22
125.0980966346642
 13
0.0
 23
0.0
 14
0.5
 24
0.5
 15
0.5
 25
0.5
 16
0.0
 26
0.0
 36
1.0
 17
0.0
 27
0.0
 37
0.0
 40
105.9189471474463
 41
1.6
 42
50.0
 43
0.0
 44
0.0
 50
0.0
 51
0.0
 71
     0
 72
   100
 73
     1
 74
     3
 75
     0
 76
     0
 77
     0
 78
     0
  0
ENDTAB
  0
TABLE
  2
LTYPE
 70
     3
  0
LTYPE
  2
CONTINUOUS
 70
     0
  3
Solid line
 72
    65
 73
     0
 40
0.0
  0
LTYPE
  2
CENTER
 70
     0
  3

 72
    65
 73
     0
 40
0.0
  0
LTYPE
  2
DOT
 70
     0
  3

 72
    65
 73
     0
 40
0.0
  0
ENDTAB
  0
TABLE
  2
LAYER
 70
     1
  0
LAYER
  2
0
 70
     0
 62
     7
  6
CONTINUOUS
  0
ENDTAB
  0
TABLE
  2
STYLE
 70
     2
  0
STYLE
  2
STANDARD
 70
     0
 40
0.0
 41
1.0
 50
0.0
 71
     0
 42
0.2
  3
txt
  4

  0
STYLE
  2
ＭＳ_ゴシック
 70
     0
 40
0.0
 41
1.0
 50
0.0
 71
     0
 42
0.2
  3
ＭＳ ゴシック.shx
  4

  0
ENDTAB
  0
TABLE
  2
VIEW
 70
     0
  0
ENDTAB
  0
TABLE
  2
UCS
 70
     0
  0
ENDTAB
  0
ENDSEC
  0
SECTION
  2
BLOCKS
  0
BLOCK
  8
0
  2
D_FRAME_VIEW_15705
 70
     0
 10
0.0
 20
0.0
 30
0.0
  0
LINE
  5
74
  8
0
  6
CONTINUOUS
 62
     7
 10
117.1073030015523
 20
88.52069454576787
 30
0.0
 11
117.434896806026
 21
88.52069454576787
 31
0.0
  0
LINE
  5
75
  8
0
  6
CONTINUOUS
 62
     7
 10
117.4556435440198
 20
89.90818320274585
 30
0.0
 11
117.5006518012752
 21
89.77537459801871
 31
0.0
  0
LINE
  5
76
  8
0
  6
CONTINUOUS
 62
     7
 10
116.9169614399788
 20
88.7561158549208
 30
0.0
 11
117.1073030015523
 21
88.52069454576787
 31
0.0
  0
LINE
  5
77
  8
0
  6
CONTINUOUS
 62
     7
 10
127.8990260739317
 20
88.52069454576787
 30
0.0
 11
128.2266198784053
 21
88.52069454576787
 31
0.0
  0
LINE
  5
78
  8
0
  6
CONTINUOUS
 62
     7
 10
128.2266198784053
 20
88.52069454576788
 30
0.0
 11
128.4169614399788
 21
88.75611585492081
 31
0.0
  0
LINE
  5
79
  8
0
  6
CONTINUOUS
 62
     7
 10
127.8332710786825
 20
89.77537459801863
 30
0.0
 11
127.8782793359378
 21
89.90818320274583
 31
0.0
  0
LINE
  5
7A
  8
0
  6
CONTINUOUS
 62
     7
 10
117.1073030015523
 20
89.90818320274583
 30
0.0
 11
117.1073030015523
 21
88.52069454576787
 31
0.0
  0
LINE
  5
7B
  8
0
  6
CONTINUOUS
 62
     7
 10
128.2266198784053
 20
89.90818320274583
 30
0.0
 11
128.2266198784053
 21
88.52069454576788
 31
0.0
  0
LINE
  5
7C
  8
0
  6
CONTINUOUS
 62
     7
 10
117.4352355536327
 20
88.52715823515517
 30
0.0
 11
117.429000336394
 21
88.40818320274583
 31
0.0
  0
LINE
  5
7D
  8
0
  6
CONTINUOUS
 62
     7
 10
127.9049225435636
 20
88.40818320274583
 30
0.0
 11
127.8986873263249
 21
88.52715823515517
 31
0.0
  0
LINE
  5
7E
  8
0
  6
CONTINUOUS
 62
     7
 10
117.429000336394
 20
88.40818320274583
 30
0.0
 11
127.9049225435636
 21
88.40818320274583
 31
0.0
  0
LINE
  5
7F
  8
0
  6
CONTINUOUS
 62
     7
 10
117.4352355536327
 20
88.52715823515517
 30
0.0
 11
117.4520108749918
 21
88.8472504349874
 31
0.0
  0
LINE
  5
80
  8
0
  6
CONTINUOUS
 62
     7
 10
127.8819120049659
 20
88.8472504349874
 30
0.0
 11
127.8986873263249
 21
88.52715823515517
 31
0.0
  0
LINE
  5
81
  8
0
  6
CONTINUOUS
 62
     7
 10
117.4520108749918
 20
88.8472504349874
 30
0.0
 11
117.4698977321886
 21
89.18855200207479
 31
0.0
  0
LINE
  5
82
  8
0
  6
CONTINUOUS
 62
     7
 10
127.864025147769
 20
89.18855200207479
 30
0.0
 11
127.8819120049659
 21
88.8472504349874
 31
0.0
  0
LINE
  5
83
  8
0
  6
CONTINUOUS
 62
     7
 10
117.4698977321886
 20
89.18855200207479
 30
0.0
 11
117.5076120053186
 21
89.90818320274583
 31
0.0
  0
LINE
  5
84
  8
0
  6
CONTINUOUS
 62
     7
 10
127.826310874639
 20
89.90818320274583
 30
0.0
 11
127.864025147769
 21
89.18855200207479
 31
0.0
  0
ARC
  5
85
  8
0
  6
CONTINUOUS
 62
     7
 10
125.5323953008767
 20
82.85787875133964
 30
0.0
 40
3.076568122535471
 50
345.6638017121276
 51
0.9368754678298501
  0
POLYLINE
  5
86
  8
0
  6
CONTINUOUS
 62
     7
 66
     1
 10
0.0
 20
0.0
 30
0.0
  0
VERTEX
  5
1CF
  8
0
  6
CONTINUOUS
 62
     7
 10
128.5131575204523
 20
82.09608612670222
 30
0.0
  0
VERTEX
  5
1D0
  8
0
  6
CONTINUOUS
 62
     7
 10
128.4715429370057
 20
81.99340235911859
 30
0.0
  0
VERTEX
  5
1D1
  8
0
  6
CONTINUOUS
 62
     7
 10
128.3977364744892
 20
81.91211910979939
 30
0.0
  0
VERTEX
  5
1D2
  8
0
  6
CONTINUOUS
 62
     7
 10
128.3768213331811
 20
81.90818320274583
 30
0.0
  0
SEQEND
  5
4EA
  8
0
  6
CONTINUOUS
 62
     7
  0
LINE
  5
87
  8
0
  6
CONTINUOUS
 62
     7
 10
128.3768213331812
 20
81.90818320274583
 30
0.0
 11
116.9571015467764
 21
81.90818320274583
 31
0.0
  0
ARC
  5
88
  8
0
  6
CONTINUOUS
 62
     7
 10
119.8015275790825
 20
82.85787875133981
 30
0.0
 40
3.076568122537036
 50
179.063124532174
 51
194.3361982878684
  0
POLYLINE
  5
89
  8
0
  6
CONTINUOUS
 62
     7
 66
     1
 10
0.0
 20
0.0
 30
0.0
  0
VERTEX
  5
1D3
  8
0
  6
CONTINUOUS
 62
     7
 10
116.8207653595053
 20
82.09608612670222
 30
0.0
  0
VERTEX
  5
1D4
  8
0
  6
CONTINUOUS
 62
     7
 10
116.8623799429519
 20
81.99340235911859
 30
0.0
  0
VERTEX
  5
1D5
  8
0
  6
CONTINUOUS
 62
     7
 10
116.9338438286395
 20
81.91305311927873
 30
0.0
  0
VERTEX
  5
1D6
  8
0
  6
CONTINUOUS
 62
     7
 10
116.9571015467765
 20
81.90818320274583
 30
0.0
  0
SEQEND
  5
4EB
  8
0
  6
CONTINUOUS
 62
     7
  0
LINE
  5
8A
  8
0
  6
CONTINUOUS
 62
     7
 10
116.9571015467764
 20
81.90818320274583
 30
0.0
 11
109.9169614399788
 21
81.90818320274583
 31
0.0
  0
LINE
  5
8B
  8
0
  6
CONTINUOUS
 62
     7
 10
116.7253707438773
 20
83.40818320274583
 30
0.0
 11
116.7253707438773
 21
82.90818320274583
 31
0.0
  0
LINE
  5
8C
  8
0
  6
CONTINUOUS
 62
     7
 10
135.4169614399788
 20
81.90818320274583
 30
0.0
 11
128.3768213331812
 21
81.90818320274583
 31
0.0
  0
LINE
  5
8D
  8
0
  6
CONTINUOUS
 62
     7
 10
128.6085521360803
 20
83.40818320274583
 30
0.0
 11
128.6085521360803
 21
82.90818320274583
 31
0.0
  0
LINE
  5
8E
  8
0
  6
CONTINUOUS
 62
     7
 10
117.429000336394
 20
88.40818320274583
 30
0.0
 11
117.4027964467525
 21
87.90818320274583
 31
0.0
  0
LINE
  5
8F
  8
0
  6
CONTINUOUS
 62
     7
 10
127.9049225435636
 20
88.40818320274583
 30
0.0
 11
127.9311264332051
 21
87.90818320274583
 31
0.0
  0
LINE
  5
90
  8
0
  6
CONTINUOUS
 62
     7
 10
112.4169614399788
 20
108.4081832027458
 30
0.0
 11
111.9169614399788
 21
108.9081832027458
 31
0.0
  0
LINE
  5
91
  8
0
  6
CONTINUOUS
 62
     7
 10
111.9169614399788
 20
108.9081832027458
 30
0.0
 11
133.4169614399788
 21
108.9081832027458
 31
0.0
  0
LINE
  5
92
  8
0
  6
CONTINUOUS
 62
     7
 10
132.9169614399788
 20
108.4081832027458
 30
0.0
 11
133.4169614399788
 21
108.9081832027458
 31
0.0
  0
ARC
  5
93
  8
0
  6
CONTINUOUS
 62
     7
 10
112.4169614399788
 20
107.4081832027458
 30
0.0
 40
0.5000000000000004
 50
180.0
 51
270.0
  0
LINE
  5
94
  8
0
  6
CONTINUOUS
 62
     7
 10
111.9169614399788
 20
107.4081832027458
 30
0.0
 11
111.9169614399788
 21
108.9081832027458
 31
0.0
  0
ARC
  5
95
  8
0
  6
CONTINUOUS
 62
     7
 10
132.9169614399788
 20
107.4081832027458
 30
0.0
 40
0.5000000000000004
 50
270.0
 51
0.0
  0
LINE
  5
96
  8
0
  6
CONTINUOUS
 62
     7
 10
133.4169614399788
 20
108.9081832027458
 30
0.0
 11
133.4169614399788
 21
107.4081832027458
 31
0.0
  0
LINE
  5
97
  8
0
  6
CONTINUOUS
 62
     7
 10
132.9169614399788
 20
106.9081832027458
 30
0.0
 11
112.4169614399788
 21
106.9081832027458
 31
0.0
  0
LINE
  5
98
  8
0
  6
CONTINUOUS
 62
     7
 10
130.8653520511974
 20
100.9943330082898
 30
0.0
 11
130.8485916373447
 21
99.07377980929638
 31
0.0
  0
LINE
  5
99
  8
0
  6
CONTINUOUS
 62
     7
 10
114.4853312426129
 20
99.07377980929638
 30
0.0
 11
114.4685708287602
 21
100.9943330082898
 31
0.0
  0
LINE
  5
9A
  8
0
  6
CONTINUOUS
 62
     7
 10
130.8689636671297
 20
101.4081832027458
 30
0.0
 11
130.8653520511974
 21
100.9943330082898
 31
0.0
  0
LINE
  5
9B
  8
0
  6
CONTINUOUS
 62
     7
 10
114.464959212828
 20
101.4081832027458
 30
0.0
 11
114.4685708287602
 21
100.9943330082898
 31
0.0
  0
LINE
  5
9C
  8
0
  6
CONTINUOUS
 62
     7
 10
114.464959212828
 20
101.4081832027458
 30
0.0
 11
130.8689636671296
 21
101.4081832027458
 31
0.0
  0
LINE
  5
9D
  8
0
  6
CONTINUOUS
 62
     7
 10
114.5012491906537
 20
97.24976363047654
 30
0.0
 11
114.4853312426129
 21
99.07377980929638
 31
0.0
  0
LINE
  5
9E
  8
0
  6
CONTINUOUS
 62
     7
 10
130.8485916373447
 20
99.07377980929638
 30
0.0
 11
130.832673689304
 21
97.24976363047654
 31
0.0
  0
LINE
  5
9F
  8
0
  6
CONTINUOUS
 62
     7
 10
119.4169614399788
 20
101.4081832027458
 30
0.0
 11
119.4169614399788
 21
103.4081832027458
 31
0.0
  0
LINE
  5
A0
  8
0
  6
CONTINUOUS
 62
     7
 10
125.9169614399788
 20
103.4081832027458
 30
0.0
 11
125.9169614399788
 21
101.4081832027458
 31
0.0
  0
LINE
  5
A1
  8
0
  6
CONTINUOUS
 62
     7
 10
119.4169614399788
 20
103.4081832027458
 30
0.0
 11
125.9169614399788
 21
103.4081832027458
 31
0.0
  0
LINE
  5
A2
  8
0
  6
CONTINUOUS
 62
     7
 10
114.4169614399788
 20
106.9081832027458
 30
0.0
 11
114.464959212828
 21
101.4081832027458
 31
0.0
  0
LINE
  5
A3
  8
0
  6
CONTINUOUS
 62
     7
 10
130.9169614399788
 20
106.9081832027458
 30
0.0
 11
130.8689636671297
 21
101.4081832027458
 31
0.0
  0
LINE
  5
A4
  8
0
  6
CONTINUOUS
 62
     7
 10
114.5042301178864
 20
96.90818320274583
 30
0.0
 11
130.8296927620712
 21
96.90818320274583
 31
0.0
  0
LINE
  5
A5
  8
0
  6
CONTINUOUS
 62
     7
 10
114.5042301178864
 20
96.90818320274583
 30
0.0
 11
114.5012491906537
 21
97.24976363047652
 31
0.0
  0
LINE
  5
A6
  8
0
  6
CONTINUOUS
 62
     7
 10
130.832673689304
 20
97.24976363047652
 30
0.0
 11
130.8296927620712
 21
96.90818320274583
 31
0.0
  0
LINE
  5
A7
  8
0
  6
CONTINUOUS
 62
     7
 10
128.4169614399788
 20
87.90818320274583
 30
0.0
 11
116.9169614399788
 21
87.90818320274583
 31
0.0
  0
LINE
  5
A8
  8
0
  6
CONTINUOUS
 62
     7
 10
128.4169614399788
 20
89.90818320274583
 30
0.0
 11
128.4169614399788
 21
87.90818320274583
 31
0.0
  0
LINE
  5
A9
  8
0
  6
CONTINUOUS
 62
     7
 10
116.9169614399788
 20
89.90818320274583
 30
0.0
 11
128.4169614399788
 21
89.90818320274583
 31
0.0
  0
LINE
  5
AA
  8
0
  6
CONTINUOUS
 62
     7
 10
116.9169614399788
 20
87.90818320274583
 30
0.0
 11
116.9169614399788
 21
89.90818320274583
 31
0.0
  0
POLYLINE
  5
AB
  8
0
  6
CONTINUOUS
 62
     7
 66
     1
 10
0.0
 20
0.0
 30
0.0
  0
VERTEX
  5
1D7
  8
0
  6
CONTINUOUS
 62
     7
 10
114.6177174768271
 20
83.90381993499663
 30
0.0
  0
VERTEX
  5
1D8
  8
0
  6
CONTINUOUS
 62
     7
 10
114.6185259609793
 20
83.87942841485847
 30
0.0
  0
VERTEX
  5
1D9
  8
0
  6
CONTINUOUS
 62
     7
 10
114.6205236734445
 20
83.8551054001156
 30
0.0
  0
VERTEX
  5
1DA
  8
0
  6
CONTINUOUS
 62
     7
 10
114.6237058548733
 20
83.83090883790877
 30
0.0
  0
VERTEX
  5
1DB
  8
0
  6
CONTINUOUS
 62
     7
 10
114.6280649240379
 20
83.80689637411818
 30
0.0
  0
VERTEX
  5
1DC
  8
0
  6
CONTINUOUS
 62
     7
 10
114.6335904958937
 20
83.78312521602815
 30
0.0
  0
VERTEX
  5
1DD
  8
0
  6
CONTINUOUS
 62
     7
 10
114.6402694063205
 20
83.75965199603627
 30
0.0
  0
VERTEX
  5
1DE
  8
0
  6
CONTINUOUS
 62
     7
 10
114.6480857434846
 20
83.7365326367326
 30
0.0
  0
VERTEX
  5
1DF
  8
0
  6
CONTINUOUS
 62
     7
 10
114.6570208857475
 20
83.71382221766963
 30
0.0
  0
VERTEX
  5
1E0
  8
0
  6
CONTINUOUS
 62
     7
 10
114.6670535460299
 20
83.69157484414075
 30
0.0
  0
VERTEX
  5
1E1
  8
0
  6
CONTINUOUS
 62
     7
 10
114.6781598225258
 20
83.66984351827986
 30
0.0
  0
VERTEX
  5
1E2
  8
0
  6
CONTINUOUS
 62
     7
 10
114.6903132556465
 20
83.64868001278913
 30
0.0
  0
VERTEX
  5
1E3
  8
0
  6
CONTINUOUS
 62
     7
 10
114.7034848910577
 20
83.62813474759567
 30
0.0
  0
VERTEX
  5
1E4
  8
0
  6
CONTINUOUS
 62
     7
 10
114.7176433486605
 20
83.60825666973118
 30
0.0
  0
VERTEX
  5
1E5
  8
0
  6
CONTINUOUS
 62
     7
 10
114.7327548973509
 20
83.58909313672049
 30
0.0
  0
VERTEX
  5
1E6
  8
0
  6
CONTINUOUS
 62
     7
 10
114.7487835353814
 20
83.5706898037571
 30
0.0
  0
VERTEX
  5
1E7
  8
0
  6
CONTINUOUS
 62
     7
 10
114.7656910761312
 20
83.55309051493418
 30
0.0
  0
VERTEX
  5
1E8
  8
0
  6
CONTINUOUS
 62
     7
 10
114.7834372390816
 20
83.53633719879049
 30
0.0
  0
VERTEX
  5
1E9
  8
0
  6
CONTINUOUS
 62
     7
 10
114.8019797457813
 20
83.52046976841977
 30
0.0
  0
VERTEX
  5
1EA
  8
0
  6
CONTINUOUS
 62
     7
 10
114.8212744205694
 20
83.50552602638187
 30
0.0
  0
VERTEX
  5
1EB
  8
0
  6
CONTINUOUS
 62
     7
 10
114.8412752958205
 20
83.49154157464194
 30
0.0
  0
VERTEX
  5
1EC
  8
0
  6
CONTINUOUS
 62
     7
 10
114.8619347214572
 20
83.47854972975229
 30
0.0
  0
VERTEX
  5
1ED
  8
0
  6
CONTINUOUS
 62
     7
 10
114.883203478472
 20
83.46658144347903
 30
0.0
  0
VERTEX
  5
1EE
  8
0
  6
CONTINUOUS
 62
     7
 10
114.9050308961867
 20
83.45566522906265
 30
0.0
  0
VERTEX
  5
1EF
  8
0
  6
CONTINUOUS
 62
     7
 10
114.9273649729699
 20
83.44582709328807
 30
0.0
  0
VERTEX
  5
1F0
  8
0
  6
CONTINUOUS
 62
     7
 10
114.9501525001258
 20
83.43709047452609
 30
0.0
  0
VERTEX
  5
1F1
  8
0
  6
CONTINUOUS
 62
     7
 10
114.9733391886589
 20
83.42947618689378
 30
0.0
  0
VERTEX
  5
1F2
  8
0
  6
CONTINUOUS
 62
     7
 10
114.9968697986114
 20
83.423002370667
 30
0.0
  0
VERTEX
  5
1F3
  8
0
  6
CONTINUOUS
 62
     7
 10
115.0206882706675
 20
83.41768444906297
 30
0.0
  0
VERTEX
  5
1F4
  8
0
  6
CONTINUOUS
 62
     7
 10
115.0447378597088
 20
83.41353509149602
 30
0.0
  0
VERTEX
  5
1F5
  8
0
  6
CONTINUOUS
 62
     7
 10
115.0689612700039
 20
83.41056418339396
 30
0.0
  0
VERTEX
  5
1F6
  8
0
  6
CONTINUOUS
 62
     7
 10
115.0933007917097
 20
83.4087788026471
 30
0.0
  0
VERTEX
  5
1F7
  8
0
  6
CONTINUOUS
 62
     7
 10
115.1176984383591
 20
83.40818320274583
 30
0.0
  0
SEQEND
  5
4EC
  8
0
  6
CONTINUOUS
 62
     7
  0
POLYLINE
  5
AC
  8
0
  6
CONTINUOUS
 62
     7
 66
     1
 10
0.0
 20
0.0
 30
0.0
  0
VERTEX
  5
1F8
  8
0
  6
CONTINUOUS
 62
     7
 10
130.2162244415985
 20
83.40818320274583
 30
0.0
  0
VERTEX
  5
1F9
  8
0
  6
CONTINUOUS
 62
     7
 10
130.240622088248
 20
83.4087788026471
 30
0.0
  0
VERTEX
  5
1FA
  8
0
  6
CONTINUOUS
 62
     7
 10
130.2649616099537
 20
83.41056418339396
 30
0.0
  0
VERTEX
  5
1FB
  8
0
  6
CONTINUOUS
 62
     7
 10
130.2891850202488
 20
83.41353509149602
 30
0.0
  0
VERTEX
  5
1FC
  8
0
  6
CONTINUOUS
 62
     7
 10
130.3132346092901
 20
83.41768444906297
 30
0.0
  0
VERTEX
  5
1FD
  8
0
  6
CONTINUOUS
 62
     7
 10
130.3370530813463
 20
83.423002370667
 30
0.0
  0
VERTEX
  5
1FE
  8
0
  6
CONTINUOUS
 62
     7
 10
130.3605836912988
 20
83.42947618689378
 30
0.0
  0
VERTEX
  5
1FF
  8
0
  6
CONTINUOUS
 62
     7
 10
130.3837703798318
 20
83.43709047452609
 30
0.0
  0
VERTEX
  5
200
  8
0
  6
CONTINUOUS
 62
     7
 10
130.4065579069878
 20
83.44582709328807
 30
0.0
  0
VERTEX
  5
201
  8
0
  6
CONTINUOUS
 62
     7
 10
130.4288919837709
 20
83.45566522906265
 30
0.0
  0
VERTEX
  5
202
  8
0
  6
CONTINUOUS
 62
     7
 10
130.4507194014856
 20
83.46658144347903
 30
0.0
  0
VERTEX
  5
203
  8
0
  6
CONTINUOUS
 62
     7
 10
130.4719881585005
 20
83.47854972975229
 30
0.0
  0
VERTEX
  5
204
  8
0
  6
CONTINUOUS
 62
     7
 10
130.4926475841372
 20
83.49154157464194
 30
0.0
  0
VERTEX
  5
205
  8
0
  6
CONTINUOUS
 62
     7
 10
130.5126484593882
 20
83.50552602638187
 30
0.0
  0
VERTEX
  5
206
  8
0
  6
CONTINUOUS
 62
     7
 10
130.5319431341764
 20
83.52046976841977
 30
0.0
  0
VERTEX
  5
207
  8
0
  6
CONTINUOUS
 62
     7
 10
130.550485640876
 20
83.53633719879049
 30
0.0
  0
VERTEX
  5
208
  8
0
  6
CONTINUOUS
 62
     7
 10
130.5682318038265
 20
83.55309051493418
 30
0.0
  0
VERTEX
  5
209
  8
0
  6
CONTINUOUS
 62
     7
 10
130.5851393445762
 20
83.5706898037571
 30
0.0
  0
VERTEX
  5
20A
  8
0
  6
CONTINUOUS
 62
     7
 10
130.6011679826067
 20
83.58909313672049
 30
0.0
  0
VERTEX
  5
20B
  8
0
  6
CONTINUOUS
 62
     7
 10
130.6162795312972
 20
83.60825666973118
 30
0.0
  0
VERTEX
  5
20C
  8
0
  6
CONTINUOUS
 62
     7
 10
130.6304379888999
 20
83.62813474759567
 30
0.0
  0
VERTEX
  5
20D
  8
0
  6
CONTINUOUS
 62
     7
 10
130.6436096243111
 20
83.64868001278913
 30
0.0
  0
VERTEX
  5
20E
  8
0
  6
CONTINUOUS
 62
     7
 10
130.6557630574318
 20
83.66984351827986
 30
0.0
  0
VERTEX
  5
20F
  8
0
  6
CONTINUOUS
 62
     7
 10
130.6668693339277
 20
83.69157484414075
 30
0.0
  0
VERTEX
  5
210
  8
0
  6
CONTINUOUS
 62
     7
 10
130.6769019942101
 20
83.71382221766963
 30
0.0
  0
VERTEX
  5
211
  8
0
  6
CONTINUOUS
 62
     7
 10
130.6858371364731
 20
83.7365326367326
 30
0.0
  0
VERTEX
  5
212
  8
0
  6
CONTINUOUS
 62
     7
 10
130.6936534736372
 20
83.75965199603627
 30
0.0
  0
VERTEX
  5
213
  8
0
  6
CONTINUOUS
 62
     7
 10
130.700332384064
 20
83.78312521602815
 30
0.0
  0
VERTEX
  5
214
  8
0
  6
CONTINUOUS
 62
     7
 10
130.7058579559197
 20
83.80689637411818
 30
0.0
  0
VERTEX
  5
215
  8
0
  6
CONTINUOUS
 62
     7
 10
130.7102170250844
 20
83.83090883790877
 30
0.0
  0
VERTEX
  5
216
  8
0
  6
CONTINUOUS
 62
     7
 10
130.7133992065132
 20
83.8551054001156
 30
0.0
  0
VERTEX
  5
217
  8
0
  6
CONTINUOUS
 62
     7
 10
130.7153969189784
 20
83.87942841485847
 30
0.0
  0
VERTEX
  5
218
  8
0
  6
CONTINUOUS
 62
     7
 10
130.7162054031306
 20
83.90381993499663
 30
0.0
  0
SEQEND
  5
4ED
  8
0
  6
CONTINUOUS
 62
     7
  0
LINE
  5
AD
  8
0
  6
CONTINUOUS
 62
     7
 10
115.1176984383591
 20
83.40818320274582
 30
0.0
 11
130.2162244415985
 21
83.40818320274582
 31
0.0
  0
LINE
  5
AE
  8
0
  6
CONTINUOUS
 62
     7
 10
114.5042301178864
 20
96.90818320274583
 30
0.0
 11
114.6177174768271
 21
83.90381993499663
 31
0.0
  0
LINE
  5
AF
  8
0
  6
CONTINUOUS
 62
     7
 10
130.8296927620712
 20
96.90818320274583
 30
0.0
 11
130.7162054031306
 21
83.90381993499663
 31
0.0
  0
LINE
  5
B0
  8
0
  6
CONTINUOUS
 62
     7
 10
110.6398251390799
 20
92.40818320274582
 30
0.0
 11
114.5435010229448
 21
92.40818320274582
 31
0.0
  0
POLYLINE
  5
B1
  8
0
  6
CONTINUOUS
 62
     7
 66
     1
 10
0.0
 20
0.0
 30
0.0
  0
VERTEX
  5
219
  8
0
  6
CONTINUOUS
 62
     7
 10
109.2261944587196
 20
93.35584724650288
 30
0.0
  0
VERTEX
  5
21A
  8
0
  6
CONTINUOUS
 62
     7
 10
109.2416984837837
 20
93.25332211969369
 30
0.0
  0
VERTEX
  5
21B
  8
0
  6
CONTINUOUS
 62
     7
 10
109.2718969115665
 20
93.15165338828582
 30
0.0
  0
VERTEX
  5
21C
  8
0
  6
CONTINUOUS
 62
     7
 10
109.3152944863494
 20
93.05491724202987
 30
0.0
  0
VERTEX
  5
21D
  8
0
  6
CONTINUOUS
 62
     7
 10
109.3689204514698
 20
92.9663291952477
 30
0.0
  0
VERTEX
  5
21E
  8
0
  6
CONTINUOUS
 62
     7
 10
109.4572303032889
 20
92.85603757941908
 30
0.0
  0
SEQEND
  5
4EE
  8
0
  6
CONTINUOUS
 62
     7
  0
ARC
  5
B2
  8
0
  6
CONTINUOUS
 62
     7
 10
110.4199184256788
 20
93.77899061603271
 30
0.0
 40
1.333645653382086
 50
223.7928160078604
 51
252.6020630932798
  0
ARC
  5
B3
  8
0
  6
CONTINUOUS
 62
     7
 10
110.6323926316824
 20
94.35981254280989
 30
0.0
 40
1.95164349284523
 50
251.7481845143429
 51
270.2182019083041
  0
LINE
  5
B4
  8
0
  6
CONTINUOUS
 62
     7
 10
108.4392544957749
 20
103.3558472465032
 30
0.0
 11
109.2261944587196
 21
93.35584724650288
 31
0.0
  0
ARC
  5
B5
  8
0
  6
CONTINUOUS
 62
     7
 10
109.737930637436
 20
102.8561485433131
 30
0.0
 40
1.55290697935355
 50
88.07946097517764
 51
130.3524501194277
  0
POLYLINE
  5
B6
  8
0
  6
CONTINUOUS
 62
     7
 66
     1
 10
0.0
 20
0.0
 30
0.0
  0
VERTEX
  5
21F
  8
0
  6
CONTINUOUS
 62
     7
 10
108.7324425066437
 20
104.0395815601589
 30
0.0
  0
VERTEX
  5
220
  8
0
  6
CONTINUOUS
 62
     7
 10
108.6398571953266
 20
103.9428921971776
 30
0.0
  0
VERTEX
  5
221
  8
0
  6
CONTINUOUS
 62
     7
 10
108.5584936149586
 20
103.8303881920197
 30
0.0
  0
VERTEX
  5
222
  8
0
  6
CONTINUOUS
 62
     7
 10
108.502952760231
 20
103.7243122700972
 30
0.0
  0
VERTEX
  5
223
  8
0
  6
CONTINUOUS
 62
     7
 10
108.4658645119129
 20
103.6208263040576
 30
0.0
  0
VERTEX
  5
224
  8
0
  6
CONTINUOUS
 62
     7
 10
108.4433097285888
 20
103.5111049223884
 30
0.0
  0
VERTEX
  5
225
  8
0
  6
CONTINUOUS
 62
     7
 10
108.4372621609742
 20
103.3946622603805
 30
0.0
  0
VERTEX
  5
226
  8
0
  6
CONTINUOUS
 62
     7
 10
108.439254495775
 20
103.3558472465033
 30
0.0
  0
SEQEND
  5
4EF
  8
0
  6
CONTINUOUS
 62
     7
  0
LINE
  5
B7
  8
0
  6
CONTINUOUS
 62
     7
 10
135.5439489678039
 20
104.4081832027462
 30
0.0
 11
130.8951442705019
 21
104.4081832027462
 31
0.0
  0
LINE
  5
B8
  8
0
  6
CONTINUOUS
 62
     7
 10
114.4387786094557
 20
104.4081832027462
 30
0.0
 11
109.7899739121538
 21
104.4081832027462
 31
0.0
  0
POLYLINE
  5
B9
  8
0
  6
CONTINUOUS
 62
     7
 66
     1
 10
0.0
 20
0.0
 30
0.0
  0
VERTEX
  5
227
  8
0
  6
CONTINUOUS
 62
     7
 10
136.8946683841826
 20
103.3558472465033
 30
0.0
  0
VERTEX
  5
228
  8
0
  6
CONTINUOUS
 62
     7
 10
136.8932360621998
 20
103.4882311364298
 30
0.0
  0
VERTEX
  5
229
  8
0
  6
CONTINUOUS
 62
     7
 10
136.876230009483
 20
103.5894010224585
 30
0.0
  0
VERTEX
  5
22A
  8
0
  6
CONTINUOUS
 62
     7
 10
136.8345000413252
 20
103.7161217448547
 30
0.0
  0
VERTEX
  5
22B
  8
0
  6
CONTINUOUS
 62
     7
 10
136.7780302566333
 20
103.8261298450428
 30
0.0
  0
VERTEX
  5
22C
  8
0
  6
CONTINUOUS
 62
     7
 10
136.7026235823829
 20
103.9325571647748
 30
0.0
  0
VERTEX
  5
22D
  8
0
  6
CONTINUOUS
 62
     7
 10
136.6042064493655
 20
104.037059367225
 30
0.0
  0
VERTEX
  5
22E
  8
0
  6
CONTINUOUS
 62
     7
 10
136.5145210207239
 20
104.1119794308169
 30
0.0
  0
VERTEX
  5
22F
  8
0
  6
CONTINUOUS
 62
     7
 10
136.4214851837331
 20
104.1756536163814
 30
0.0
  0
VERTEX
  5
230
  8
0
  6
CONTINUOUS
 62
     7
 10
136.3232823658843
 20
104.2310736823175
 30
0.0
  0
SEQEND
  5
4F0
  8
0
  6
CONTINUOUS
 62
     7
  0
ARC
  5
BA
  8
0
  6
CONTINUOUS
 62
     7
 10
135.5671048481812
 20
102.7068742492483
 30
0.0
 40
1.701466529217711
 50
63.6133213238472
 51
90.77978329417854
  0
LINE
  5
BB
  8
0
  6
CONTINUOUS
 62
     7
 10
136.1077284212381
 20
93.35584724650288
 30
0.0
 11
136.8946683841826
 21
103.3558472465033
 31
0.0
  0
ARC
  5
BC
  8
0
  6
CONTINUOUS
 62
     7
 10
134.7227037656947
 20
94.20349250883959
 30
0.0
 40
1.795537192375231
 50
269.0871401378055
 51
299.8076091862713
  0
POLYLINE
  5
BD
  8
0
  6
CONTINUOUS
 62
     7
 66
     1
 10
0.0
 20
0.0
 30
0.0
  0
VERTEX
  5
231
  8
0
  6
CONTINUOUS
 62
     7
 10
135.6152459131972
 20
92.64550588369339
 30
0.0
  0
VERTEX
  5
232
  8
0
  6
CONTINUOUS
 62
     7
 10
135.7370737988022
 20
92.728761492299
 30
0.0
  0
VERTEX
  5
233
  8
0
  6
CONTINUOUS
 62
     7
 10
135.8223122968415
 20
92.80127264328051
 30
0.0
  0
VERTEX
  5
234
  8
0
  6
CONTINUOUS
 62
     7
 10
135.9191464680511
 20
92.9050368983035
 30
0.0
  0
VERTEX
  5
235
  8
0
  6
CONTINUOUS
 62
     7
 10
135.994596048038
 20
93.01231568284715
 30
0.0
  0
VERTEX
  5
236
  8
0
  6
CONTINUOUS
 62
     7
 10
136.0511064614046
 20
93.12392050657652
 30
0.0
  0
VERTEX
  5
237
  8
0
  6
CONTINUOUS
 62
     7
 10
136.0847409760897
 20
93.22275788914263
 30
0.0
  0
VERTEX
  5
238
  8
0
  6
CONTINUOUS
 62
     7
 10
136.1042552606789
 20
93.32223636892795
 30
0.0
  0
VERTEX
  5
239
  8
0
  6
CONTINUOUS
 62
     7
 10
136.1077284212381
 20
93.35584724650286
 30
0.0
  0
SEQEND
  5
4F1
  8
0
  6
CONTINUOUS
 62
     7
  0
LINE
  5
BE
  8
0
  6
CONTINUOUS
 62
     7
 10
130.7904218570128
 20
92.40818320274582
 30
0.0
 11
134.6940977408777
 21
92.40818320274582
 31
0.0
  0
LINE
  5
BF
  8
0
  6
CONTINUOUS
 62
     7
 10
136.9333917826228
 20
92.40818320274582
 30
0.0
 11
134.6940977408777
 21
92.40818320274582
 31
0.0
  0
POLYLINE
  5
C0
  8
0
  6
CONTINUOUS
 62
     7
 66
     1
 10
0.0
 20
0.0
 30
0.0
  0
VERTEX
  5
23A
  8
0
  6
CONTINUOUS
 62
     7
 10
138.1424311043777
 20
93.35584724650288
 30
0.0
  0
VERTEX
  5
23B
  8
0
  6
CONTINUOUS
 62
     7
 10
138.127481358197
 20
93.24500946991041
 30
0.0
  0
VERTEX
  5
23C
  8
0
  6
CONTINUOUS
 62
     7
 10
138.0974574575937
 20
93.13482175464165
 30
0.0
  0
VERTEX
  5
23D
  8
0
  6
CONTINUOUS
 62
     7
 10
138.0532768575547
 20
93.02906925550808
 30
0.0
  0
VERTEX
  5
23E
  8
0
  6
CONTINUOUS
 62
     7
 10
137.9977644532849
 20
92.93188233242456
 30
0.0
  0
SEQEND
  5
4F2
  8
0
  6
CONTINUOUS
 62
     7
  0
ARC
  5
C1
  8
0
  6
CONTINUOUS
 62
     7
 10
136.9785830698796
 20
93.65980760306374
 30
0.0
 40
1.252439975374101
 50
267.9321705929221
 51
324.4646090759562
  0
LINE
  5
C2
  8
0
  6
CONTINUOUS
 62
     7
 10
110.6398251390799
 20
92.40818320274582
 30
0.0
 11
108.4005310973348
 21
92.40818320274582
 31
0.0
  0
ARC
  5
C3
  8
0
  6
CONTINUOUS
 62
     7
 10
108.3968236648029
 20
93.8438474544487
 30
0.0
 40
1.435669038697143
 50
249.7762426610964
 51
270.1479592212914
  0
POLYLINE
  5
C4
  8
0
  6
CONTINUOUS
 62
     7
 66
     1
 10
0.0
 20
0.0
 30
0.0
  0
VERTEX
  5
23F
  8
0
  6
CONTINUOUS
 62
     7
 10
107.9005310973348
 20
92.49668774745423
 30
0.0
  0
VERTEX
  5
240
  8
0
  6
CONTINUOUS
 62
     7
 10
107.7626016369594
 20
92.55732206775185
 30
0.0
  0
VERTEX
  5
241
  8
0
  6
CONTINUOUS
 62
     7
 10
107.673841412103
 20
92.6073790448319
 30
0.0
  0
VERTEX
  5
242
  8
0
  6
CONTINUOUS
 62
     7
 10
107.5884780038676
 20
92.66557680553065
 30
0.0
  0
VERTEX
  5
243
  8
0
  6
CONTINUOUS
 62
     7
 10
107.4846525232938
 20
92.75352861585597
 30
0.0
  0
VERTEX
  5
244
  8
0
  6
CONTINUOUS
 62
     7
 10
107.3978170759827
 20
92.84755334692646
 30
0.0
  0
VERTEX
  5
245
  8
0
  6
CONTINUOUS
 62
     7
 10
107.3222763208307
 20
92.95380393950967
 30
0.0
  0
VERTEX
  5
246
  8
0
  6
CONTINUOUS
 62
     7
 10
107.2633932582425
 20
93.0660265685928
 30
0.0
  0
VERTEX
  5
247
  8
0
  6
CONTINUOUS
 62
     7
 10
107.2199284790384
 20
93.18836091011562
 30
0.0
  0
VERTEX
  5
248
  8
0
  6
CONTINUOUS
 62
     7
 10
107.1952632224909
 20
93.31505727090006
 30
0.0
  0
VERTEX
  5
249
  8
0
  6
CONTINUOUS
 62
     7
 10
107.1914917755799
 20
93.35584724650288
 30
0.0
  0
SEQEND
  5
4F3
  8
0
  6
CONTINUOUS
 62
     7
  0
LINE
  5
C5
  8
0
  6
CONTINUOUS
 62
     7
 10
135.5439489678039
 20
104.4081832027462
 30
0.0
 11
140.6131813146979
 21
104.4081832027462
 31
0.0
  0
LINE
  5
C6
  8
0
  6
CONTINUOUS
 62
     7
 10
105.6168860770885
 20
101.9081832027458
 30
0.0
 11
106.6142464464122
 21
101.9081832027458
 31
0.0
  0
LINE
  5
C7
  8
0
  6
CONTINUOUS
 62
     7
 10
106.0780363290438
 20
93.35584724650289
 30
0.0
 11
105.6168860770885
 21
101.9081832027458
 31
0.0
  0
LINE
  5
C8
  8
0
  6
CONTINUOUS
 62
     7
 10
105.0838522131
 20
93.35584724650288
 30
0.0
 11
104.5922965338576
 21
101.9081832027458
 31
0.0
  0
LINE
  5
C9
  8
0
  6
CONTINUOUS
 62
     7
 10
104.5922965338576
 20
101.9081832027458
 30
0.0
 11
104.1412707085553
 21
101.9081832027458
 31
0.0
  0
LINE
  5
CA
  8
0
  6
CONTINUOUS
 62
     7
 10
104.5833537361607
 20
93.35584724650288
 30
0.0
 11
104.1412707085553
 21
101.9081832027458
 31
0.0
  0
LINE
  5
CB
  8
0
  6
CONTINUOUS
 62
     7
 10
104.2729053664813
 20
93.35584724650288
 30
0.0
 11
103.820280982337
 21
101.9081832027458
 31
0.0
  0
LINE
  5
CC
  8
0
  6
CONTINUOUS
 62
     7
 10
103.820280982337
 20
101.9081832027458
 30
0.0
 11
103.7979808881864
 21
101.9081832027458
 31
0.0
  0
LINE
  5
CD
  8
0
  6
CONTINUOUS
 62
     7
 10
107.19149177558
 20
93.35584724650286
 30
0.0
 11
106.6142464464122
 21
101.9081832027458
 31
0.0
  0
LINE
  5
CE
  8
0
  6
CONTINUOUS
 62
     7
 10
141.5136418976207
 20
101.9081832027458
 30
0.0
 11
141.5359419917712
 21
101.9081832027458
 31
0.0
  0
LINE
  5
CF
  8
0
  6
CONTINUOUS
 62
     7
 10
141.0610175134763
 20
93.35584724650289
 30
0.0
 11
141.5136418976207
 21
101.9081832027458
 31
0.0
  0
LINE
  5
D0
  8
0
  6
CONTINUOUS
 62
     7
 10
140.750569143797
 20
93.35584724650288
 30
0.0
 11
141.1926521714023
 21
101.9081832027458
 31
0.0
  0
LINE
  5
D1
  8
0
  6
CONTINUOUS
 62
     7
 10
140.7416263461001
 20
101.9081832027458
 30
0.0
 11
141.1926521714023
 21
101.9081832027458
 31
0.0
  0
LINE
  5
D2
  8
0
  6
CONTINUOUS
 62
     7
 10
140.2500706668576
 20
93.35584724650288
 30
0.0
 11
140.7416263461
 21
101.9081832027458
 31
0.0
  0
LINE
  5
D3
  8
0
  6
CONTINUOUS
 62
     7
 10
139.2558865509139
 20
93.35584724650288
 30
0.0
 11
139.7170368028691
 21
101.9081832027458
 31
0.0
  0
LINE
  5
D4
  8
0
  6
CONTINUOUS
 62
     7
 10
139.7170368028692
 20
101.9081832027458
 30
0.0
 11
138.7196764335455
 21
101.9081832027458
 31
0.0
  0
LINE
  5
D5
  8
0
  6
CONTINUOUS
 62
     7
 10
138.1424311043777
 20
93.35584724650288
 30
0.0
 11
138.7196764335455
 21
101.9081832027458
 31
0.0
  0
LINE
  5
D6
  8
0
  6
CONTINUOUS
 62
     7
 10
104.7207415652597
 20
104.4081832027462
 30
0.0
 11
109.7899739121538
 21
104.4081832027462
 31
0.0
  0
LINE
  5
D7
  8
0
  6
CONTINUOUS
 62
     7
 10
115.1176984383591
 20
83.40818320274583
 30
0.0
 11
108.4911588553932
 21
83.40818320274583
 31
0.0
  0
LINE
  5
D8
  8
0
  6
CONTINUOUS
 62
     7
 10
136.8427640245645
 20
83.40818320274583
 30
0.0
 11
130.2162244415985
 21
83.40818320274583
 31
0.0
  0
ARC
  5
D9
  8
0
  6
CONTINUOUS
 62
     7
 10
138.1541605016079
 20
93.59556886775233
 30
0.0
 40
1.187431287266725
 50
269.4977462645078
 51
309.4661051015469
  0
POLYLINE
  5
DA
  8
0
  6
CONTINUOUS
 62
     7
 66
     1
 10
0.0
 20
0.0
 30
0.0
  0
VERTEX
  5
24A
  8
0
  6
CONTINUOUS
 62
     7
 10
138.9089175157334
 20
92.6788710377079
 30
0.0
  0
VERTEX
  5
24B
  8
0
  6
CONTINUOUS
 62
     7
 10
139.0103028512675
 20
92.77691475265611
 30
0.0
  0
VERTEX
  5
24C
  8
0
  6
CONTINUOUS
 62
     7
 10
139.0990803541519
 20
92.89084401202467
 30
0.0
  0
VERTEX
  5
24D
  8
0
  6
CONTINUOUS
 62
     7
 10
139.1678850412169
 20
93.01186544785352
 30
0.0
  0
VERTEX
  5
24E
  8
0
  6
CONTINUOUS
 62
     7
 10
139.2140233687365
 20
93.12843693420143
 30
0.0
  0
VERTEX
  5
24F
  8
0
  6
CONTINUOUS
 62
     7
 10
139.2446341259372
 20
93.25448303380867
 30
0.0
  0
VERTEX
  5
250
  8
0
  6
CONTINUOUS
 62
     7
 10
139.2558865509139
 20
93.35584724650288
 30
0.0
  0
SEQEND
  5
4F4
  8
0
  6
CONTINUOUS
 62
     7
  0
LINE
  5
DB
  8
0
  6
CONTINUOUS
 62
     7
 10
136.9333917826227
 20
92.40818320274582
 30
0.0
 11
138.1437516343801
 21
92.40818320274582
 31
0.0
  0
POLYLINE
  5
DC
  8
0
  6
CONTINUOUS
 62
     7
 66
     1
 10
0.0
 20
0.0
 30
0.0
  0
VERTEX
  5
251
  8
0
  6
CONTINUOUS
 62
     7
 10
140.2500706668576
 20
93.35584724650288
 30
0.0
  0
VERTEX
  5
252
  8
0
  6
CONTINUOUS
 62
     7
 10
140.2469104118429
 20
93.31573800403216
 30
0.0
  0
VERTEX
  5
253
  8
0
  6
CONTINUOUS
 62
     7
 10
140.242066861395
 20
93.27579702068799
 30
0.0
  0
VERTEX
  5
254
  8
0
  6
CONTINUOUS
 62
     7
 10
140.2354970014388
 20
93.2358119796245
 30
0.0
  0
VERTEX
  5
255
  8
0
  6
CONTINUOUS
 62
     7
 10
140.2272461128028
 20
93.196139626454
 30
0.0
  0
VERTEX
  5
256
  8
0
  6
CONTINUOUS
 62
     7
 10
140.2170920567637
 20
93.15598119955109
 30
0.0
  0
VERTEX
  5
257
  8
0
  6
CONTINUOUS
 62
     7
 10
140.2052246507314
 20
93.1162952052393
 30
0.0
  0
VERTEX
  5
258
  8
0
  6
CONTINUOUS
 62
     7
 10
140.1915626736762
 20
93.07686489023118
 30
0.0
  0
VERTEX
  5
259
  8
0
  6
CONTINUOUS
 62
     7
 10
140.1762210512543
 20
93.03805708229774
 30
0.0
  0
VERTEX
  5
25A
  8
0
  6
CONTINUOUS
 62
     7
 10
140.1598713194664
 20
93.0012973396696
 30
0.0
  0
VERTEX
  5
25B
  8
0
  6
CONTINUOUS
 62
     7
 10
140.1420267583742
 20
92.96523938847108
 30
0.0
  0
VERTEX
  5
25C
  8
0
  6
CONTINUOUS
 62
     7
 10
140.1225869424453
 20
92.92970469013592
 30
0.0
  0
VERTEX
  5
25D
  8
0
  6
CONTINUOUS
 62
     7
 10
140.101708697315
 20
92.89499541927886
 30
0.0
  0
VERTEX
  5
25E
  8
0
  6
CONTINUOUS
 62
     7
 10
140.078953849411
 20
92.8604706491507
 30
0.0
  0
VERTEX
  5
25F
  8
0
  6
CONTINUOUS
 62
     7
 10
140.0547903940018
 20
92.82691642700715
 30
0.0
  0
VERTEX
  5
260
  8
0
  6
CONTINUOUS
 62
     7
 10
140.02908580723
 20
92.79416540680101
 30
0.0
  0
VERTEX
  5
261
  8
0
  6
CONTINUOUS
 62
     7
 10
140.0020540404482
 20
92.76250067560098
 30
0.0
  0
VERTEX
  5
262
  8
0
  6
CONTINUOUS
 62
     7
 10
139.9740601748526
 20
92.73229455600347
 30
0.0
  0
VERTEX
  5
263
  8
0
  6
CONTINUOUS
 62
     7
 10
139.9448723334331
 20
92.70324026398083
 30
0.0
  0
VERTEX
  5
264
  8
0
  6
CONTINUOUS
 62
     7
 10
139.9143423945952
 20
92.67520150840846
 30
0.0
  0
VERTEX
  5
265
  8
0
  6
CONTINUOUS
 62
     7
 10
139.8827133252897
 20
92.64840847090174
 30
0.0
  0
VERTEX
  5
266
  8
0
  6
CONTINUOUS
 62
     7
 10
139.8493794507783
 20
92.62240234914593
 30
0.0
  0
VERTEX
  5
267
  8
0
  6
CONTINUOUS
 62
     7
 10
139.8150220939314
 20
92.59776388043461
 30
0.0
  0
VERTEX
  5
268
  8
0
  6
CONTINUOUS
 62
     7
 10
139.7794675740344
 20
92.57437872522502
 30
0.0
  0
VERTEX
  5
269
  8
0
  6
CONTINUOUS
 62
     7
 10
139.7430015363279
 20
92.55244169458607
 30
0.0
  0
VERTEX
  5
26A
  8
0
  6
CONTINUOUS
 62
     7
 10
139.7052374385165
 20
92.53174652184127
 30
0.0
  0
VERTEX
  5
26B
  8
0
  6
CONTINUOUS
 62
     7
 10
139.6666709382148
 20
92.51258777929475
 30
0.0
  0
VERTEX
  5
26C
  8
0
  6
CONTINUOUS
 62
     7
 10
139.6271095254299
 20
92.49488032877153
 30
0.0
  0
VERTEX
  5
26D
  8
0
  6
CONTINUOUS
 62
     7
 10
139.5868696369267
 20
92.47877367939341
 30
0.0
  0
VERTEX
  5
26E
  8
0
  6
CONTINUOUS
 62
     7
 10
139.5451948868847
 20
92.46401430783494
 30
0.0
  0
VERTEX
  5
26F
  8
0
  6
CONTINUOUS
 62
     7
 10
139.502955819936
 20
92.45095683937879
 30
0.0
  0
VERTEX
  5
270
  8
0
  6
CONTINUOUS
 62
     7
 10
139.4599389453349
 20
92.43954796040504
 30
0.0
  0
VERTEX
  5
271
  8
0
  6
CONTINUOUS
 62
     7
 10
139.4164950724011
 20
92.42989115108148
 30
0.0
  0
VERTEX
  5
272
  8
0
  6
CONTINUOUS
 62
     7
 10
139.3626555171562
 20
92.42044462932446
 30
0.0
  0
VERTEX
  5
273
  8
0
  6
CONTINUOUS
 62
     7
 10
139.3084146585886
 20
92.41367108061519
 30
0.0
  0
VERTEX
  5
274
  8
0
  6
CONTINUOUS
 62
     7
 10
139.2533633067554
 20
92.4095562470631
 30
0.0
  0
VERTEX
  5
275
  8
0
  6
CONTINUOUS
 62
     7
 10
139.198175391819
 20
92.40818320274582
 30
0.0
  0
SEQEND
  5
4F5
  8
0
  6
CONTINUOUS
 62
     7
  0
LINE
  5
DD
  8
0
  6
CONTINUOUS
 62
     7
 10
139.198175391819
 20
92.40818320274582
 30
0.0
 11
138.1437516343801
 21
92.40818320274582
 31
0.0
  0
POLYLINE
  5
DE
  8
0
  6
CONTINUOUS
 62
     7
 66
     1
 10
0.0
 20
0.0
 30
0.0
  0
VERTEX
  5
276
  8
0
  6
CONTINUOUS
 62
     7
 10
106.0780363290438
 20
93.35584724650288
 30
0.0
  0
VERTEX
  5
277
  8
0
  6
CONTINUOUS
 62
     7
 10
106.0809504444318
 20
93.31731182867325
 30
0.0
  0
VERTEX
  5
278
  8
0
  6
CONTINUOUS
 62
     7
 10
106.0855165332538
 20
93.27890140816139
 30
0.0
  0
VERTEX
  5
279
  8
0
  6
CONTINUOUS
 62
     7
 10
106.0917153765421
 20
93.2407200927551
 30
0.0
  0
VERTEX
  5
27A
  8
0
  6
CONTINUOUS
 62
     7
 10
106.0995277553287
 20
93.2028719902421
 30
0.0
  0
VERTEX
  5
27B
  8
0
  6
CONTINUOUS
 62
     7
 10
106.109257307822
 20
93.16425888172964
 30
0.0
  0
VERTEX
  5
27C
  8
0
  6
CONTINUOUS
 62
     7
 10
106.1206671352184
 20
93.12606941021727
 30
0.0
  0
VERTEX
  5
27D
  8
0
  6
CONTINUOUS
 62
     7
 10
106.1337123257041
 20
93.08840620271555
 30
0.0
  0
VERTEX
  5
27E
  8
0
  6
CONTINUOUS
 62
     7
 10
106.1483479674653
 20
93.05137188623493
 30
0.0
  0
VERTEX
  5
27F
  8
0
  6
CONTINUOUS
 62
     7
 10
106.1640467232792
 20
93.01607567263511
 30
0.0
  0
VERTEX
  5
280
  8
0
  6
CONTINUOUS
 62
     7
 10
106.1811923449803
 20
92.98142331891042
 30
0.0
  0
VERTEX
  5
281
  8
0
  6
CONTINUOUS
 62
     7
 10
106.199727989907
 20
92.94749288000808
 30
0.0
  0
VERTEX
  5
282
  8
0
  6
CONTINUOUS
 62
     7
 10
106.2195968153983
 20
92.91436241087528
 30
0.0
  0
VERTEX
  5
283
  8
0
  6
CONTINUOUS
 62
     7
 10
106.2413589916128
 20
92.88119845092274
 30
0.0
  0
VERTEX
  5
284
  8
0
  6
CONTINUOUS
 62
     7
 10
106.2644632120932
 20
92.84891559946185
 30
0.0
  0
VERTEX
  5
285
  8
0
  6
CONTINUOUS
 62
     7
 10
106.2888381832056
 20
92.81757939762635
 30
0.0
  0
VERTEX
  5
286
  8
0
  6
CONTINUOUS
 62
     7
 10
106.3144126113159
 20
92.78725538654997
 30
0.0
  0
VERTEX
  5
287
  8
0
  6
CONTINUOUS
 62
     7
 10
106.3509420539815
 20
92.74778679888907
 30
0.0
  0
VERTEX
  5
288
  8
0
  6
CONTINUOUS
 62
     7
 10
106.3895033359867
 20
92.71024703366338
 30
0.0
  0
VERTEX
  5
289
  8
0
  6
CONTINUOUS
 62
     7
 10
106.4299101940228
 20
92.67475372297535
 30
0.0
  0
VERTEX
  5
28A
  8
0
  6
CONTINUOUS
 62
     7
 10
106.4730976056822
 20
92.64056721223845
 30
0.0
  0
VERTEX
  5
28B
  8
0
  6
CONTINUOUS
 62
     7
 10
106.5179932717179
 20
92.60859425891456
 30
0.0
  0
VERTEX
  5
28C
  8
0
  6
CONTINUOUS
 62
     7
 10
106.5643999374683
 20
92.57891917860967
 30
0.0
  0
VERTEX
  5
28D
  8
0
  6
CONTINUOUS
 62
     7
 10
106.6156897358036
 20
92.54969460524107
 30
0.0
  0
VERTEX
  5
28E
  8
0
  6
CONTINUOUS
 62
     7
 10
106.6684592999464
 20
92.52314479284415
 30
0.0
  0
VERTEX
  5
28F
  8
0
  6
CONTINUOUS
 62
     7
 10
106.7224780658587
 20
92.49933186078424
 30
0.0
  0
VERTEX
  5
290
  8
0
  6
CONTINUOUS
 62
     7
 10
106.7789606409397
 20
92.4777961799062
 30
0.0
  0
VERTEX
  5
291
  8
0
  6
CONTINUOUS
 62
     7
 10
106.8364991443714
 20
92.4591363708087
 30
0.0
  0
VERTEX
  5
292
  8
0
  6
CONTINUOUS
 62
     7
 10
106.8948624862706
 20
92.44338559954633
 30
0.0
  0
VERTEX
  5
293
  8
0
  6
CONTINUOUS
 62
     7
 10
106.9430064927071
 20
92.43269097934328
 30
0.0
  0
VERTEX
  5
294
  8
0
  6
CONTINUOUS
 62
     7
 10
106.9915591749009
 20
92.42392574935954
 30
0.0
  0
VERTEX
  5
295
  8
0
  6
CONTINUOUS
 62
     7
 10
107.0404022955429
 20
92.41709616631294
 30
0.0
  0
VERTEX
  5
296
  8
0
  6
CONTINUOUS
 62
     7
 10
107.0901873244769
 20
92.41214343901561
 30
0.0
  0
VERTEX
  5
297
  8
0
  6
CONTINUOUS
 62
     7
 10
107.1401498408786
 20
92.40917299159548
 30
0.0
  0
VERTEX
  5
298
  8
0
  6
CONTINUOUS
 62
     7
 10
107.1901712455776
 20
92.40818320274582
 30
0.0
  0
SEQEND
  5
4F6
  8
0
  6
CONTINUOUS
 62
     7
  0
LINE
  5
DF
  8
0
  6
CONTINUOUS
 62
     7
 10
108.4005310973348
 20
92.40818320274582
 30
0.0
 11
107.1901712455776
 21
92.40818320274582
 31
0.0
  0
POLYLINE
  5
E0
  8
0
  6
CONTINUOUS
 62
     7
 66
     1
 10
0.0
 20
0.0
 30
0.0
  0
VERTEX
  5
299
  8
0
  6
CONTINUOUS
 62
     7
 10
106.1357474881387
 20
92.40818320274582
 30
0.0
  0
VERTEX
  5
29A
  8
0
  6
CONTINUOUS
 62
     7
 10
106.0903628786415
 20
92.40911136648673
 30
0.0
  0
VERTEX
  5
29B
  8
0
  6
CONTINUOUS
 62
     7
 10
106.045054177629
 20
92.4118939983971
 30
0.0
  0
VERTEX
  5
29C
  8
0
  6
CONTINUOUS
 62
     7
 10
105.9995916321925
 20
92.41656799101926
 30
0.0
  0
VERTEX
  5
29D
  8
0
  6
CONTINUOUS
 62
     7
 10
105.9543608671194
 20
92.42311479302259
 30
0.0
  0
VERTEX
  5
29E
  8
0
  6
CONTINUOUS
 62
     7
 10
105.9084822968641
 20
92.43172950502273
 30
0.0
  0
VERTEX
  5
29F
  8
0
  6
CONTINUOUS
 62
     7
 10
105.8630102029247
 20
92.44228100422916
 30
0.0
  0
VERTEX
  5
2A0
  8
0
  6
CONTINUOUS
 62
     7
 10
105.8177007775109
 20
92.45485689059943
 30
0.0
  0
VERTEX
  5
2A1
  8
0
  6
CONTINUOUS
 62
     7
 10
105.7729742461001
 20
92.46936961513128
 30
0.0
  0
VERTEX
  5
2A2
  8
0
  6
CONTINUOUS
 62
     7
 10
105.7304283827196
 20
92.48520205377712
 30
0.0
  0
VERTEX
  5
2A3
  8
0
  6
CONTINUOUS
 62
     7
 10
105.6885832181851
 20
92.5028027042597
 30
0.0
  0
VERTEX
  5
2A4
  8
0
  6
CONTINUOUS
 62
     7
 10
105.6472251767032
 20
92.52229562699083
 30
0.0
  0
VERTEX
  5
2A5
  8
0
  6
CONTINUOUS
 62
     7
 10
105.6067356516683
 20
92.54353335025303
 30
0.0
  0
VERTEX
  5
2A6
  8
0
  6
CONTINUOUS
 62
     7
 10
105.5662991797695
 20
92.56703460275736
 30
0.0
  0
VERTEX
  5
2A7
  8
0
  6
CONTINUOUS
 62
     7
 10
105.5269385732644
 20
92.59229595852607
 30
0.0
  0
VERTEX
  5
2A8
  8
0
  6
CONTINUOUS
 62
     7
 10
105.4884389133832
 20
92.61950240488825
 30
0.0
  0
VERTEX
  5
2A9
  8
0
  6
CONTINUOUS
 62
     7
 10
105.4512029527493
 20
92.64841384064044
 30
0.0
  0
VERTEX
  5
2AA
  8
0
  6
CONTINUOUS
 62
     7
 10
105.4175709846067
 20
92.67697876051871
 30
0.0
  0
VERTEX
  5
2AB
  8
0
  6
CONTINUOUS
 62
     7
 10
105.3851885891364
 20
92.70695247347693
 30
0.0
  0
VERTEX
  5
2AC
  8
0
  6
CONTINUOUS
 62
     7
 10
105.3538975470055
 20
92.73852873749692
 30
0.0
  0
VERTEX
  5
2AD
  8
0
  6
CONTINUOUS
 62
     7
 10
105.3240105796409
 20
92.77143674351292
 30
0.0
  0
VERTEX
  5
2AE
  8
0
  6
CONTINUOUS
 62
     7
 10
105.2949326908964
 20
92.80645740643565
 30
0.0
  0
VERTEX
  5
2AF
  8
0
  6
CONTINUOUS
 62
     7
 10
105.2674647016288
 20
92.84275417857992
 30
0.0
  0
VERTEX
  5
2B0
  8
0
  6
CONTINUOUS
 62
     7
 10
105.2414663770985
 20
92.88057991013024
 30
0.0
  0
VERTEX
  5
2B1
  8
0
  6
CONTINUOUS
 62
     7
 10
105.2172375661071
 20
92.9195624616312
 30
0.0
  0
VERTEX
  5
2B2
  8
0
  6
CONTINUOUS
 62
     7
 10
105.1966628378652
 20
92.95619983106187
 30
0.0
  0
VERTEX
  5
2B3
  8
0
  6
CONTINUOUS
 62
     7
 10
105.1776682435076
 20
92.99368057890179
 30
0.0
  0
VERTEX
  5
2B4
  8
0
  6
CONTINUOUS
 62
     7
 10
105.1601747818611
 20
93.03222773128185
 30
0.0
  0
VERTEX
  5
2B5
  8
0
  6
CONTINUOUS
 62
     7
 10
105.1443680408162
 20
93.07149651187385
 30
0.0
  0
VERTEX
  5
2B6
  8
0
  6
CONTINUOUS
 62
     7
 10
105.1299744922079
 20
93.1123685791049
 30
0.0
  0
VERTEX
  5
2B7
  8
0
  6
CONTINUOUS
 62
     7
 10
105.1174227459204
 20
93.15384315953874
 30
0.0
  0
VERTEX
  5
2B8
  8
0
  6
CONTINUOUS
 62
     7
 10
105.1066670243488
 20
93.19618442518615
 30
0.0
  0
VERTEX
  5
2B9
  8
0
  6
CONTINUOUS
 62
     7
 10
105.0978433170477
 20
93.23896993959687
 30
0.0
  0
VERTEX
  5
2BA
  8
0
  6
CONTINUOUS
 62
     7
 10
105.0930073921785
 20
93.26795896727388
 30
0.0
  0
VERTEX
  5
2BB
  8
0
  6
CONTINUOUS
 62
     7
 10
105.0890625164236
 20
93.29708260922817
 30
0.0
  0
VERTEX
  5
2BC
  8
0
  6
CONTINUOUS
 62
     7
 10
105.0860041118953
 20
93.3264247479747
 30
0.0
  0
VERTEX
  5
2BD
  8
0
  6
CONTINUOUS
 62
     7
 10
105.0838522131
 20
93.35584724650288
 30
0.0
  0
SEQEND
  5
4F7
  8
0
  6
CONTINUOUS
 62
     7
  0
LINE
  5
E1
  8
0
  6
CONTINUOUS
 62
     7
 10
107.1901712455776
 20
92.40818320274582
 30
0.0
 11
106.1357474881387
 21
92.40818320274582
 31
0.0
  0
POLYLINE
  5
E2
  8
0
  6
CONTINUOUS
 62
     7
 66
     1
 10
0.0
 20
0.0
 30
0.0
  0
VERTEX
  5
2BE
  8
0
  6
CONTINUOUS
 62
     7
 10
104.5833537361607
 20
93.35584724650288
 30
0.0
  0
VERTEX
  5
2BF
  8
0
  6
CONTINUOUS
 62
     7
 10
104.5863259776933
 20
93.31498086617874
 30
0.0
  0
VERTEX
  5
2C0
  8
0
  6
CONTINUOUS
 62
     7
 10
104.5910049755871
 20
93.27423858176417
 30
0.0
  0
VERTEX
  5
2C1
  8
0
  6
CONTINUOUS
 62
     7
 10
104.5973756674571
 20
93.23372627991344
 30
0.0
  0
VERTEX
  5
2C2
  8
0
  6
CONTINUOUS
 62
     7
 10
104.6054229909183
 20
93.19354984728086
 30
0.0
  0
VERTEX
  5
2C3
  8
0
  6
CONTINUOUS
 62
     7
 10
104.6154535516929
 20
93.15258784475627
 30
0.0
  0
VERTEX
  5
2C4
  8
0
  6
CONTINUOUS
 62
     7
 10
104.6272409426928
 20
93.11205601681046
 30
0.0
  0
VERTEX
  5
2C5
  8
0
  6
CONTINUOUS
 62
     7
 10
104.6407485292491
 20
93.07206435153506
 30
0.0
  0
VERTEX
  5
2C6
  8
0
  6
CONTINUOUS
 62
     7
 10
104.6559396766928
 20
93.03272283702172
 30
0.0
  0
VERTEX
  5
2C7
  8
0
  6
CONTINUOUS
 62
     7
 10
104.6723004395928
 20
92.99515938967217
 30
0.0
  0
VERTEX
  5
2C8
  8
0
  6
CONTINUOUS
 62
     7
 10
104.6902184722168
 20
92.9582741951425
 30
0.0
  0
VERTEX
  5
2C9
  8
0
  6
CONTINUOUS
 62
     7
 10
104.7096434091492
 20
92.92215955754332
 30
0.0
  0
VERTEX
  5
2CA
  8
0
  6
CONTINUOUS
 62
     7
 10
104.7305248849745
 20
92.88690778098528
 30
0.0
  0
VERTEX
  5
2CB
  8
0
  6
CONTINUOUS
 62
     7
 10
104.7535062204855
 20
92.85158112118114
 30
0.0
  0
VERTEX
  5
2CC
  8
0
  6
CONTINUOUS
 62
     7
 10
104.7779832491167
 20
92.81722746066204
 30
0.0
  0
VERTEX
  5
2CD
  8
0
  6
CONTINUOUS
 62
     7
 10
104.8038856325827
 20
92.78393488182468
 30
0.0
  0
VERTEX
  5
2CE
  8
0
  6
CONTINUOUS
 62
     7
 10
104.8311430325982
 20
92.75179146706569
 30
0.0
  0
VERTEX
  5
2CF
  8
0
  6
CONTINUOUS
 62
     7
 10
104.8591526538041
 20
92.72142901799748
 30
0.0
  0
VERTEX
  5
2D0
  8
0
  6
CONTINUOUS
 62
     7
 10
104.8884111624824
 20
92.69221867771502
 30
0.0
  0
VERTEX
  5
2D1
  8
0
  6
CONTINUOUS
 62
     7
 10
104.9188406096556
 20
92.66422969988929
 30
0.0
  0
VERTEX
  5
2D2
  8
0
  6
CONTINUOUS
 62
     7
 10
104.9503630463463
 20
92.63753133819135
 30
0.0
  0
VERTEX
  5
2D3
  8
0
  6
CONTINUOUS
 62
     7
 10
104.9838818025471
 20
92.61145403018658
 30
0.0
  0
VERTEX
  5
2D4
  8
0
  6
CONTINUOUS
 62
     7
 10
105.0184929174061
 20
92.58678080398319
 30
0.0
  0
VERTEX
  5
2D5
  8
0
  6
CONTINUOUS
 62
     7
 10
105.0541022349789
 20
92.5635707458198
 30
0.0
  0
VERTEX
  5
2D6
  8
0
  6
CONTINUOUS
 62
     7
 10
105.0906155993213
 20
92.54188294193504
 30
0.0
  0
VERTEX
  5
2D7
  8
0
  6
CONTINUOUS
 62
     7
 10
105.127622174138
 20
92.5219316969621
 30
0.0
  0
VERTEX
  5
2D8
  8
0
  6
CONTINUOUS
 62
     7
 10
105.1654483533066
 20
92.50350069704366
 30
0.0
  0
VERTEX
  5
2D9
  8
0
  6
CONTINUOUS
 62
     7
 10
105.2039965449
 20
92.48663102402467
 30
0.0
  0
VERTEX
  5
2DA
  8
0
  6
CONTINUOUS
 62
     7
 10
105.2431691569908
 20
92.47136375975006
 30
0.0
  0
VERTEX
  5
2DB
  8
0
  6
CONTINUOUS
 62
     7
 10
105.284056255021
 20
92.45735408536831
 30
0.0
  0
VERTEX
  5
2DC
  8
0
  6
CONTINUOUS
 62
     7
 10
105.3255302098858
 20
92.44505712878033
 30
0.0
  0
VERTEX
  5
2DD
  8
0
  6
CONTINUOUS
 62
     7
 10
105.3674810280451
 20
92.43449983911181
 30
0.0
  0
VERTEX
  5
2DE
  8
0
  6
CONTINUOUS
 62
     7
 10
105.4097987159587
 20
92.42570916548848
 30
0.0
  0
VERTEX
  5
2DF
  8
0
  6
CONTINUOUS
 62
     7
 10
105.456972636861
 20
92.41805885280426
 30
0.0
  0
VERTEX
  5
2E0
  8
0
  6
CONTINUOUS
 62
     7
 10
105.504498754039
 20
92.41258006766753
 30
0.0
  0
VERTEX
  5
2E1
  8
0
  6
CONTINUOUS
 62
     7
 10
105.552226184441
 20
92.40928434075553
 30
0.0
  0
VERTEX
  5
2E2
  8
0
  6
CONTINUOUS
 62
     7
 10
105.6000040450148
 20
92.40818320274546
 30
0.0
  0
SEQEND
  5
4F8
  8
0
  6
CONTINUOUS
 62
     7
  0
LINE
  5
E3
  8
0
  6
CONTINUOUS
 62
     7
 10
105.6000040450149
 20
92.40818320274582
 30
0.0
 11
106.1357474881387
 21
92.40818320274582
 31
0.0
  0
POLYLINE
  5
E4
  8
0
  6
CONTINUOUS
 62
     7
 66
     1
 10
0.0
 20
0.0
 30
0.0
  0
VERTEX
  5
2E3
  8
0
  6
CONTINUOUS
 62
     7
 10
139.7339188349428
 20
92.40818320274582
 30
0.0
  0
VERTEX
  5
2E4
  8
0
  6
CONTINUOUS
 62
     7
 10
139.7768761406849
 20
92.40907245687882
 30
0.0
  0
VERTEX
  5
2E5
  8
0
  6
CONTINUOUS
 62
     7
 10
139.8197968216701
 20
92.41173526562027
 30
0.0
  0
VERTEX
  5
2E6
  8
0
  6
CONTINUOUS
 62
     7
 10
139.8625712100568
 20
92.41616419848386
 30
0.0
  0
VERTEX
  5
2E7
  8
0
  6
CONTINUOUS
 62
     7
 10
139.9050896380034
 20
92.42235182498327
 30
0.0
  0
VERTEX
  5
2E8
  8
0
  6
CONTINUOUS
 62
     7
 10
139.9485251323781
 20
92.43055500261433
 30
0.0
  0
VERTEX
  5
2E9
  8
0
  6
CONTINUOUS
 62
     7
 10
139.9916107270403
 20
92.44061152864312
 30
0.0
  0
VERTEX
  5
2EA
  8
0
  6
CONTINUOUS
 62
     7
 10
140.0342284779493
 20
92.4524944765816
 30
0.0
  0
VERTEX
  5
2EB
  8
0
  6
CONTINUOUS
 62
     7
 10
140.0762604410641
 20
92.46617691994169
 30
0.0
  0
VERTEX
  5
2EC
  8
0
  6
CONTINUOUS
 62
     7
 10
140.116519783329
 20
92.48119941966222
 30
0.0
  0
VERTEX
  5
2ED
  8
0
  6
CONTINUOUS
 62
     7
 10
140.1561515818113
 20
92.49790401789913
 30
0.0
  0
VERTEX
  5
2EE
  8
0
  6
CONTINUOUS
 62
     7
 10
140.1950512320184
 20
92.51624823919373
 30
0.0
  0
VERTEX
  5
2EF
  8
0
  6
CONTINUOUS
 62
     7
 10
140.2331141294572
 20
92.5361896080873
 30
0.0
  0
VERTEX
  5
2F0
  8
0
  6
CONTINUOUS
 62
     7
 10
140.2713922068963
 20
92.5583824190743
 30
0.0
  0
VERTEX
  5
2F1
  8
0
  6
CONTINUOUS
 62
     7
 10
140.3087069576649
 20
92.58223704073052
 30
0.0
  0
VERTEX
  5
2F2
  8
0
  6
CONTINUOUS
 62
     7
 10
140.3449514773613
 20
92.60768755439524
 30
0.0
  0
VERTEX
  5
2F3
  8
0
  6
CONTINUOUS
 62
     7
 10
140.3800188615837
 20
92.63466804140788
 30
0.0
  0
VERTEX
  5
2F4
  8
0
  6
CONTINUOUS
 62
     7
 10
140.412534927049
 20
92.66198962755522
 30
0.0
  0
VERTEX
  5
2F5
  8
0
  6
CONTINUOUS
 62
     7
 10
140.4439012345446
 20
92.69067972926845
 30
0.0
  0
VERTEX
  5
2F6
  8
0
  6
CONTINUOUS
 62
     7
 10
140.4740329293999
 20
92.72066329496968
 30
0.0
  0
VERTEX
  5
2F7
  8
0
  6
CONTINUOUS
 62
     7
 10
140.5028451569443
 20
92.751865273081
 30
0.0
  0
VERTEX
  5
2F8
  8
0
  6
CONTINUOUS
 62
     7
 10
140.5311114193074
 20
92.78526005226026
 30
0.0
  0
VERTEX
  5
2F9
  8
0
  6
CONTINUOUS
 62
     7
 10
140.5579160388456
 20
92.81989215431337
 30
0.0
  0
VERTEX
  5
2FA
  8
0
  6
CONTINUOUS
 62
     7
 10
140.5831806377631
 20
92.85566273082799
 30
0.0
  0
VERTEX
  5
2FB
  8
0
  6
CONTINUOUS
 62
     7
 10
140.6068268382641
 20
92.89247293339176
 30
0.0
  0
VERTEX
  5
2FC
  8
0
  6
CONTINUOUS
 62
     7
 10
140.6278114273096
 20
92.92846574166717
 30
0.0
  0
VERTEX
  5
2FD
  8
0
  6
CONTINUOUS
 62
     7
 10
140.647283268061
 20
92.96534059913961
 30
0.0
  0
VERTEX
  5
2FE
  8
0
  6
CONTINUOUS
 62
     7
 10
140.6651901890733
 20
93.00299994989594
 30
0.0
  0
VERTEX
  5
2FF
  8
0
  6
CONTINUOUS
 62
     7
 10
140.681480018902
 20
93.04134623802304
 30
0.0
  0
VERTEX
  5
300
  8
0
  6
CONTINUOUS
 62
     7
 10
140.6965436557628
 20
93.08152623491789
 30
0.0
  0
VERTEX
  5
301
  8
0
  6
CONTINUOUS
 62
     7
 10
140.7098571817943
 20
93.12236242978288
 30
0.0
  0
VERTEX
  5
302
  8
0
  6
CONTINUOUS
 62
     7
 10
140.7213833350844
 20
93.1637384536206
 30
0.0
  0
VERTEX
  5
303
  8
0
  6
CONTINUOUS
 62
     7
 10
140.7310848537214
 20
93.20553793743358
 30
0.0
  0
VERTEX
  5
304
  8
0
  6
CONTINUOUS
 62
     7
 10
140.7401527448561
 20
93.25527380451562
 30
0.0
  0
VERTEX
  5
305
  8
0
  6
CONTINUOUS
 62
     7
 10
140.7466564958708
 20
93.30544325646692
 30
0.0
  0
VERTEX
  5
306
  8
0
  6
CONTINUOUS
 62
     7
 10
140.750569143797
 20
93.35584724650286
 30
0.0
  0
SEQEND
  5
4F9
  8
0
  6
CONTINUOUS
 62
     7
  0
LINE
  5
E5
  8
0
  6
CONTINUOUS
 62
     7
 10
139.7339188349428
 20
92.40818320274582
 30
0.0
 11
139.198175391819
 21
92.40818320274582
 31
0.0
  0
POLYLINE
  5
E6
  8
0
  6
CONTINUOUS
 62
     7
 66
     1
 10
0.0
 20
0.0
 30
0.0
  0
VERTEX
  5
307
  8
0
  6
CONTINUOUS
 62
     7
 10
141.0610175134763
 20
93.35584724650289
 30
0.0
  0
VERTEX
  5
308
  8
0
  6
CONTINUOUS
 62
     7
 10
141.0579718524426
 20
93.3145638629874
 30
0.0
  0
VERTEX
  5
309
  8
0
  6
CONTINUOUS
 62
     7
 10
141.0532187484422
 20
93.27344205624557
 30
0.0
  0
VERTEX
  5
30A
  8
0
  6
CONTINUOUS
 62
     7
 10
141.0467142326641
 20
93.2322691911654
 30
0.0
  0
VERTEX
  5
30B
  8
0
  6
CONTINUOUS
 62
     7
 10
141.0384983875249
 20
93.1914033671181
 30
0.0
  0
VERTEX
  5
30C
  8
0
  6
CONTINUOUS
 62
     7
 10
141.0283495245731
 20
93.15003897294135
 30
0.0
  0
VERTEX
  5
30D
  8
0
  6
CONTINUOUS
 62
     7
 10
141.0164478223825
 20
93.10914441031113
 30
0.0
  0
VERTEX
  5
30E
  8
0
  6
CONTINUOUS
 62
     7
 10
141.0027068321383
 20
93.06849954421337
 30
0.0
  0
VERTEX
  5
30F
  8
0
  6
CONTINUOUS
 62
     7
 10
140.9872348767455
 20
93.02848151382294
 30
0.0
  0
VERTEX
  5
310
  8
0
  6
CONTINUOUS
 62
     7
 10
140.9706919832398
 20
92.99053498765507
 30
0.0
  0
VERTEX
  5
311
  8
0
  6
CONTINUOUS
 62
     7
 10
140.9525930929672
 20
92.95330541906249
 30
0.0
  0
VERTEX
  5
312
  8
0
  6
CONTINUOUS
 62
     7
 10
140.9328267222122
 20
92.91660707737908
 30
0.0
  0
VERTEX
  5
313
  8
0
  6
CONTINUOUS
 62
     7
 10
140.9115489951433
 20
92.88076379192277
 30
0.0
  0
VERTEX
  5
314
  8
0
  6
CONTINUOUS
 62
     7
 10
140.8882855048441
 20
92.84509042576612
 30
0.0
  0
VERTEX
  5
315
  8
0
  6
CONTINUOUS
 62
     7
 10
140.8635255904209
 20
92.81043885201164
 30
0.0
  0
VERTEX
  5
316
  8
0
  6
CONTINUOUS
 62
     7
 10
140.8371154090457
 20
92.77663040160601
 30
0.0
  0
VERTEX
  5
317
  8
0
  6
CONTINUOUS
 62
     7
 10
140.8092813356767
 20
92.74398412032545
 30
0.0
  0
VERTEX
  5
318
  8
0
  6
CONTINUOUS
 62
     7
 10
140.7810937328981
 20
92.71361384725654
 30
0.0
  0
VERTEX
  5
319
  8
0
  6
CONTINUOUS
 62
     7
 10
140.751674253797
 20
92.68443518285896
 30
0.0
  0
VERTEX
  5
31A
  8
0
  6
CONTINUOUS
 62
     7
 10
140.7208563264795
 20
92.65630970313862
 30
0.0
  0
VERTEX
  5
31B
  8
0
  6
CONTINUOUS
 62
     7
 10
140.6888943341485
 20
92.62949134872028
 30
0.0
  0
VERTEX
  5
31C
  8
0
  6
CONTINUOUS
 62
     7
 10
140.6551141914198
 20
92.60349043752846
 30
0.0
  0
VERTEX
  5
31D
  8
0
  6
CONTINUOUS
 62
     7
 10
140.6202591941158
 20
92.57894903200554
 30
0.0
  0
VERTEX
  5
31E
  8
0
  6
CONTINUOUS
 62
     7
 10
140.5841251105109
 20
92.55574940879747
 30
0.0
  0
VERTEX
  5
31F
  8
0
  6
CONTINUOUS
 62
     7
 10
140.5470309590001
 20
92.53411785439553
 30
0.0
  0
VERTEX
  5
320
  8
0
  6
CONTINUOUS
 62
     7
 10
140.5103348179742
 20
92.51474178902268
 30
0.0
  0
VERTEX
  5
321
  8
0
  6
CONTINUOUS
 62
     7
 10
140.4728686481108
 20
92.49690000108495
 30
0.0
  0
VERTEX
  5
322
  8
0
  6
CONTINUOUS
 62
     7
 10
140.4344290557132
 20
92.48051685177583
 30
0.0
  0
VERTEX
  5
323
  8
0
  6
CONTINUOUS
 62
     7
 10
140.3953406300647
 20
92.46574834230994
 30
0.0
  0
VERTEX
  5
324
  8
0
  6
CONTINUOUS
 62
     7
 10
140.3548035242235
 20
92.45235474630401
 30
0.0
  0
VERTEX
  5
325
  8
0
  6
CONTINUOUS
 62
     7
 10
140.3137334285159
 20
92.44069729841429
 30
0.0
  0
VERTEX
  5
326
  8
0
  6
CONTINUOUS
 62
     7
 10
140.2718980190689
 20
92.43073246836006
 30
0.0
  0
VERTEX
  5
327
  8
0
  6
CONTINUOUS
 62
     7
 10
140.2296741269325
 20
92.42256883862102
 30
0.0
  0
VERTEX
  5
328
  8
0
  6
CONTINUOUS
 62
     7
 10
140.1877693944972
 20
92.41630345344896
 30
0.0
  0
VERTEX
  5
329
  8
0
  6
CONTINUOUS
 62
     7
 10
140.1456375690654
 20
92.41181208176347
 30
0.0
  0
VERTEX
  5
32A
  8
0
  6
CONTINUOUS
 62
     7
 10
140.1030477337198
 20
92.40909124983955
 30
0.0
  0
VERTEX
  5
32B
  8
0
  6
CONTINUOUS
 62
     7
 10
140.0603807335368
 20
92.4081832027457
 30
0.0
  0
SEQEND
  5
4FA
  8
0
  6
CONTINUOUS
 62
     7
  0
LINE
  5
E7
  8
0
  6
CONTINUOUS
 62
     7
 10
140.0603807335368
 20
92.40818320274582
 30
0.0
 11
139.7339188349428
 21
92.40818320274582
 31
0.0
  0
POLYLINE
  5
E8
  8
0
  6
CONTINUOUS
 62
     7
 66
     1
 10
0.0
 20
0.0
 30
0.0
  0
VERTEX
  5
32C
  8
0
  6
CONTINUOUS
 62
     7
 10
105.2735421464209
 20
92.40818320274582
 30
0.0
  0
VERTEX
  5
32D
  8
0
  6
CONTINUOUS
 62
     7
 10
105.232003024717
 20
92.40904383655064
 30
0.0
  0
VERTEX
  5
32E
  8
0
  6
CONTINUOUS
 62
     7
 10
105.1905351088118
 20
92.41162276379308
 30
0.0
  0
VERTEX
  5
32F
  8
0
  6
CONTINUOUS
 62
     7
 10
105.1489232937038
 20
92.41595281197648
 30
0.0
  0
VERTEX
  5
330
  8
0
  6
CONTINUOUS
 62
     7
 10
105.1075280712028
 20
92.4220130623142
 30
0.0
  0
VERTEX
  5
331
  8
0
  6
CONTINUOUS
 62
     7
 10
105.0655312453332
 20
92.42998281744812
 30
0.0
  0
VERTEX
  5
332
  8
0
  6
CONTINUOUS
 62
     7
 10
105.023911865968
 20
92.43973346537399
 30
0.0
  0
VERTEX
  5
333
  8
0
  6
CONTINUOUS
 62
     7
 10
104.9824448853687
 20
92.45134022495868
 30
0.0
  0
VERTEX
  5
334
  8
0
  6
CONTINUOUS
 62
     7
 10
104.9415139959847
 20
92.46471505569194
 30
0.0
  0
VERTEX
  5
335
  8
0
  6
CONTINUOUS
 62
     7
 10
104.9026006519524
 20
92.47927450095203
 30
0.0
  0
VERTEX
  5
336
  8
0
  6
CONTINUOUS
 62
     7
 10
104.8643234557016
 20
92.49543241202004
 30
0.0
  0
VERTEX
  5
337
  8
0
  6
CONTINUOUS
 62
     7
 10
104.8264901934367
 20
92.51329126372845
 30
0.0
  0
VERTEX
  5
338
  8
0
  6
CONTINUOUS
 62
     7
 10
104.7894345290178
 20
92.5327120606299
 30
0.0
  0
VERTEX
  5
339
  8
0
  6
CONTINUOUS
 62
     7
 10
104.7524428761207
 20
92.5541356539615
 30
0.0
  0
VERTEX
  5
33A
  8
0
  6
CONTINUOUS
 62
     7
 10
104.7163978599583
 20
92.57711616605607
 30
0.0
  0
VERTEX
  5
33B
  8
0
  6
CONTINUOUS
 62
     7
 10
104.6811117707583
 20
92.60179955175579
 30
0.0
  0
VERTEX
  5
33C
  8
0
  6
CONTINUOUS
 62
     7
 10
104.6469182814583
 20
92.62797543248683
 30
0.0
  0
VERTEX
  5
33D
  8
0
  6
CONTINUOUS
 62
     7
 10
104.615041284616
 20
92.65458600698545
 30
0.0
  0
VERTEX
  5
33E
  8
0
  6
CONTINUOUS
 62
     7
 10
104.5842940903745
 20
92.68249424781204
 30
0.0
  0
VERTEX
  5
33F
  8
0
  6
CONTINUOUS
 62
     7
 10
104.5545292403386
 20
92.71186075309096
 30
0.0
  0
VERTEX
  5
340
  8
0
  6
CONTINUOUS
 62
     7
 10
104.5260158363166
 20
92.74244371868664
 30
0.0
  0
VERTEX
  5
341
  8
0
  6
CONTINUOUS
 62
     7
 10
104.4982261529529
 20
92.77489633116173
 30
0.0
  0
VERTEX
  5
342
  8
0
  6
CONTINUOUS
 62
     7
 10
104.4718461046053
 20
92.80850474320842
 30
0.0
  0
VERTEX
  5
343
  8
0
  6
CONTINUOUS
 62
     7
 10
104.4467468361172
 20
92.84346919944569
 30
0.0
  0
VERTEX
  5
344
  8
0
  6
CONTINUOUS
 62
     7
 10
104.4231738412169
 20
92.87948022956712
 30
0.0
  0
VERTEX
  5
345
  8
0
  6
CONTINUOUS
 62
     7
 10
104.401948729017
 20
92.91510325925896
 30
0.0
  0
VERTEX
  5
346
  8
0
  6
CONTINUOUS
 62
     7
 10
104.3822178661353
 20
92.95157507945353
 30
0.0
  0
VERTEX
  5
347
  8
0
  6
CONTINUOUS
 62
     7
 10
104.3638954563713
 20
92.98909586539772
 30
0.0
  0
VERTEX
  5
348
  8
0
  6
CONTINUOUS
 62
     7
 10
104.3471550211552
 20
93.02734862136363
 30
0.0
  0
VERTEX
  5
349
  8
0
  6
CONTINUOUS
 62
     7
 10
104.3317154911195
 20
93.06712360465991
 30
0.0
  0
VERTEX
  5
34A
  8
0
  6
CONTINUOUS
 62
     7
 10
104.3179868373633
 20
93.10752098455761
 30
0.0
  0
VERTEX
  5
34B
  8
0
  6
CONTINUOUS
 62
     7
 10
104.3059138728476
 20
93.14877207332684
 30
0.0
  0
VERTEX
  5
34C
  8
0
  6
CONTINUOUS
 62
     7
 10
104.2956253621305
 20
93.19050397947866
 30
0.0
  0
VERTEX
  5
34D
  8
0
  6
CONTINUOUS
 62
     7
 10
104.2873824649739
 20
93.23130320244306
 30
0.0
  0
VERTEX
  5
34E
  8
0
  6
CONTINUOUS
 62
     7
 10
104.2808456746908
 20
93.2724102599639
 30
0.0
  0
VERTEX
  5
34F
  8
0
  6
CONTINUOUS
 62
     7
 10
104.2760002440286
 20
93.3140454646674
 30
0.0
  0
VERTEX
  5
350
  8
0
  6
CONTINUOUS
 62
     7
 10
104.2729053664812
 20
93.35584724650286
 30
0.0
  0
SEQEND
  5
4FB
  8
0
  6
CONTINUOUS
 62
     7
  0
LINE
  5
E9
  8
0
  6
CONTINUOUS
 62
     7
 10
105.6000040450149
 20
92.40818320274582
 30
0.0
 11
105.2735421464208
 21
92.40818320274582
 31
0.0
  0
ARC
  5
EA
  8
0
  6
CONTINUOUS
 62
     7
 10
109.9169614399788
 20
82.90818320274583
 30
0.0
 40
1.000000000000001
 50
180.0
 51
270.0
  0
LINE
  5
EB
  8
0
  6
CONTINUOUS
 62
     7
 10
108.9169614399788
 20
83.40818320274583
 30
0.0
 11
108.9169614399788
 21
82.90818320274583
 31
0.0
  0
ARC
  5
EC
  8
0
  6
CONTINUOUS
 62
     7
 10
135.4169614399788
 20
82.90818320274583
 30
0.0
 40
1.000000000000001
 50
270.0
 51
0.0
  0
LINE
  5
ED
  8
0
  6
CONTINUOUS
 62
     7
 10
136.4169614399788
 20
82.90818320274583
 30
0.0
 11
136.4169614399788
 21
83.40818320274583
 31
0.0
  0
ARC
  5
EE
  8
0
  6
CONTINUOUS
 62
     7
 10
140.6131813146979
 20
103.4081832027462
 30
0.0
 40
1.000000000000001
 50
356.9999999999998
 51
90.0
  0
LINE
  5
EF
  8
0
  6
CONTINUOUS
 62
     7
 10
103.7221120305052
 20
103.3558472465032
 30
0.0
 11
103.7979808881864
 21
101.9081832027458
 31
0.0
  0
LINE
  5
F0
  8
0
  6
CONTINUOUS
 62
     7
 10
141.5359419917712
 20
101.9081832027458
 30
0.0
 11
141.6118108494524
 21
103.3558472465032
 31
0.0
  0
ARC
  5
F1
  8
0
  6
CONTINUOUS
 62
     7
 10
104.7207415652597
 20
103.4081832027462
 30
0.0
 40
1.000000000000001
 50
90.0
 51
183.0000000000001
  0
LINE
  5
F2
  8
0
  6
CONTINUOUS
 62
     7
 10
107.9169614399788
 20
92.40818320274582
 30
0.0
 11
107.9911778938611
 21
83.90381993499663
 31
0.0
  0
LINE
  5
F3
  8
0
  6
CONTINUOUS
 62
     7
 10
137.3427449860966
 20
83.90381993499663
 30
0.0
 11
137.4169614399788
 21
92.40818320274582
 31
0.0
  0
ARC
  5
F4
  8
0
  6
CONTINUOUS
 62
     7
 10
108.4911588553931
 20
83.90818320274583
 30
0.0
 40
0.5000000000000016
 50
180.4999999999999
 51
270.0
  0
ARC
  5
F5
  8
0
  6
CONTINUOUS
 62
     7
 10
136.8427640245645
 20
83.90818320274583
 30
0.0
 40
0.5000000000000004
 50
270.0
 51
359.5000000000001
  0
ENDBLK
  8
0
  0
BLOCK
  8
0
  2
D_FRAME_VIEW_17710
 70
     0
 10
0.0
 20
0.0
 30
0.0
  0
LINE
  5
FB
  8
0
  6
CONTINUOUS
 62
     7
 10
56.41639152948144
 20
152.2545651108276
 30
0.0
 11
55.07371108973633
 21
150.4065240285921
 31
0.0
  0
ARC
  5
FC
  8
0
  6
CONTINUOUS
 62
     7
 10
61.79915450951287
 20
157.1113503336683
 30
0.0
 40
7.249999999999996
 50
209.9405439606089
 51
222.0594560393911
  0
LINE
  5
FD
  8
0
  6
CONTINUOUS
 62
     7
 10
53.34420945002494
 20
152.7869788169161
 30
0.0
 11
55.51671203756219
 21
153.4928676977239
 31
0.0
  0
LINE
  5
FE
  8
0
  6
CONTINUOUS
 62
     7
 10
55.5167120375622
 20
160.7298329696126
 30
0.0
 11
53.34420945002493
 21
161.4357218504204
 31
0.0
  0
ARC
  5
FF
  8
0
  6
CONTINUOUS
 62
     7
 10
61.79915450951287
 20
157.1113503336683
 30
0.0
 40
7.249999999999999
 50
137.9405439606087
 51
150.0594560393913
  0
LINE
  5
100
  8
0
  6
CONTINUOUS
 62
     7
 10
55.07371108973632
 20
163.8161766387444
 30
0.0
 11
56.41639152948142
 21
161.968135556509
 31
0.0
  0
LINE
  5
101
  8
0
  6
CONTINUOUS
 62
     7
 10
63.29915450951287
 20
164.2044808132238
 30
0.0
 11
63.29915450951287
 21
166.4887852160792
 31
0.0
  0
ARC
  5
102
  8
0
  6
CONTINUOUS
 62
     7
 10
61.79915450951287
 20
157.1113503336683
 30
0.0
 40
7.249999999999988
 50
65.94054396060865
 51
78.0594560393912
  0
LINE
  5
103
  8
0
  6
CONTINUOUS
 62
     7
 10
66.09754694616458
 20
165.5795323956218
 30
0.0
 11
64.75486650641949
 21
163.7314913133864
 31
0.0
  0
LINE
  5
104
  8
0
  6
CONTINUOUS
 62
     7
 10
69.00864796458835
 20
157.8766634207271
 30
0.0
 11
71.18115055212563
 21
158.5825523015349
 31
0.0
  0
ARC
  5
105
  8
0
  6
CONTINUOUS
 62
     7
 10
61.79915450951287
 20
157.1113503336683
 30
0.0
 40
7.249999999999992
 50
353.9405439606087
 51
6.05945603939108
  0
LINE
  5
106
  8
0
  6
CONTINUOUS
 62
     7
 10
71.18115055212564
 20
155.6401483658016
 30
0.0
 11
69.00864796458839
 21
156.3460372466094
 31
0.0
  0
LINE
  5
107
  8
0
  6
CONTINUOUS
 62
     7
 10
64.75486650641943
 20
150.4912093539502
 30
0.0
 11
66.09754694616457
 21
148.6431682717147
 31
0.0
  0
ARC
  5
108
  8
0
  6
CONTINUOUS
 62
     7
 10
61.79915450951287
 20
157.1113503336683
 30
0.0
 40
7.250000000000008
 50
281.9405439606087
 51
294.0594560393911
  0
LINE
  5
109
  8
0
  6
CONTINUOUS
 62
     7
 10
63.29915450951286
 20
147.7339154512574
 30
0.0
 11
63.29915450951286
 21
150.0182198541127
 31
0.0
  0
LINE
  5
10A
  8
0
  6
CONTINUOUS
 62
     7
 10
60.29915450951287
 20
150.0182198541127
 30
0.0
 11
60.29915450951287
 21
147.7339154512574
 31
0.0
  0
ARC
  5
10B
  8
0
  6
CONTINUOUS
 62
     7
 10
61.79915450951287
 20
157.1113503336683
 30
0.0
 40
7.249999999999988
 50
245.9405439606086
 51
258.0594560393911
  0
LINE
  5
10C
  8
0
  6
CONTINUOUS
 62
     7
 10
57.50076207286116
 20
148.6431682717147
 30
0.0
 11
58.84344251260627
 21
150.4912093539502
 31
0.0
  0
LINE
  5
10D
  8
0
  6
CONTINUOUS
 62
     7
 10
68.08159698146353
 20
153.492867697724
 30
0.0
 11
70.2540995690008
 21
152.7869788169161
 31
0.0
  0
ARC
  5
10E
  8
0
  6
CONTINUOUS
 62
     7
 10
61.79915450951287
 20
157.1113503336683
 30
0.0
 40
7.249999999999989
 50
317.9405439606086
 51
330.0594560393913
  0
LINE
  5
10F
  8
0
  6
CONTINUOUS
 62
     7
 10
68.5245979292894
 20
150.4065240285921
 30
0.0
 11
67.1819174895443
 21
152.2545651108275
 31
0.0
  0
LINE
  5
110
  8
0
  6
CONTINUOUS
 62
     7
 10
67.18191748954428
 20
161.9681355565089
 30
0.0
 11
68.52459792928941
 21
163.8161766387444
 31
0.0
  0
ARC
  5
111
  8
0
  6
CONTINUOUS
 62
     7
 10
61.79915450951287
 20
157.1113503336683
 30
0.0
 40
7.249999999999983
 50
29.94054396060871
 51
42.05945603939122
  0
LINE
  5
112
  8
0
  6
CONTINUOUS
 62
     7
 10
70.2540995690008
 20
161.4357218504204
 30
0.0
 11
68.08159698146356
 21
160.7298329696126
 31
0.0
  0
LINE
  5
113
  8
0
  6
CONTINUOUS
 62
     7
 10
58.84344251260629
 20
163.7314913133863
 30
0.0
 11
57.50076207286116
 21
165.5795323956218
 31
0.0
  0
ARC
  5
114
  8
0
  6
CONTINUOUS
 62
     7
 10
61.79915450951287
 20
157.1113503336683
 30
0.0
 40
7.249999999999981
 50
101.9405439606087
 51
114.0594560393912
  0
LINE
  5
115
  8
0
  6
CONTINUOUS
 62
     7
 10
60.29915450951287
 20
166.4887852160792
 30
0.0
 11
60.29915450951287
 21
164.2044808132239
 31
0.0
  0
LINE
  5
116
  8
0
  6
CONTINUOUS
 62
     7
 10
54.58966105443736
 20
156.3460372466094
 30
0.0
 11
52.41715846690009
 21
155.6401483658016
 31
0.0
  0
ARC
  5
117
  8
0
  6
CONTINUOUS
 62
     7
 10
61.79915450951287
 20
157.1113503336683
 30
0.0
 40
7.249999999999992
 50
173.9405439606086
 51
186.0594560393912
  0
LINE
  5
118
  8
0
  6
CONTINUOUS
 62
     7
 10
52.41715846690009
 20
158.5825523015349
 30
0.0
 11
54.58966105443733
 21
157.8766634207271
 31
0.0
  0
CIRCLE
  5
119
  8
0
  6
CONTINUOUS
 62
     7
 10
61.79915450951287
 20
157.1113503336683
 30
0.0
 40
5.08145966132667
  0
ARC
  5
11A
  8
0
  6
CONTINUOUS
 62
     7
 10
61.79915450951287
 20
157.1113503336683
 30
0.0
 40
4.762500000000003
 50
267.9110018912876
 51
0.0
  0
ARC
  5
11B
  8
0
  6
CONTINUOUS
 62
     7
 10
61.79915450951287
 20
157.1113503336683
 30
0.0
 40
4.762499999999999
 50
0.0
 51
267.9110018912877
  0
LINE
  5
11C
  8
0
  6
CONTINUOUS
 62
     7
 10
57.03665450951286
 20
157.1113503336683
 30
0.0
 11
57.93545890951291
 21
157.1113503336683
 31
0.0
  0
ARC
  5
11D
  8
0
  6
CONTINUOUS
 62
     7
 10
62.05359934391262
 20
156.7606347972716
 30
0.0
 40
4.133047546896562
 50
175.1322326306111
 51
257.9076259642698
  0
LINE
  5
11E
  8
0
  6
CONTINUOUS
 62
     7
 10
61.45931423918804
 20
152.5522669057548
 30
0.0
 11
61.18777374405237
 21
152.7192949135778
 31
0.0
  0
LINE
  5
11F
  8
0
  6
CONTINUOUS
 62
     7
 10
61.62648151305335
 20
152.3523331509157
 30
0.0
 11
61.45906965736646
 21
152.5525725162436
 31
0.0
  0
ARC
  5
120
  8
0
  6
CONTINUOUS
 62
     7
 10
61.79929026144372
 20
157.1227572451448
 30
0.0
 40
3.863848189796391
 50
180.5653292123636
 51
180.1691497186623
  0
LINE
  5
121
  8
0
  6
CONTINUOUS
 62
     7
 10
57.93563015230106
 20
157.0846338296021
 30
0.0
 11
57.93566776964214
 21
157.1472460779064
 31
0.0
  0
LINE
  5
122
  8
0
  6
CONTINUOUS
 62
     7
 10
83.29915450951287
 20
167.3613503336683
 30
0.0
 11
83.29915450951287
 21
146.8613503336683
 31
0.0
  0
POLYLINE
  5
123
  8
0
  6
CONTINUOUS
 62
     7
 66
     1
 10
0.0
 20
0.0
 30
0.0
  0
VERTEX
  5
351
  8
0
  6
CONTINUOUS
 62
     7
 10
83.29915450951287
 20
146.8613503336683
 30
0.0
  0
VERTEX
  5
352
  8
0
  6
CONTINUOUS
 62
     7
 10
83.29855223761545
 20
146.8368164965046
 30
0.0
  0
VERTEX
  5
353
  8
0
  6
CONTINUOUS
 62
     7
 10
83.29674687284896
 20
146.8123417635035
 30
0.0
  0
VERTEX
  5
354
  8
0
  6
CONTINUOUS
 62
     7
 10
83.29374276449526
 20
146.7879850964406
 30
0.0
  0
VERTEX
  5
355
  8
0
  6
CONTINUOUS
 62
     7
 10
83.28954714971448
 20
146.7638051726602
 30
0.0
  0
VERTEX
  5
356
  8
0
  6
CONTINUOUS
 62
     7
 10
83.28417013611013
 20
146.7398602437166
 30
0.0
  0
VERTEX
  5
357
  8
0
  6
CONTINUOUS
 62
     7
 10
83.27762467737898
 20
146.716207995041
 30
0.0
  0
VERTEX
  5
358
  8
0
  6
CONTINUOUS
 62
     7
 10
83.26992654210439
 20
146.6929054069722
 30
0.0
  0
VERTEX
  5
359
  8
0
  6
CONTINUOUS
 62
     7
 10
83.26109427576851
 20
146.6700086174857
 30
0.0
  0
VERTEX
  5
35A
  8
0
  6
CONTINUOUS
 62
     7
 10
83.25114915607459
 20
146.6475727869531
 30
0.0
  0
VERTEX
  5
35B
  8
0
  6
CONTINUOUS
 62
     7
 10
83.24011514168706
 20
146.6256519652553
 30
0.0
  0
VERTEX
  5
35C
  8
0
  6
CONTINUOUS
 62
     7
 10
83.228018814513
 20
146.6042989615717
 30
0.0
  0
VERTEX
  5
35D
  8
0
  6
CONTINUOUS
 62
     7
 10
83.21488931566415
 20
146.5835652171585
 30
0.0
  0
VERTEX
  5
35E
  8
0
  6
CONTINUOUS
 62
     7
 10
83.2007582752532
 20
146.563500681422
 30
0.0
  0
VERTEX
  5
35F
  8
0
  6
CONTINUOUS
 62
     7
 10
83.18565973619424
 20
146.5441536915864
 30
0.0
  0
VERTEX
  5
360
  8
0
  6
CONTINUOUS
 62
     7
 10
83.16963007219036
 20
146.5255708562448
 30
0.0
  0
VERTEX
  5
361
  8
0
  6
CONTINUOUS
 62
     7
 10
83.15270790010615
 20
146.507796943075
 30
0.0
  0
VERTEX
  5
362
  8
0
  6
CONTINUOUS
 62
     7
 10
83.13493398693639
 20
146.4908747709908
 30
0.0
  0
VERTEX
  5
363
  8
0
  6
CONTINUOUS
 62
     7
 10
83.1163511515947
 20
146.4748451069869
 30
0.0
  0
VERTEX
  5
364
  8
0
  6
CONTINUOUS
 62
     7
 10
83.09700416175909
 20
146.459746567928
 30
0.0
  0
VERTEX
  5
365
  8
0
  6
CONTINUOUS
 62
     7
 10
83.07693962602266
 20
146.445615527517
 30
0.0
  0
VERTEX
  5
366
  8
0
  6
CONTINUOUS
 62
     7
 10
83.05620588160949
 20
146.4324860286681
 30
0.0
  0
VERTEX
  5
367
  8
0
  6
CONTINUOUS
 62
     7
 10
83.03485287792587
 20
146.4203897014941
 30
0.0
  0
VERTEX
  5
368
  8
0
  6
CONTINUOUS
 62
     7
 10
83.01293205622802
 20
146.4093556871065
 30
0.0
  0
VERTEX
  5
369
  8
0
  6
CONTINUOUS
 62
     7
 10
82.99049622569541
 20
146.3994105674126
 30
0.0
  0
VERTEX
  5
36A
  8
0
  6
CONTINUOUS
 62
     7
 10
82.96759943620899
 20
146.3905783010768
 30
0.0
  0
VERTEX
  5
36B
  8
0
  6
CONTINUOUS
 62
     7
 10
82.9442968481401
 20
146.3828801658022
 30
0.0
  0
VERTEX
  5
36C
  8
0
  6
CONTINUOUS
 62
     7
 10
82.92064459946451
 20
146.376334707071
 30
0.0
  0
VERTEX
  5
36D
  8
0
  6
CONTINUOUS
 62
     7
 10
82.89669967052093
 20
146.3709576934667
 30
0.0
  0
VERTEX
  5
36E
  8
0
  6
CONTINUOUS
 62
     7
 10
82.87251974674056
 20
146.3667620786859
 30
0.0
  0
VERTEX
  5
36F
  8
0
  6
CONTINUOUS
 62
     7
 10
82.84816307967765
 20
146.3637579703322
 30
0.0
  0
VERTEX
  5
370
  8
0
  6
CONTINUOUS
 62
     7
 10
82.82368834667658
 20
146.3619526055657
 30
0.0
  0
VERTEX
  5
371
  8
0
  6
CONTINUOUS
 62
     7
 10
82.79915450951287
 20
146.3613503336683
 30
0.0
  0
SEQEND
  5
4FC
  8
0
  6
CONTINUOUS
 62
     7
  0
POLYLINE
  5
124
  8
0
  6
CONTINUOUS
 62
     7
 66
     1
 10
0.0
 20
0.0
 30
0.0
  0
VERTEX
  5
372
  8
0
  6
CONTINUOUS
 62
     7
 10
83.29915450951287
 20
167.3613503336683
 30
0.0
  0
VERTEX
  5
373
  8
0
  6
CONTINUOUS
 62
     7
 10
83.29855223761545
 20
167.385884170832
 30
0.0
  0
VERTEX
  5
374
  8
0
  6
CONTINUOUS
 62
     7
 10
83.29674687284896
 20
167.410358903833
 30
0.0
  0
VERTEX
  5
375
  8
0
  6
CONTINUOUS
 62
     7
 10
83.29374276449526
 20
167.4347155708959
 30
0.0
  0
VERTEX
  5
376
  8
0
  6
CONTINUOUS
 62
     7
 10
83.28954714971448
 20
167.4588954946763
 30
0.0
  0
VERTEX
  5
377
  8
0
  6
CONTINUOUS
 62
     7
 10
83.28417013611013
 20
167.4828404236199
 30
0.0
  0
VERTEX
  5
378
  8
0
  6
CONTINUOUS
 62
     7
 10
83.27762467737898
 20
167.5064926722955
 30
0.0
  0
VERTEX
  5
379
  8
0
  6
CONTINUOUS
 62
     7
 10
83.26992654210439
 20
167.5297952603644
 30
0.0
  0
VERTEX
  5
37A
  8
0
  6
CONTINUOUS
 62
     7
 10
83.26109427576851
 20
167.5526920498508
 30
0.0
  0
VERTEX
  5
37B
  8
0
  6
CONTINUOUS
 62
     7
 10
83.25114915607459
 20
167.5751278803834
 30
0.0
  0
VERTEX
  5
37C
  8
0
  6
CONTINUOUS
 62
     7
 10
83.24011514168706
 20
167.5970487020813
 30
0.0
  0
VERTEX
  5
37D
  8
0
  6
CONTINUOUS
 62
     7
 10
83.228018814513
 20
167.6184017057649
 30
0.0
  0
VERTEX
  5
37E
  8
0
  6
CONTINUOUS
 62
     7
 10
83.21488931566415
 20
167.6391354501781
 30
0.0
  0
VERTEX
  5
37F
  8
0
  6
CONTINUOUS
 62
     7
 10
83.2007582752532
 20
167.6591999859145
 30
0.0
  0
VERTEX
  5
380
  8
0
  6
CONTINUOUS
 62
     7
 10
83.18565973619424
 20
167.6785469757501
 30
0.0
  0
VERTEX
  5
381
  8
0
  6
CONTINUOUS
 62
     7
 10
83.16963007219036
 20
167.6971298110918
 30
0.0
  0
VERTEX
  5
382
  8
0
  6
CONTINUOUS
 62
     7
 10
83.15270790010615
 20
167.7149037242615
 30
0.0
  0
VERTEX
  5
383
  8
0
  6
CONTINUOUS
 62
     7
 10
83.13493398693639
 20
167.7318258963458
 30
0.0
  0
VERTEX
  5
384
  8
0
  6
CONTINUOUS
 62
     7
 10
83.1163511515947
 20
167.7478555603496
 30
0.0
  0
VERTEX
  5
385
  8
0
  6
CONTINUOUS
 62
     7
 10
83.09700416175909
 20
167.7629540994086
 30
0.0
  0
VERTEX
  5
386
  8
0
  6
CONTINUOUS
 62
     7
 10
83.07693962602266
 20
167.7770851398195
 30
0.0
  0
VERTEX
  5
387
  8
0
  6
CONTINUOUS
 62
     7
 10
83.05620588160949
 20
167.7902146386684
 30
0.0
  0
VERTEX
  5
388
  8
0
  6
CONTINUOUS
 62
     7
 10
83.03485287792587
 20
167.8023109658425
 30
0.0
  0
VERTEX
  5
389
  8
0
  6
CONTINUOUS
 62
     7
 10
83.01293205622801
 20
167.81334498023
 30
0.0
  0
VERTEX
  5
38A
  8
0
  6
CONTINUOUS
 62
     7
 10
82.99049622569541
 20
167.8232900999239
 30
0.0
  0
VERTEX
  5
38B
  8
0
  6
CONTINUOUS
 62
     7
 10
82.96759943620899
 20
167.8321223662598
 30
0.0
  0
VERTEX
  5
38C
  8
0
  6
CONTINUOUS
 62
     7
 10
82.9442968481401
 20
167.8398205015344
 30
0.0
  0
VERTEX
  5
38D
  8
0
  6
CONTINUOUS
 62
     7
 10
82.92064459946451
 20
167.8463659602656
 30
0.0
  0
VERTEX
  5
38E
  8
0
  6
CONTINUOUS
 62
     7
 10
82.89669967052093
 20
167.8517429738699
 30
0.0
  0
VERTEX
  5
38F
  8
0
  6
CONTINUOUS
 62
     7
 10
82.87251974674055
 20
167.8559385886507
 30
0.0
  0
VERTEX
  5
390
  8
0
  6
CONTINUOUS
 62
     7
 10
82.84816307967765
 20
167.8589426970044
 30
0.0
  0
VERTEX
  5
391
  8
0
  6
CONTINUOUS
 62
     7
 10
82.82368834667658
 20
167.8607480617709
 30
0.0
  0
VERTEX
  5
392
  8
0
  6
CONTINUOUS
 62
     7
 10
82.79915450951287
 20
167.8613503336683
 30
0.0
  0
SEQEND
  5
4FD
  8
0
  6
CONTINUOUS
 62
     7
  0
LINE
  5
125
  8
0
  6
CONTINUOUS
 62
     7
 10
77.95982051343762
 20
167.8613503336683
 30
0.0
 11
78.94462826644983
 21
167.8613503336683
 31
0.0
  0
LINE
  5
126
  8
0
  6
CONTINUOUS
 62
     7
 10
78.94462826644983
 20
146.3613503336683
 30
0.0
 11
77.95982051343762
 21
146.3613503336683
 31
0.0
  0
LINE
  5
127
  8
0
  6
CONTINUOUS
 62
     7
 10
44.65368075257592
 20
167.8613503336683
 30
0.0
 11
45.63848850558812
 21
167.8613503336683
 31
0.0
  0
LINE
  5
128
  8
0
  6
CONTINUOUS
 62
     7
 10
45.63848850558812
 20
146.3613503336683
 30
0.0
 11
44.65368075257592
 21
146.3613503336683
 31
0.0
  0
POLYLINE
  5
129
  8
0
  6
CONTINUOUS
 62
     7
 66
     1
 10
0.0
 20
0.0
 30
0.0
  0
VERTEX
  5
393
  8
0
  6
CONTINUOUS
 62
     7
 10
40.79915450951287
 20
146.3613503336683
 30
0.0
  0
VERTEX
  5
394
  8
0
  6
CONTINUOUS
 62
     7
 10
40.77462067234916
 20
146.3619526055657
 30
0.0
  0
VERTEX
  5
395
  8
0
  6
CONTINUOUS
 62
     7
 10
40.75014593934809
 20
146.3637579703322
 30
0.0
  0
VERTEX
  5
396
  8
0
  6
CONTINUOUS
 62
     7
 10
40.72578927228519
 20
146.3667620786859
 30
0.0
  0
VERTEX
  5
397
  8
0
  6
CONTINUOUS
 62
     7
 10
40.70160934850481
 20
146.3709576934667
 30
0.0
  0
VERTEX
  5
398
  8
0
  6
CONTINUOUS
 62
     7
 10
40.67766441956124
 20
146.376334707071
 30
0.0
  0
VERTEX
  5
399
  8
0
  6
CONTINUOUS
 62
     7
 10
40.65401217088564
 20
146.3828801658022
 30
0.0
  0
VERTEX
  5
39A
  8
0
  6
CONTINUOUS
 62
     7
 10
40.63070958281677
 20
146.3905783010768
 30
0.0
  0
VERTEX
  5
39B
  8
0
  6
CONTINUOUS
 62
     7
 10
40.60781279333033
 20
146.3994105674126
 30
0.0
  0
VERTEX
  5
39C
  8
0
  6
CONTINUOUS
 62
     7
 10
40.58537696279774
 20
146.4093556871065
 30
0.0
  0
VERTEX
  5
39D
  8
0
  6
CONTINUOUS
 62
     7
 10
40.56345614109988
 20
146.4203897014941
 30
0.0
  0
VERTEX
  5
39E
  8
0
  6
CONTINUOUS
 62
     7
 10
40.54210313741626
 20
146.4324860286681
 30
0.0
  0
VERTEX
  5
39F
  8
0
  6
CONTINUOUS
 62
     7
 10
40.52136939300308
 20
146.445615527517
 30
0.0
  0
VERTEX
  5
3A0
  8
0
  6
CONTINUOUS
 62
     7
 10
40.50130485726665
 20
146.459746567928
 30
0.0
  0
VERTEX
  5
3A1
  8
0
  6
CONTINUOUS
 62
     7
 10
40.48195786743105
 20
146.4748451069869
 30
0.0
  0
VERTEX
  5
3A2
  8
0
  6
CONTINUOUS
 62
     7
 10
40.46337503208937
 20
146.4908747709908
 30
0.0
  0
VERTEX
  5
3A3
  8
0
  6
CONTINUOUS
 62
     7
 10
40.4456011189196
 20
146.507796943075
 30
0.0
  0
VERTEX
  5
3A4
  8
0
  6
CONTINUOUS
 62
     7
 10
40.4286789468354
 20
146.5255708562448
 30
0.0
  0
VERTEX
  5
3A5
  8
0
  6
CONTINUOUS
 62
     7
 10
40.4126492828315
 20
146.5441536915864
 30
0.0
  0
VERTEX
  5
3A6
  8
0
  6
CONTINUOUS
 62
     7
 10
40.39755074377255
 20
146.563500681422
 30
0.0
  0
VERTEX
  5
3A7
  8
0
  6
CONTINUOUS
 62
     7
 10
40.3834197033616
 20
146.5835652171585
 30
0.0
  0
VERTEX
  5
3A8
  8
0
  6
CONTINUOUS
 62
     7
 10
40.37029020451273
 20
146.6042989615717
 30
0.0
  0
VERTEX
  5
3A9
  8
0
  6
CONTINUOUS
 62
     7
 10
40.35819387733869
 20
146.6256519652553
 30
0.0
  0
VERTEX
  5
3AA
  8
0
  6
CONTINUOUS
 62
     7
 10
40.34715986295114
 20
146.6475727869531
 30
0.0
  0
VERTEX
  5
3AB
  8
0
  6
CONTINUOUS
 62
     7
 10
40.33721474325723
 20
146.6700086174857
 30
0.0
  0
VERTEX
  5
3AC
  8
0
  6
CONTINUOUS
 62
     7
 10
40.32838247692136
 20
146.6929054069722
 30
0.0
  0
VERTEX
  5
3AD
  8
0
  6
CONTINUOUS
 62
     7
 10
40.32068434164677
 20
146.716207995041
 30
0.0
  0
VERTEX
  5
3AE
  8
0
  6
CONTINUOUS
 62
     7
 10
40.3141388829156
 20
146.7398602437166
 30
0.0
  0
VERTEX
  5
3AF
  8
0
  6
CONTINUOUS
 62
     7
 10
40.30876186931126
 20
146.7638051726602
 30
0.0
  0
VERTEX
  5
3B0
  8
0
  6
CONTINUOUS
 62
     7
 10
40.30456625453048
 20
146.7879850964406
 30
0.0
  0
VERTEX
  5
3B1
  8
0
  6
CONTINUOUS
 62
     7
 10
40.30156214617678
 20
146.8123417635035
 30
0.0
  0
VERTEX
  5
3B2
  8
0
  6
CONTINUOUS
 62
     7
 10
40.29975678141029
 20
146.8368164965046
 30
0.0
  0
VERTEX
  5
3B3
  8
0
  6
CONTINUOUS
 62
     7
 10
40.29915450951287
 20
146.8613503336683
 30
0.0
  0
SEQEND
  5
4FE
  8
0
  6
CONTINUOUS
 62
     7
  0
LINE
  5
12A
  8
0
  6
CONTINUOUS
 62
     7
 10
40.29915450951287
 20
146.8613503336683
 30
0.0
 11
40.29915450951287
 21
167.3613503336683
 31
0.0
  0
POLYLINE
  5
12B
  8
0
  6
CONTINUOUS
 62
     7
 66
     1
 10
0.0
 20
0.0
 30
0.0
  0
VERTEX
  5
3B4
  8
0
  6
CONTINUOUS
 62
     7
 10
40.79915450951287
 20
167.8613503336683
 30
0.0
  0
VERTEX
  5
3B5
  8
0
  6
CONTINUOUS
 62
     7
 10
40.77462067234916
 20
167.8607480617709
 30
0.0
  0
VERTEX
  5
3B6
  8
0
  6
CONTINUOUS
 62
     7
 10
40.75014593934809
 20
167.8589426970044
 30
0.0
  0
VERTEX
  5
3B7
  8
0
  6
CONTINUOUS
 62
     7
 10
40.72578927228519
 20
167.8559385886507
 30
0.0
  0
VERTEX
  5
3B8
  8
0
  6
CONTINUOUS
 62
     7
 10
40.70160934850481
 20
167.8517429738699
 30
0.0
  0
VERTEX
  5
3B9
  8
0
  6
CONTINUOUS
 62
     7
 10
40.67766441956124
 20
167.8463659602656
 30
0.0
  0
VERTEX
  5
3BA
  8
0
  6
CONTINUOUS
 62
     7
 10
40.65401217088564
 20
167.8398205015344
 30
0.0
  0
VERTEX
  5
3BB
  8
0
  6
CONTINUOUS
 62
     7
 10
40.63070958281677
 20
167.8321223662598
 30
0.0
  0
VERTEX
  5
3BC
  8
0
  6
CONTINUOUS
 62
     7
 10
40.60781279333033
 20
167.8232900999239
 30
0.0
  0
VERTEX
  5
3BD
  8
0
  6
CONTINUOUS
 62
     7
 10
40.58537696279774
 20
167.81334498023
 30
0.0
  0
VERTEX
  5
3BE
  8
0
  6
CONTINUOUS
 62
     7
 10
40.56345614109988
 20
167.8023109658425
 30
0.0
  0
VERTEX
  5
3BF
  8
0
  6
CONTINUOUS
 62
     7
 10
40.54210313741626
 20
167.7902146386684
 30
0.0
  0
VERTEX
  5
3C0
  8
0
  6
CONTINUOUS
 62
     7
 10
40.52136939300308
 20
167.7770851398195
 30
0.0
  0
VERTEX
  5
3C1
  8
0
  6
CONTINUOUS
 62
     7
 10
40.50130485726665
 20
167.7629540994086
 30
0.0
  0
VERTEX
  5
3C2
  8
0
  6
CONTINUOUS
 62
     7
 10
40.48195786743105
 20
167.7478555603496
 30
0.0
  0
VERTEX
  5
3C3
  8
0
  6
CONTINUOUS
 62
     7
 10
40.46337503208937
 20
167.7318258963458
 30
0.0
  0
VERTEX
  5
3C4
  8
0
  6
CONTINUOUS
 62
     7
 10
40.4456011189196
 20
167.7149037242615
 30
0.0
  0
VERTEX
  5
3C5
  8
0
  6
CONTINUOUS
 62
     7
 10
40.4286789468354
 20
167.6971298110918
 30
0.0
  0
VERTEX
  5
3C6
  8
0
  6
CONTINUOUS
 62
     7
 10
40.4126492828315
 20
167.6785469757501
 30
0.0
  0
VERTEX
  5
3C7
  8
0
  6
CONTINUOUS
 62
     7
 10
40.39755074377255
 20
167.6591999859145
 30
0.0
  0
VERTEX
  5
3C8
  8
0
  6
CONTINUOUS
 62
     7
 10
40.3834197033616
 20
167.6391354501781
 30
0.0
  0
VERTEX
  5
3C9
  8
0
  6
CONTINUOUS
 62
     7
 10
40.37029020451273
 20
167.6184017057649
 30
0.0
  0
VERTEX
  5
3CA
  8
0
  6
CONTINUOUS
 62
     7
 10
40.35819387733869
 20
167.5970487020813
 30
0.0
  0
VERTEX
  5
3CB
  8
0
  6
CONTINUOUS
 62
     7
 10
40.34715986295114
 20
167.5751278803834
 30
0.0
  0
VERTEX
  5
3CC
  8
0
  6
CONTINUOUS
 62
     7
 10
40.33721474325723
 20
167.5526920498508
 30
0.0
  0
VERTEX
  5
3CD
  8
0
  6
CONTINUOUS
 62
     7
 10
40.32838247692136
 20
167.5297952603644
 30
0.0
  0
VERTEX
  5
3CE
  8
0
  6
CONTINUOUS
 62
     7
 10
40.32068434164677
 20
167.5064926722955
 30
0.0
  0
VERTEX
  5
3CF
  8
0
  6
CONTINUOUS
 62
     7
 10
40.3141388829156
 20
167.4828404236199
 30
0.0
  0
VERTEX
  5
3D0
  8
0
  6
CONTINUOUS
 62
     7
 10
40.30876186931126
 20
167.4588954946763
 30
0.0
  0
VERTEX
  5
3D1
  8
0
  6
CONTINUOUS
 62
     7
 10
40.30456625453048
 20
167.4347155708959
 30
0.0
  0
VERTEX
  5
3D2
  8
0
  6
CONTINUOUS
 62
     7
 10
40.30156214617678
 20
167.410358903833
 30
0.0
  0
VERTEX
  5
3D3
  8
0
  6
CONTINUOUS
 62
     7
 10
40.29975678141029
 20
167.385884170832
 30
0.0
  0
VERTEX
  5
3D4
  8
0
  6
CONTINUOUS
 62
     7
 10
40.29915450951287
 20
167.3613503336683
 30
0.0
  0
SEQEND
  5
4FF
  8
0
  6
CONTINUOUS
 62
     7
  0
LINE
  5
12C
  8
0
  6
CONTINUOUS
 62
     7
 10
78.94462826644983
 20
146.3613503336683
 30
0.0
 11
82.79915450951287
 21
146.3613503336683
 31
0.0
  0
LINE
  5
12D
  8
0
  6
CONTINUOUS
 62
     7
 10
78.94462826644983
 20
167.8613503336683
 30
0.0
 11
82.79915450951287
 21
167.8613503336683
 31
0.0
  0
LINE
  5
12E
  8
0
  6
CONTINUOUS
 62
     7
 10
44.65368075257592
 20
167.8613503336683
 30
0.0
 11
40.79915450951287
 21
167.8613503336683
 31
0.0
  0
LINE
  5
12F
  8
0
  6
CONTINUOUS
 62
     7
 10
44.65368075257592
 20
146.3613503336683
 30
0.0
 11
40.79915450951287
 21
146.3613503336683
 31
0.0
  0
LINE
  5
130
  8
0
  6
CONTINUOUS
 62
     7
 10
45.8454343451701
 20
148.8613503336683
 30
0.0
 11
45.8454343451701
 21
146.8613503336683
 31
0.0
  0
LINE
  5
131
  8
0
  6
CONTINUOUS
 62
     7
 10
45.75727085481589
 20
146.3613503336683
 30
0.0
 11
45.84543434517013
 21
146.8613503336683
 31
0.0
  0
LINE
  5
132
  8
0
  6
CONTINUOUS
 62
     7
 10
45.84543434517013
 20
167.3613503336682
 30
0.0
 11
45.75727085481589
 21
167.8613503336683
 31
0.0
  0
LINE
  5
133
  8
0
  6
CONTINUOUS
 62
     7
 10
45.8454343451701
 20
165.3613503336683
 30
0.0
 11
45.8454343451701
 21
167.3613503336682
 31
0.0
  0
LINE
  5
134
  8
0
  6
CONTINUOUS
 62
     7
 10
48.3293215045254
 20
165.2384164822533
 30
0.0
 11
45.8454343451701
 21
165.3613503336683
 31
0.0
  0
LINE
  5
135
  8
0
  6
CONTINUOUS
 62
     7
 10
48.3293215045254
 20
148.9842841850832
 30
0.0
 11
45.8454343451701
 21
148.8613503336683
 31
0.0
  0
LINE
  5
136
  8
0
  6
CONTINUOUS
 62
     7
 10
45.75727085481589
 20
167.8613503336683
 30
0.0
 11
45.63848850558812
 21
167.8613503336683
 31
0.0
  0
LINE
  5
137
  8
0
  6
CONTINUOUS
 62
     7
 10
45.75727085481589
 20
146.3613503336683
 30
0.0
 11
45.63848850558812
 21
146.3613503336683
 31
0.0
  0
LINE
  5
138
  8
0
  6
CONTINUOUS
 62
     7
 10
77.75287467385563
 20
165.3613503336683
 30
0.0
 11
77.75287467385563
 21
167.3613503336682
 31
0.0
  0
LINE
  5
139
  8
0
  6
CONTINUOUS
 62
     7
 10
77.84103816420985
 20
167.8613503336683
 30
0.0
 11
77.75287467385562
 21
167.3613503336682
 31
0.0
  0
LINE
  5
13A
  8
0
  6
CONTINUOUS
 62
     7
 10
77.75287467385562
 20
146.8613503336683
 30
0.0
 11
77.84103816420985
 21
146.3613503336683
 31
0.0
  0
LINE
  5
13B
  8
0
  6
CONTINUOUS
 62
     7
 10
77.75287467385563
 20
148.8613503336683
 30
0.0
 11
77.75287467385563
 21
146.8613503336683
 31
0.0
  0
LINE
  5
13C
  8
0
  6
CONTINUOUS
 62
     7
 10
75.26898751450034
 20
148.9842841850832
 30
0.0
 11
77.75287467385563
 21
148.8613503336683
 31
0.0
  0
LINE
  5
13D
  8
0
  6
CONTINUOUS
 62
     7
 10
75.26898751450034
 20
165.2384164822533
 30
0.0
 11
77.75287467385563
 21
165.3613503336683
 31
0.0
  0
LINE
  5
13E
  8
0
  6
CONTINUOUS
 62
     7
 10
77.84103816420985
 20
146.3613503336683
 30
0.0
 11
77.95982051343762
 21
146.3613503336683
 31
0.0
  0
LINE
  5
13F
  8
0
  6
CONTINUOUS
 62
     7
 10
77.84103816420985
 20
167.8613503336683
 30
0.0
 11
77.95982051343762
 21
167.8613503336683
 31
0.0
  0
LINE
  5
140
  8
0
  6
CONTINUOUS
 62
     7
 10
49.2991545095129
 20
169.9883378614933
 30
0.0
 11
49.29031055267917
 21
171.3410569532822
 31
0.0
  0
LINE
  5
141
  8
0
  6
CONTINUOUS
 62
     7
 10
49.29915450951287
 20
169.9883378614933
 30
0.0
 11
49.29915450951287
 21
144.2343628058433
 31
0.0
  0
LINE
  5
142
  8
0
  6
CONTINUOUS
 62
     7
 10
49.2899559529095
 20
142.8814431024446
 30
0.0
 11
49.29915450951287
 21
144.2343628058433
 31
0.0
  0
LINE
  5
143
  8
0
  6
CONTINUOUS
 62
     7
 10
49.20270223484368
 20
143.6705833524088
 30
0.0
 11
49.28997091275128
 21
142.8836433894645
 31
0.0
  0
LINE
  5
144
  8
0
  6
CONTINUOUS
 62
     7
 10
49.19443209602377
 20
145.0842140327694
 30
0.0
 11
49.20270223484368
 21
143.670583352409
 31
0.0
  0
LINE
  5
145
  8
0
  6
CONTINUOUS
 62
     7
 10
49.19443209602377
 20
148.9878899166343
 30
0.0
 11
49.19443209602377
 21
145.0842140327694
 31
0.0
  0
LINE
  5
146
  8
0
  6
CONTINUOUS
 62
     7
 10
49.19443209602377
 20
165.2348107507023
 30
0.0
 11
49.19443209602377
 21
148.9878899166343
 31
0.0
  0
LINE
  5
147
  8
0
  6
CONTINUOUS
 62
     7
 10
49.19443209602377
 20
169.1384866345672
 30
0.0
 11
49.19443209602377
 21
165.2348107507023
 31
0.0
  0
LINE
  5
148
  8
0
  6
CONTINUOUS
 62
     7
 10
49.20270223484368
 20
170.5521173149275
 30
0.0
 11
49.19443209602376
 21
169.1384866345672
 31
0.0
  0
LINE
  5
149
  8
0
  6
CONTINUOUS
 62
     7
 10
49.28997091275128
 20
171.339057277872
 30
0.0
 11
49.20270223484368
 21
170.5521173149275
 31
0.0
  0
LINE
  5
14A
  8
0
  6
CONTINUOUS
 62
     7
 10
74.2991545095129
 20
144.2343628058433
 30
0.0
 11
74.3079985696078
 21
142.8816401820814
 31
0.0
  0
LINE
  5
14B
  8
0
  6
CONTINUOUS
 62
     7
 10
74.40387692300199
 20
148.9878899166343
 30
0.0
 11
74.40387692300199
 21
165.2348107507023
 31
0.0
  0
LINE
  5
14C
  8
0
  6
CONTINUOUS
 62
     7
 10
74.40387692300199
 20
145.0842140327694
 30
0.0
 11
74.40387692300199
 21
148.9878899166343
 31
0.0
  0
LINE
  5
14D
  8
0
  6
CONTINUOUS
 62
     7
 10
74.39560678418205
 20
143.670583352409
 30
0.0
 11
74.40387692300199
 21
145.0842140327694
 31
0.0
  0
LINE
  5
14E
  8
0
  6
CONTINUOUS
 62
     7
 10
74.30833810627446
 20
142.8836433894643
 30
0.0
 11
74.39560678418205
 21
143.670583352409
 31
0.0
  0
LINE
  5
14F
  8
0
  6
CONTINUOUS
 62
     7
 10
74.29915450951287
 20
169.9883378614933
 30
0.0
 11
74.29915450951287
 21
144.2343628058433
 31
0.0
  0
LINE
  5
150
  8
0
  6
CONTINUOUS
 62
     7
 10
74.30835301240364
 20
171.3412496648669
 30
0.0
 11
74.29915450951287
 21
169.9883378614933
 31
0.0
  0
LINE
  5
151
  8
0
  6
CONTINUOUS
 62
     7
 10
74.39560678418205
 20
170.5521173149275
 30
0.0
 11
74.30833810627446
 21
171.339057277872
 31
0.0
  0
LINE
  5
152
  8
0
  6
CONTINUOUS
 62
     7
 10
74.40387692300199
 20
169.1384866345672
 30
0.0
 11
74.39560678418205
 21
170.5521173149275
 31
0.0
  0
LINE
  5
153
  8
0
  6
CONTINUOUS
 62
     7
 10
74.40387692300199
 20
165.2348107507023
 30
0.0
 11
74.40387692300199
 21
169.1384866345672
 31
0.0
  0
CIRCLE
  5
154
  8
0
  6
CONTINUOUS
 62
     7
 10
61.79915450951287
 20
157.1113503336683
 30
0.0
 40
11.86396103067931
  0
CIRCLE
  5
155
  8
0
  6
CONTINUOUS
 62
     7
 10
61.79915450951287
 20
157.1113503336683
 30
0.0
 40
9.496645985497015
  0
LINE
  5
156
  8
0
  6
CONTINUOUS
 62
     7
 10
75.26898751450034
 20
148.9842841850832
 30
0.0
 11
74.77658363799424
 21
148.9878899166343
 31
0.0
  0
LINE
  5
157
  8
0
  6
CONTINUOUS
 62
     7
 10
74.77658363799424
 20
165.2348107507023
 30
0.0
 11
75.26898751450034
 21
165.2384164822533
 31
0.0
  0
LINE
  5
158
  8
0
  6
CONTINUOUS
 62
     7
 10
48.82172538103151
 20
148.9878899166343
 30
0.0
 11
48.3293215045254
 21
148.9842841850832
 31
0.0
  0
LINE
  5
159
  8
0
  6
CONTINUOUS
 62
     7
 10
48.3293215045254
 20
165.2384164822533
 30
0.0
 11
48.82172538103151
 21
165.2348107507023
 31
0.0
  0
LINE
  5
15A
  8
0
  6
CONTINUOUS
 62
     7
 10
49.19443209602377
 20
148.9878899166343
 30
0.0
 11
48.82172538103151
 21
148.9878899166343
 31
0.0
  0
LINE
  5
15B
  8
0
  6
CONTINUOUS
 62
     7
 10
49.19443209602377
 20
165.2348107507023
 30
0.0
 11
48.82172538103151
 21
165.2348107507023
 31
0.0
  0
LINE
  5
15C
  8
0
  6
CONTINUOUS
 62
     7
 10
74.40387692300199
 20
148.9878899166343
 30
0.0
 11
74.77658363799424
 21
148.9878899166343
 31
0.0
  0
LINE
  5
15D
  8
0
  6
CONTINUOUS
 62
     7
 10
74.40387692300199
 20
165.2348107507023
 30
0.0
 11
74.77658363799424
 21
165.2348107507023
 31
0.0
  0
ARC
  5
15E
  8
0
  6
CONTINUOUS
 62
     7
 10
61.79915450951287
 20
157.1113503336683
 30
0.0
 40
18.94621987471907
 50
228.6827145333054
 51
270.0
  0
ARC
  5
15F
  8
0
  6
CONTINUOUS
 62
     7
 10
61.79915450951287
 20
157.1113503336683
 30
0.0
 40
18.94621987471906
 50
270.0
 51
311.3173808082421
  0
ARC
  5
160
  8
0
  6
CONTINUOUS
 62
     7
 10
61.79915450951287
 20
157.1113503336683
 30
0.0
 40
18.94621987471907
 50
48.68270198522327
 51
131.3173906480289
  0
ENDBLK
  8
0
  0
BLOCK
  8
0
  2
D_FRAME_VIEW_15485
 70
     0
 10
0.0
 20
0.0
 30
0.0
  0
POLYLINE
  5
165
  8
0
  6
CONTINUOUS
 62
     7
 66
     1
 10
0.0
 20
0.0
 30
0.0
  0
VERTEX
  5
3D7
  8
0
  6
CONTINUOUS
 62
     7
 10
74.19915450951287
 20
82.90818320274583
 30
0.0
  0
VERTEX
  5
3D8
  8
0
  6
CONTINUOUS
 62
     7
 10
74.19832008564147
 20
82.86742404692689
 30
0.0
  0
VERTEX
  5
3D9
  8
0
  6
CONTINUOUS
 62
     7
 10
74.19582317236727
 20
82.8267006595392
 30
0.0
  0
VERTEX
  5
3DA
  8
0
  6
CONTINUOUS
 62
     7
 10
74.19167330720026
 20
82.78611931973504
 30
0.0
  0
VERTEX
  5
3DB
  8
0
  6
CONTINUOUS
 62
     7
 10
74.1858800276505
 20
82.7457863066666
 30
0.0
  0
VERTEX
  5
3DC
  8
0
  6
CONTINUOUS
 62
     7
 10
74.17820183024953
 20
82.70456890029207
 30
0.0
  0
VERTEX
  5
3DD
  8
0
  6
CONTINUOUS
 62
     7
 10
74.168798462017
 20
82.66368953376575
 30
0.0
  0
VERTEX
  5
3DE
  8
0
  6
CONTINUOUS
 62
     7
 10
74.15770071089982
 20
82.62325932967008
 30
0.0
  0
VERTEX
  5
3DF
  8
0
  6
CONTINUOUS
 62
     7
 10
74.14493936484486
 20
82.58338941058739
 30
0.0
  0
VERTEX
  5
3E0
  8
0
  6
CONTINUOUS
 62
     7
 10
74.13095840625533
 20
82.54523008713052
 30
0.0
  0
VERTEX
  5
3E1
  8
0
  6
CONTINUOUS
 62
     7
 10
74.11543684522479
 20
82.50766472300538
 30
0.0
  0
VERTEX
  5
3E2
  8
0
  6
CONTINUOUS
 62
     7
 10
74.09841974535289
 20
82.47078693772036
 30
0.0
  0
VERTEX
  5
3E3
  8
0
  6
CONTINUOUS
 62
     7
 10
74.07995217023921
 20
82.4346903507839
 30
0.0
  0
VERTEX
  5
3E4
  8
0
  6
CONTINUOUS
 62
     7
 10
74.05946194448588
 20
82.39841452987558
 30
0.0
  0
VERTEX
  5
3E5
  8
0
  6
CONTINUOUS
 62
     7
 10
74.0374805869086
 20
82.36302552333045
 30
0.0
  0
VERTEX
  5
3E6
  8
0
  6
CONTINUOUS
 62
     7
 10
74.01407249538985
 20
82.32861297768507
 30
0.0
  0
VERTEX
  5
3E7
  8
0
  6
CONTINUOUS
 62
     7
 10
73.98930206781202
 20
82.29526653947596
 30
0.0
  0
VERTEX
  5
3E8
  8
0
  6
CONTINUOUS
 62
     7
 10
73.96364658838542
 20
82.26355492572178
 30
0.0
  0
VERTEX
  5
3E9
  8
0
  6
CONTINUOUS
 62
     7
 10
73.93672573727149
 20
82.23292209467833
 30
0.0
  0
VERTEX
  5
3EA
  8
0
  6
CONTINUOUS
 62
     7
 10
73.90861217042095
 20
82.20343958377799
 30
0.0
  0
VERTEX
  5
3EB
  8
0
  6
CONTINUOUS
 62
     7
 10
73.87937854378451
 20
82.1751789304532
 30
0.0
  0
VERTEX
  5
3EC
  8
0
  6
CONTINUOUS
 62
     7
 10
73.8481934599782
 20
82.14743238021383
 30
0.0
  0
VERTEX
  5
3ED
  8
0
  6
CONTINUOUS
 62
     7
 10
73.81588579499426
 20
82.12101694187467
 30
0.0
  0
VERTEX
  5
3EE
  8
0
  6
CONTINUOUS
 62
     7
 10
73.78254349934413
 20
82.09599440390988
 30
0.0
  0
VERTEX
  5
3EF
  8
0
  6
CONTINUOUS
 62
     7
 10
73.74825452353917
 20
82.07242655479362
 30
0.0
  0
VERTEX
  5
3F0
  8
0
  6
CONTINUOUS
 62
     7
 10
73.7131865599756
 20
82.05041585013582
 30
0.0
  0
VERTEX
  5
3F1
  8
0
  6
CONTINUOUS
 62
     7
 10
73.67724368296763
 20
82.02987820532017
 30
0.0
  0
VERTEX
  5
3F2
  8
0
  6
CONTINUOUS
 62
     7
 10
73.64051884825946
 20
82.01085868632249
 30
0.0
  0
VERTEX
  5
3F3
  8
0
  6
CONTINUOUS
 62
     7
 10
73.60310501159529
 20
81.99340235911859
 30
0.0
  0
VERTEX
  5
3F4
  8
0
  6
CONTINUOUS
 62
     7
 10
73.56396947832145
 20
81.97710674172224
 30
0.0
  0
VERTEX
  5
3F5
  8
0
  6
CONTINUOUS
 62
     7
 10
73.52417682933367
 20
81.96248312751607
 30
0.0
  0
VERTEX
  5
3F6
  8
0
  6
CONTINUOUS
 62
     7
 10
73.48383183564222
 20
81.94956328510531
 30
0.0
  0
VERTEX
  5
3F7
  8
0
  6
CONTINUOUS
 62
     7
 10
73.44303926825744
 20
81.93837898309523
 30
0.0
  0
VERTEX
  5
3F8
  8
0
  6
CONTINUOUS
 62
     7
 10
73.40474980785199
 20
81.92954720356319
 30
0.0
  0
VERTEX
  5
3F9
  8
0
  6
CONTINUOUS
 62
     7
 10
73.36614785047358
 20
81.92222627237885
 30
0.0
  0
VERTEX
  5
3FA
  8
0
  6
CONTINUOUS
 62
     7
 10
73.32731884381865
 20
81.91643025800003
 30
0.0
  0
VERTEX
  5
3FB
  8
0
  6
CONTINUOUS
 62
     7
 10
73.28777775193258
 20
81.91211910979939
 30
0.0
  0
VERTEX
  5
3FC
  8
0
  6
CONTINUOUS
 62
     7
 10
73.24809233455582
 20
81.90938249938547
 30
0.0
  0
VERTEX
  5
3FD
  8
0
  6
CONTINUOUS
 62
     7
 10
73.20835191250819
 20
81.90822549975128
 30
0.0
  0
VERTEX
  5
3FE
  8
0
  6
CONTINUOUS
 62
     7
 10
73.19915450951287
 20
81.90818320274583
 30
0.0
  0
SEQEND
  5
500
  8
0
  6
CONTINUOUS
 62
     7
  0
LINE
  5
166
  8
0
  6
CONTINUOUS
 62
     7
 10
73.19915450951281
 20
81.90818320274583
 30
0.0
 11
50.39915450951292
 21
81.90818320274583
 31
0.0
  0
POLYLINE
  5
167
  8
0
  6
CONTINUOUS
 62
     7
 66
     1
 10
0.0
 20
0.0
 30
0.0
  0
VERTEX
  5
3FF
  8
0
  6
CONTINUOUS
 62
     7
 10
50.39915450951287
 20
81.90818320274583
 30
0.0
  0
VERTEX
  5
400
  8
0
  6
CONTINUOUS
 62
     7
 10
50.38995710651754
 20
81.90822549975128
 30
0.0
  0
VERTEX
  5
401
  8
0
  6
CONTINUOUS
 62
     7
 10
50.35074538115671
 20
81.90935667660436
 30
0.0
  0
VERTEX
  5
402
  8
0
  6
CONTINUOUS
 62
     7
 10
50.31158662621056
 20
81.91202571549583
 30
0.0
  0
VERTEX
  5
403
  8
0
  6
CONTINUOUS
 62
     7
 10
50.27256664372425
 20
81.91622780443647
 30
0.0
  0
VERTEX
  5
404
  8
0
  6
CONTINUOUS
 62
     7
 10
50.23320659462059
 20
81.92204983673894
 30
0.0
  0
VERTEX
  5
405
  8
0
  6
CONTINUOUS
 62
     7
 10
50.19407797800461
 20
81.92943842322481
 30
0.0
  0
VERTEX
  5
406
  8
0
  6
CONTINUOUS
 62
     7
 10
50.15526975076831
 20
81.93837898309523
 30
0.0
  0
VERTEX
  5
407
  8
0
  6
CONTINUOUS
 62
     7
 10
50.11556800883951
 20
81.94923966128219
 30
0.0
  0
VERTEX
  5
408
  8
0
  6
CONTINUOUS
 62
     7
 10
50.07628916429206
 20
81.9617439071462
 30
0.0
  0
VERTEX
  5
409
  8
0
  6
CONTINUOUS
 62
     7
 10
50.03752979699411
 20
81.97586265908741
 30
0.0
  0
VERTEX
  5
40A
  8
0
  6
CONTINUOUS
 62
     7
 10
49.9993864868138
 20
81.99156685550594
 30
0.0
  0
VERTEX
  5
40B
  8
0
  6
CONTINUOUS
 62
     7
 10
49.96087086055629
 20
82.00935035049473
 30
0.0
  0
VERTEX
  5
40C
  8
0
  6
CONTINUOUS
 62
     7
 10
49.92307635696459
 20
82.02878724512156
 30
0.0
  0
VERTEX
  5
40D
  8
0
  6
CONTINUOUS
 62
     7
 10
49.88610392046569
 20
82.04982886976251
 30
0.0
  0
VERTEX
  5
40E
  8
0
  6
CONTINUOUS
 62
     7
 10
49.85005449548657
 20
82.07242655479362
 30
0.0
  0
VERTEX
  5
40F
  8
0
  6
CONTINUOUS
 62
     7
 10
49.8166748711925
 20
82.09534157015423
 30
0.0
  0
VERTEX
  5
410
  8
0
  6
CONTINUOUS
 62
     7
 10
49.78419085266716
 20
82.11963445483164
 30
0.0
  0
VERTEX
  5
411
  8
0
  6
CONTINUOUS
 62
     7
 10
49.75268358114938
 20
82.14524847394316
 30
0.0
  0
VERTEX
  5
412
  8
0
  6
CONTINUOUS
 62
     7
 10
49.72223419787805
 20
82.17212689260612
 30
0.0
  0
VERTEX
  5
413
  8
0
  6
CONTINUOUS
 62
     7
 10
49.69208204608918
 20
82.20104703762054
 30
0.0
  0
VERTEX
  5
414
  8
0
  6
CONTINUOUS
 62
     7
 10
49.66310746090956
 20
82.23126197441019
 30
0.0
  0
VERTEX
  5
415
  8
0
  6
CONTINUOUS
 62
     7
 10
49.6353894325481
 20
82.26269428201526
 30
0.0
  0
VERTEX
  5
416
  8
0
  6
CONTINUOUS
 62
     7
 10
49.60900695121371
 20
82.29526653947596
 30
0.0
  0
VERTEX
  5
417
  8
0
  6
CONTINUOUS
 62
     7
 10
49.58490150925984
 20
82.32767844855107
 30
0.0
  0
VERTEX
  5
418
  8
0
  6
CONTINUOUS
 62
     7
 10
49.56208353719693
 20
82.36109909135526
 30
0.0
  0
VERTEX
  5
419
  8
0
  6
CONTINUOUS
 62
     7
 10
49.54061242728954
 20
82.39544621123018
 30
0.0
  0
VERTEX
  5
41A
  8
0
  6
CONTINUOUS
 62
     7
 10
49.5205475718022
 20
82.43063755151755
 30
0.0
  0
VERTEX
  5
41B
  8
0
  6
CONTINUOUS
 62
     7
 10
49.50140828180544
 20
82.46767849644662
 30
0.0
  0
VERTEX
  5
41C
  8
0
  6
CONTINUOUS
 62
     7
 10
49.48379936947691
 20
82.50555189753891
 30
0.0
  0
VERTEX
  5
41D
  8
0
  6
CONTINUOUS
 62
     7
 10
49.46777007890571
 20
82.54415609038799
 30
0.0
  0
VERTEX
  5
41E
  8
0
  6
CONTINUOUS
 62
     7
 10
49.45336965418089
 20
82.58338941058739
 30
0.0
  0
VERTEX
  5
41F
  8
0
  6
CONTINUOUS
 62
     7
 10
49.44094797527931
 20
82.62211765361072
 30
0.0
  0
VERTEX
  5
420
  8
0
  6
CONTINUOUS
 62
     7
 10
49.4300961630395
 20
82.66137570620849
 30
0.0
  0
VERTEX
  5
421
  8
0
  6
CONTINUOUS
 62
     7
 10
49.42084271343009
 20
82.70106174996059
 30
0.0
  0
VERTEX
  5
422
  8
0
  6
CONTINUOUS
 62
     7
 10
49.41321612241971
 20
82.74107396644683
 30
0.0
  0
VERTEX
  5
423
  8
0
  6
CONTINUOUS
 62
     7
 10
49.40708021980544
 20
82.78256106090363
 30
0.0
  0
VERTEX
  5
424
  8
0
  6
CONTINUOUS
 62
     7
 10
49.40268418210177
 20
82.82431886432242
 30
0.0
  0
VERTEX
  5
425
  8
0
  6
CONTINUOUS
 62
     7
 10
49.40003871133037
 20
82.86623152787818
 30
0.0
  0
VERTEX
  5
426
  8
0
  6
CONTINUOUS
 62
     7
 10
49.39915450951287
 20
82.90818320274583
 30
0.0
  0
SEQEND
  5
501
  8
0
  6
CONTINUOUS
 62
     7
  0
LINE
  5
168
  8
0
  6
CONTINUOUS
 62
     7
 10
74.19915450951287
 20
83.40818320274583
 30
0.0
 11
74.19915450951287
 21
82.90818320274583
 31
0.0
  0
LINE
  5
169
  8
0
  6
CONTINUOUS
 62
     7
 10
49.39915450951287
 20
83.40818320274583
 30
0.0
 11
49.39915450951287
 21
82.90818320274583
 31
0.0
  0
LINE
  5
16A
  8
0
  6
CONTINUOUS
 62
     7
 10
49.29915450951283
 20
104.4081832027462
 30
0.0
 11
74.29915450951292
 21
104.4081832027462
 31
0.0
  0
LINE
  5
16B
  8
0
  6
CONTINUOUS
 62
     7
 10
74.2991545095129
 20
104.4081832027462
 30
0.0
 11
74.30833810627446
 21
103.3558472465033
 31
0.0
  0
LINE
  5
16C
  8
0
  6
CONTINUOUS
 62
     7
 10
49.28997091275128
 20
103.3558472465033
 30
0.0
 11
49.29915450951287
 21
104.4081832027462
 31
0.0
  0
LINE
  5
16D
  8
0
  6
CONTINUOUS
 62
     7
 10
69.88205975352508
 20
101.9081832027458
 30
0.0
 11
71.71624926550066
 21
101.9081832027458
 31
0.0
  0
LINE
  5
16E
  8
0
  6
CONTINUOUS
 62
     7
 10
69.8074246483328
 20
93.35584724650289
 30
0.0
 11
69.88205975352507
 21
101.9081832027458
 31
0.0
  0
LINE
  5
16F
  8
0
  6
CONTINUOUS
 62
     7
 10
67.29088437069294
 20
93.35584724650288
 30
0.0
 11
67.21624926550066
 21
101.9081832027458
 31
0.0
  0
LINE
  5
170
  8
0
  6
CONTINUOUS
 62
     7
 10
67.21624926550066
 20
101.9081832027458
 30
0.0
 11
65.3820597535251
 21
101.9081832027458
 31
0.0
  0
LINE
  5
171
  8
0
  6
CONTINUOUS
 62
     7
 10
65.3074246483328
 20
93.35584724650288
 30
0.0
 11
65.38205975352507
 21
101.9081832027458
 31
0.0
  0
LINE
  5
172
  8
0
  6
CONTINUOUS
 62
     7
 10
62.79088437069295
 20
93.35584724650288
 30
0.0
 11
62.71624926550066
 21
101.9081832027458
 31
0.0
  0
LINE
  5
173
  8
0
  6
CONTINUOUS
 62
     7
 10
62.71624926550066
 20
101.9081832027458
 30
0.0
 11
60.88205975352507
 21
101.9081832027458
 31
0.0
  0
LINE
  5
174
  8
0
  6
CONTINUOUS
 62
     7
 10
60.8074246483328
 20
93.35584724650288
 30
0.0
 11
60.88205975352508
 21
101.9081832027458
 31
0.0
  0
LINE
  5
175
  8
0
  6
CONTINUOUS
 62
     7
 10
58.29088437069295
 20
93.35584724650288
 30
0.0
 11
58.21624926550066
 21
101.9081832027458
 31
0.0
  0
LINE
  5
176
  8
0
  6
CONTINUOUS
 62
     7
 10
58.21624926550066
 20
101.9081832027458
 30
0.0
 11
56.38205975352506
 21
101.9081832027458
 31
0.0
  0
LINE
  5
177
  8
0
  6
CONTINUOUS
 62
     7
 10
56.30742464833279
 20
93.35584724650288
 30
0.0
 11
56.38205975352508
 21
101.9081832027458
 31
0.0
  0
LINE
  5
178
  8
0
  6
CONTINUOUS
 62
     7
 10
53.79088437069294
 20
93.35584724650289
 30
0.0
 11
53.71624926550066
 21
101.9081832027458
 31
0.0
  0
LINE
  5
179
  8
0
  6
CONTINUOUS
 62
     7
 10
53.71624926550066
 20
101.9081832027458
 30
0.0
 11
51.88205975352507
 21
101.9081832027458
 31
0.0
  0
LINE
  5
17A
  8
0
  6
CONTINUOUS
 62
     7
 10
51.80742464833278
 20
93.35584724650293
 30
0.0
 11
51.88205975352508
 21
101.9081832027458
 31
0.0
  0
LINE
  5
17B
  8
0
  6
CONTINUOUS
 62
     7
 10
49.20270223484368
 20
93.35584724650286
 30
0.0
 11
49.28997091275128
 21
103.3558472465033
 31
0.0
  0
LINE
  5
17C
  8
0
  6
CONTINUOUS
 62
     7
 10
74.30833810627446
 20
103.3558472465032
 30
0.0
 11
74.39560678418205
 21
93.35584724650288
 31
0.0
  0
LINE
  5
17D
  8
0
  6
CONTINUOUS
 62
     7
 10
71.79088437069295
 20
93.35584724650286
 30
0.0
 11
71.71624926550066
 21
101.9081832027458
 31
0.0
  0
LINE
  5
17E
  8
0
  6
CONTINUOUS
 62
     7
 10
65.29915450951286
 20
92.40818320274582
 30
0.0
 11
62.79915450951287
 21
92.40818320274582
 31
0.0
  0
LINE
  5
17F
  8
0
  6
CONTINUOUS
 62
     7
 10
65.3074246483328
 20
93.35584724650288
 30
0.0
 11
65.29915450951286
 21
92.40818320274546
 31
0.0
  0
LINE
  5
180
  8
0
  6
CONTINUOUS
 62
     7
 10
62.79915450951287
 20
92.40818320274582
 30
0.0
 11
62.79088437069295
 21
93.35584724650286
 31
0.0
  0
LINE
  5
181
  8
0
  6
CONTINUOUS
 62
     7
 10
60.79915450951287
 20
92.40818320274582
 30
0.0
 11
58.29915450951288
 21
92.40818320274582
 31
0.0
  0
LINE
  5
182
  8
0
  6
CONTINUOUS
 62
     7
 10
58.29915450951287
 20
92.40818320274582
 30
0.0
 11
58.29088437069295
 21
93.35584724650288
 31
0.0
  0
LINE
  5
183
  8
0
  6
CONTINUOUS
 62
     7
 10
60.8074246483328
 20
93.35584724650289
 30
0.0
 11
60.79915450951287
 21
92.4081832027457
 31
0.0
  0
LINE
  5
184
  8
0
  6
CONTINUOUS
 62
     7
 10
69.79915450951286
 20
92.40818320274582
 30
0.0
 11
67.29915450951286
 21
92.40818320274582
 31
0.0
  0
LINE
  5
185
  8
0
  6
CONTINUOUS
 62
     7
 10
69.8074246483328
 20
93.35584724650288
 30
0.0
 11
69.79915450951287
 21
92.40818320274582
 31
0.0
  0
LINE
  5
186
  8
0
  6
CONTINUOUS
 62
     7
 10
67.29915450951287
 20
92.40818320274582
 30
0.0
 11
67.29088437069294
 21
93.35584724650288
 31
0.0
  0
LINE
  5
187
  8
0
  6
CONTINUOUS
 62
     7
 10
56.29915450951287
 20
92.40818320274582
 30
0.0
 11
53.79915450951285
 21
92.40818320274582
 31
0.0
  0
LINE
  5
188
  8
0
  6
CONTINUOUS
 62
     7
 10
53.79915450951286
 20
92.40818320274582
 30
0.0
 11
53.79088437069294
 21
93.35584724650288
 31
0.0
  0
LINE
  5
189
  8
0
  6
CONTINUOUS
 62
     7
 10
56.30742464833279
 20
93.35584724650289
 30
0.0
 11
56.29915450951287
 21
92.40818320274582
 31
0.0
  0
LINE
  5
18A
  8
0
  6
CONTINUOUS
 62
     7
 10
60.79915450951287
 20
92.40818320274582
 30
0.0
 11
62.79915450951286
 21
92.40818320274582
 31
0.0
  0
LINE
  5
18B
  8
0
  6
CONTINUOUS
 62
     7
 10
74.39560678418205
 20
93.35584724650288
 30
0.0
 11
74.40387692300199
 21
92.40818320274582
 31
0.0
  0
LINE
  5
18C
  8
0
  6
CONTINUOUS
 62
     7
 10
71.79915450951286
 20
92.40818320274582
 30
0.0
 11
71.79088437069295
 21
93.35584724650288
 31
0.0
  0
LINE
  5
18D
  8
0
  6
CONTINUOUS
 62
     7
 10
74.40387692300199
 20
92.40818320274582
 30
0.0
 11
71.79915450951289
 21
92.40818320274582
 31
0.0
  0
LINE
  5
18E
  8
0
  6
CONTINUOUS
 62
     7
 10
49.19443209602377
 20
92.40818320274582
 30
0.0
 11
49.20270223484368
 21
93.35584724650288
 31
0.0
  0
LINE
  5
18F
  8
0
  6
CONTINUOUS
 62
     7
 10
51.80742464833368
 20
93.35584724650289
 30
0.0
 11
51.79915450951286
 21
92.40818320274582
 31
0.0
  0
LINE
  5
190
  8
0
  6
CONTINUOUS
 62
     7
 10
51.79915450951285
 20
92.40818320274582
 30
0.0
 11
49.19443209602377
 21
92.40818320274582
 31
0.0
  0
LINE
  5
191
  8
0
  6
CONTINUOUS
 62
     7
 10
65.29915450951287
 20
92.40818320274582
 30
0.0
 11
67.29915450951285
 21
92.40818320274582
 31
0.0
  0
LINE
  5
192
  8
0
  6
CONTINUOUS
 62
     7
 10
56.29915450951287
 20
92.40818320274582
 30
0.0
 11
58.29915450951285
 21
92.40818320274582
 31
0.0
  0
LINE
  5
193
  8
0
  6
CONTINUOUS
 62
     7
 10
74.07059673584332
 20
83.90381993499663
 30
0.0
 11
74.11060815450874
 21
92.40818320274582
 31
0.0
  0
LINE
  5
194
  8
0
  6
CONTINUOUS
 62
     7
 10
49.52771228318231
 20
83.9038199350215
 30
0.0
 11
49.48770086451702
 21
92.40818320274582
 31
0.0
  0
LINE
  5
195
  8
0
  6
CONTINUOUS
 62
     7
 10
73.79757136547859
 20
83.40818320274583
 30
0.0
 11
49.80073765354717
 21
83.40818320274583
 31
0.0
  0
POLYLINE
  5
196
  8
0
  6
CONTINUOUS
 62
     7
 66
     1
 10
0.0
 20
0.0
 30
0.0
  0
VERTEX
  5
427
  8
0
  6
CONTINUOUS
 62
     7
 10
49.52771228318237
 20
83.90381993500907
 30
0.0
  0
VERTEX
  5
428
  8
0
  6
CONTINUOUS
 62
     7
 10
49.527996663282
 20
83.88486846100993
 30
0.0
  0
VERTEX
  5
429
  8
0
  6
CONTINUOUS
 62
     7
 10
49.52866898125686
 20
83.86594281001702
 30
0.0
  0
VERTEX
  5
42A
  8
0
  6
CONTINUOUS
 62
     7
 10
49.52972586667764
 20
83.8470949388192
 30
0.0
  0
VERTEX
  5
42B
  8
0
  6
CONTINUOUS
 62
     7
 10
49.53116394911507
 20
83.8283768042053
 30
0.0
  0
VERTEX
  5
42C
  8
0
  6
CONTINUOUS
 62
     7
 10
49.5330435711823
 20
83.80923856573806
 30
0.0
  0
VERTEX
  5
42D
  8
0
  6
CONTINUOUS
 62
     7
 10
49.53532101852741
 20
83.79027332560638
 30
0.0
  0
VERTEX
  5
42E
  8
0
  6
CONTINUOUS
 62
     7
 10
49.53798661025732
 20
83.77153249284234
 30
0.0
  0
VERTEX
  5
42F
  8
0
  6
CONTINUOUS
 62
     7
 10
49.54103066547891
 20
83.75306747647814
 30
0.0
  0
VERTEX
  5
430
  8
0
  6
CONTINUOUS
 62
     7
 10
49.54433981674961
 20
83.73543876487727
 30
0.0
  0
VERTEX
  5
431
  8
0
  6
CONTINUOUS
 62
     7
 10
49.54799326477811
 20
83.71809533384875
 30
0.0
  0
VERTEX
  5
432
  8
0
  6
CONTINUOUS
 62
     7
 10
49.55197828923185
 20
83.70107594554455
 30
0.0
  0
VERTEX
  5
433
  8
0
  6
CONTINUOUS
 62
     7
 10
49.5562821697783
 20
83.68441936211673
 30
0.0
  0
VERTEX
  5
434
  8
0
  6
CONTINUOUS
 62
     7
 10
49.56102572529907
 20
83.66770863850415
 30
0.0
  0
VERTEX
  5
435
  8
0
  6
CONTINUOUS
 62
     7
 10
49.56609032252914
 20
83.65139832812254
 30
0.0
  0
VERTEX
  5
436
  8
0
  6
CONTINUOUS
 62
     7
 10
49.57145995789246
 20
83.63552052611509
 30
0.0
  0
VERTEX
  5
437
  8
0
  6
CONTINUOUS
 62
     7
 10
49.57711862781301
 20
83.620107327625
 30
0.0
  0
VERTEX
  5
438
  8
0
  6
CONTINUOUS
 62
     7
 10
49.58528685059702
 20
83.59985077007936
 30
0.0
  0
VERTEX
  5
439
  8
0
  6
CONTINUOUS
 62
     7
 10
49.59395211200889
 20
83.58049022297571
 30
0.0
  0
VERTEX
  5
43A
  8
0
  6
CONTINUOUS
 62
     7
 10
49.60307224410925
 20
83.56208351673206
 30
0.0
  0
VERTEX
  5
43B
  8
0
  6
CONTINUOUS
 62
     7
 10
49.61285184603999
 20
83.54425343300292
 30
0.0
  0
VERTEX
  5
43C
  8
0
  6
CONTINUOUS
 62
     7
 10
49.62305577117006
 20
83.52745319989002
 30
0.0
  0
VERTEX
  5
43D
  8
0
  6
CONTINUOUS
 62
     7
 10
49.63364004844682
 20
83.51172400465265
 30
0.0
  0
VERTEX
  5
43E
  8
0
  6
CONTINUOUS
 62
     7
 10
49.64557962942496
 20
83.49581440056215
 30
0.0
  0
VERTEX
  5
43F
  8
0
  6
CONTINUOUS
 62
     7
 10
49.65791105822957
 20
83.4811931059522
 30
0.0
  0
VERTEX
  5
440
  8
0
  6
CONTINUOUS
 62
     7
 10
49.67058100244273
 20
83.46789269773659
 30
0.0
  0
VERTEX
  5
441
  8
0
  6
CONTINUOUS
 62
     7
 10
49.68386701875381
 20
83.45565555529166
 30
0.0
  0
VERTEX
  5
442
  8
0
  6
CONTINUOUS
 62
     7
 10
49.69744870255178
 20
83.4448044124935
 30
0.0
  0
VERTEX
  5
443
  8
0
  6
CONTINUOUS
 62
     7
 10
49.71127321244495
 20
83.43535840631574
 30
0.0
  0
VERTEX
  5
444
  8
0
  6
CONTINUOUS
 62
     7
 10
49.72529353697849
 20
83.42732904157695
 30
0.0
  0
VERTEX
  5
445
  8
0
  6
CONTINUOUS
 62
     7
 10
49.73950321195826
 20
83.42069702715091
 30
0.0
  0
VERTEX
  5
446
  8
0
  6
CONTINUOUS
 62
     7
 10
49.75385301218007
 20
83.41547118990866
 30
0.0
  0
VERTEX
  5
447
  8
0
  6
CONTINUOUS
 62
     7
 10
49.76861982241036
 20
83.41158696240245
 30
0.0
  0
VERTEX
  5
448
  8
0
  6
CONTINUOUS
 62
     7
 10
49.78348153033944
 20
83.4091629850168
 30
0.0
  0
VERTEX
  5
449
  8
0
  6
CONTINUOUS
 62
     7
 10
49.7983877564869
 20
83.40820131051258
 30
0.0
  0
VERTEX
  5
44A
  8
0
  6
CONTINUOUS
 62
     7
 10
49.80073765354715
 20
83.40818320274583
 30
0.0
  0
SEQEND
  5
502
  8
0
  6
CONTINUOUS
 62
     7
  0
POLYLINE
  5
197
  8
0
  6
CONTINUOUS
 62
     7
 66
     1
 10
0.0
 20
0.0
 30
0.0
  0
VERTEX
  5
44B
  8
0
  6
CONTINUOUS
 62
     7
 10
73.7975713654786
 20
83.40818320274583
 30
0.0
  0
VERTEX
  5
44C
  8
0
  6
CONTINUOUS
 62
     7
 10
73.79992126253885
 20
83.40820131051258
 30
0.0
  0
VERTEX
  5
44D
  8
0
  6
CONTINUOUS
 62
     7
 10
73.8145264127695
 20
83.40912898578989
 30
0.0
  0
VERTEX
  5
44E
  8
0
  6
CONTINUOUS
 62
     7
 10
73.82908931520498
 20
83.4114603729512
 30
0.0
  0
VERTEX
  5
44F
  8
0
  6
CONTINUOUS
 62
     7
 10
73.8435625971585
 20
83.41519360252674
 30
0.0
  0
VERTEX
  5
450
  8
0
  6
CONTINUOUS
 62
     7
 10
73.85821549723602
 20
83.4204534139325
 30
0.0
  0
VERTEX
  5
451
  8
0
  6
CONTINUOUS
 62
     7
 10
73.87272400350157
 20
83.42717811470517
 30
0.0
  0
VERTEX
  5
452
  8
0
  6
CONTINUOUS
 62
     7
 10
73.88703580657291
 20
83.43535840631078
 30
0.0
  0
VERTEX
  5
453
  8
0
  6
CONTINUOUS
 62
     7
 10
73.90055258800105
 20
83.44457688195506
 30
0.0
  0
VERTEX
  5
454
  8
0
  6
CONTINUOUS
 62
     7
 10
73.91383791557013
 20
83.45513809464003
 30
0.0
  0
VERTEX
  5
455
  8
0
  6
CONTINUOUS
 62
     7
 10
73.92684247020634
 20
83.46702430566252
 30
0.0
  0
VERTEX
  5
456
  8
0
  6
CONTINUOUS
 62
     7
 10
73.9398226117159
 20
83.48055280705871
 30
0.0
  0
VERTEX
  5
457
  8
0
  6
CONTINUOUS
 62
     7
 10
73.95245045914517
 20
83.49546426074299
 30
0.0
  0
VERTEX
  5
458
  8
0
  6
CONTINUOUS
 62
     7
 10
73.96466897057287
 20
83.51172400464411
 30
0.0
  0
VERTEX
  5
459
  8
0
  6
CONTINUOUS
 62
     7
 10
73.97501882271615
 20
83.52708677564173
 30
0.0
  0
VERTEX
  5
45A
  8
0
  6
CONTINUOUS
 62
     7
 10
73.98500581484517
 20
83.54347306087651
 30
0.0
  0
VERTEX
  5
45B
  8
0
  6
CONTINUOUS
 62
     7
 10
73.99458890432729
 20
83.56084459218475
 30
0.0
  0
VERTEX
  5
45C
  8
0
  6
CONTINUOUS
 62
     7
 10
74.00394558239763
 20
83.57961940552728
 30
0.0
  0
VERTEX
  5
45D
  8
0
  6
CONTINUOUS
 62
     7
 10
74.01282779470345
 20
83.59939420461906
 30
0.0
  0
VERTEX
  5
45E
  8
0
  6
CONTINUOUS
 62
     7
 10
74.02119039120859
 20
83.62010732761415
 30
0.0
  0
VERTEX
  5
45F
  8
0
  6
CONTINUOUS
 62
     7
 10
74.02848732024184
 20
83.64022550436273
 30
0.0
  0
VERTEX
  5
460
  8
0
  6
CONTINUOUS
 62
     7
 10
74.03528786985923
 20
83.6611106812127
 30
0.0
  0
VERTEX
  5
461
  8
0
  6
CONTINUOUS
 62
     7
 10
74.0415568951739
 20
83.68269273643347
 30
0.0
  0
VERTEX
  5
462
  8
0
  6
CONTINUOUS
 62
     7
 10
74.04600330626299
 20
83.69975173056494
 30
0.0
  0
VERTEX
  5
463
  8
0
  6
CONTINUOUS
 62
     7
 10
74.05011487677714
 20
83.71719502752491
 30
0.0
  0
VERTEX
  5
464
  8
0
  6
CONTINUOUS
 62
     7
 10
74.05387782108238
 20
83.73498086394723
 30
0.0
  0
VERTEX
  5
465
  8
0
  6
CONTINUOUS
 62
     7
 10
74.05727835354466
 20
83.75306747646577
 30
0.0
  0
VERTEX
  5
466
  8
0
  6
CONTINUOUS
 62
     7
 10
74.06023781906917
 20
83.77098202350336
 30
0.0
  0
VERTEX
  5
467
  8
0
  6
CONTINUOUS
 62
     7
 10
74.06284106501901
 20
83.78915670061781
 30
0.0
  0
VERTEX
  5
468
  8
0
  6
CONTINUOUS
 62
     7
 10
74.0650791710048
 20
83.80754463022639
 30
0.0
  0
VERTEX
  5
469
  8
0
  6
CONTINUOUS
 62
     7
 10
74.06694321663706
 20
83.82609893474634
 30
0.0
  0
VERTEX
  5
46A
  8
0
  6
CONTINUOUS
 62
     7
 10
74.06846694682856
 20
83.84537356991166
 30
0.0
  0
VERTEX
  5
46B
  8
0
  6
CONTINUOUS
 62
     7
 10
74.06958630082943
 20
83.8647898180858
 30
0.0
  0
VERTEX
  5
46C
  8
0
  6
CONTINUOUS
 62
     7
 10
74.07029749253567
 20
83.88429087465278
 30
0.0
  0
VERTEX
  5
46D
  8
0
  6
CONTINUOUS
 62
     7
 10
74.07059673584332
 20
83.90381993499663
 30
0.0
  0
SEQEND
  5
503
  8
0
  6
CONTINUOUS
 62
     7
  0
LINE
  5
198
  8
0
  6
CONTINUOUS
 62
     7
 10
71.79915450951287
 20
92.40818320274582
 30
0.0
 11
69.79915450951289
 21
92.40818320274582
 31
0.0
  0
LINE
  5
199
  8
0
  6
CONTINUOUS
 62
     7
 10
51.79915450951285
 20
92.40818320274582
 30
0.0
 11
53.79915450951285
 21
92.40818320274582
 31
0.0
  0
LINE
  5
19A
  8
0
  6
CONTINUOUS
 62
     7
 10
45.8454343451701
 20
106.9081832027458
 30
0.0
 11
40.79915450951287
 21
106.9081832027458
 31
0.0
  0
LINE
  5
19B
  8
0
  6
CONTINUOUS
 62
     7
 10
45.75727085481589
 20
107.4081832027458
 30
0.0
 11
45.84543434517013
 21
106.9081832027458
 31
0.0
  0
LINE
  5
19C
  8
0
  6
CONTINUOUS
 62
     7
 10
40.29915450951287
 20
107.4081832027458
 30
0.0
 11
40.29915450951287
 21
108.4081832027458
 31
0.0
  0
POLYLINE
  5
19D
  8
0
  6
CONTINUOUS
 62
     7
 66
     1
 10
0.0
 20
0.0
 30
0.0
  0
VERTEX
  5
46E
  8
0
  6
CONTINUOUS
 62
     7
 10
40.79915450951287
 20
108.9081832027458
 30
0.0
  0
VERTEX
  5
46F
  8
0
  6
CONTINUOUS
 62
     7
 10
40.77462067234916
 20
108.9075809308484
 30
0.0
  0
VERTEX
  5
470
  8
0
  6
CONTINUOUS
 62
     7
 10
40.75014593934809
 20
108.9057755660819
 30
0.0
  0
VERTEX
  5
471
  8
0
  6
CONTINUOUS
 62
     7
 10
40.72578927228519
 20
108.9027714577282
 30
0.0
  0
VERTEX
  5
472
  8
0
  6
CONTINUOUS
 62
     7
 10
40.70160934850481
 20
108.8985758429474
 30
0.0
  0
VERTEX
  5
473
  8
0
  6
CONTINUOUS
 62
     7
 10
40.67766441956124
 20
108.8931988293431
 30
0.0
  0
VERTEX
  5
474
  8
0
  6
CONTINUOUS
 62
     7
 10
40.65401217088564
 20
108.8866533706119
 30
0.0
  0
VERTEX
  5
475
  8
0
  6
CONTINUOUS
 62
     7
 10
40.63070958281677
 20
108.8789552353373
 30
0.0
  0
VERTEX
  5
476
  8
0
  6
CONTINUOUS
 62
     7
 10
40.60781279333033
 20
108.8701229690015
 30
0.0
  0
VERTEX
  5
477
  8
0
  6
CONTINUOUS
 62
     7
 10
40.58537696279774
 20
108.8601778493076
 30
0.0
  0
VERTEX
  5
478
  8
0
  6
CONTINUOUS
 62
     7
 10
40.56345614109988
 20
108.84914383492
 30
0.0
  0
VERTEX
  5
479
  8
0
  6
CONTINUOUS
 62
     7
 10
40.54210313741626
 20
108.837047507746
 30
0.0
  0
VERTEX
  5
47A
  8
0
  6
CONTINUOUS
 62
     7
 10
40.52136939300308
 20
108.8239180088971
 30
0.0
  0
VERTEX
  5
47B
  8
0
  6
CONTINUOUS
 62
     7
 10
40.50130485726665
 20
108.8097869684862
 30
0.0
  0
VERTEX
  5
47C
  8
0
  6
CONTINUOUS
 62
     7
 10
40.48195786743105
 20
108.7946884294272
 30
0.0
  0
VERTEX
  5
47D
  8
0
  6
CONTINUOUS
 62
     7
 10
40.46337503208937
 20
108.7786587654233
 30
0.0
  0
VERTEX
  5
47E
  8
0
  6
CONTINUOUS
 62
     7
 10
40.4456011189196
 20
108.7617365933391
 30
0.0
  0
VERTEX
  5
47F
  8
0
  6
CONTINUOUS
 62
     7
 10
40.4286789468354
 20
108.7439626801693
 30
0.0
  0
VERTEX
  5
480
  8
0
  6
CONTINUOUS
 62
     7
 10
40.4126492828315
 20
108.7253798448277
 30
0.0
  0
VERTEX
  5
481
  8
0
  6
CONTINUOUS
 62
     7
 10
40.39755074377255
 20
108.7060328549921
 30
0.0
  0
VERTEX
  5
482
  8
0
  6
CONTINUOUS
 62
     7
 10
40.3834197033616
 20
108.6859683192556
 30
0.0
  0
VERTEX
  5
483
  8
0
  6
CONTINUOUS
 62
     7
 10
40.37029020451273
 20
108.6652345748424
 30
0.0
  0
VERTEX
  5
484
  8
0
  6
CONTINUOUS
 62
     7
 10
40.35819387733869
 20
108.6438815711588
 30
0.0
  0
VERTEX
  5
485
  8
0
  6
CONTINUOUS
 62
     7
 10
40.34715986295114
 20
108.621960749461
 30
0.0
  0
VERTEX
  5
486
  8
0
  6
CONTINUOUS
 62
     7
 10
40.33721474325723
 20
108.5995249189284
 30
0.0
  0
VERTEX
  5
487
  8
0
  6
CONTINUOUS
 62
     7
 10
40.32838247692136
 20
108.5766281294419
 30
0.0
  0
VERTEX
  5
488
  8
0
  6
CONTINUOUS
 62
     7
 10
40.32068434164677
 20
108.5533255413731
 30
0.0
  0
VERTEX
  5
489
  8
0
  6
CONTINUOUS
 62
     7
 10
40.3141388829156
 20
108.5296732926975
 30
0.0
  0
VERTEX
  5
48A
  8
0
  6
CONTINUOUS
 62
     7
 10
40.30876186931126
 20
108.5057283637539
 30
0.0
  0
VERTEX
  5
48B
  8
0
  6
CONTINUOUS
 62
     7
 10
40.30456625453048
 20
108.4815484399735
 30
0.0
  0
VERTEX
  5
48C
  8
0
  6
CONTINUOUS
 62
     7
 10
40.30156214617678
 20
108.4571917729106
 30
0.0
  0
VERTEX
  5
48D
  8
0
  6
CONTINUOUS
 62
     7
 10
40.29975678141029
 20
108.4327170399095
 30
0.0
  0
VERTEX
  5
48E
  8
0
  6
CONTINUOUS
 62
     7
 10
40.29915450951287
 20
108.4081832027458
 30
0.0
  0
SEQEND
  5
504
  8
0
  6
CONTINUOUS
 62
     7
  0
LINE
  5
19E
  8
0
  6
CONTINUOUS
 62
     7
 10
82.79915450951287
 20
106.9081832027458
 30
0.0
 11
77.75287467385563
 21
106.9081832027458
 31
0.0
  0
LINE
  5
19F
  8
0
  6
CONTINUOUS
 62
     7
 10
77.75287467385562
 20
106.9081832027458
 30
0.0
 11
77.84103816420985
 21
107.4081832027458
 31
0.0
  0
LINE
  5
1A0
  8
0
  6
CONTINUOUS
 62
     7
 10
78.94462826644983
 20
108.9081832027458
 30
0.0
 11
82.79915450951287
 21
108.9081832027458
 31
0.0
  0
LINE
  5
1A1
  8
0
  6
CONTINUOUS
 62
     7
 10
77.84103816420985
 20
107.4081832027458
 30
0.0
 11
77.95982051343762
 21
108.0818313804128
 31
0.0
  0
ARC
  5
1A2
  8
0
  6
CONTINUOUS
 62
     7
 10
78.94462826644983
 20
107.9081832027458
 30
0.0
 40
1.000000000000001
 50
90.0
 51
170.0000000000001
  0
LINE
  5
1A3
  8
0
  6
CONTINUOUS
 62
     7
 10
44.65368075257592
 20
108.9081832027458
 30
0.0
 11
40.79915450951287
 21
108.9081832027458
 31
0.0
  0
ARC
  5
1A4
  8
0
  6
CONTINUOUS
 62
     7
 10
44.65368075257592
 20
107.9081832027458
 30
0.0
 40
0.9999999999999959
 50
9.999999999999865
 51
90.0
  0
LINE
  5
1A5
  8
0
  6
CONTINUOUS
 62
     7
 10
45.75727085481589
 20
107.4081832027458
 30
0.0
 11
45.63848850558812
 21
108.0818313804128
 31
0.0
  0
LINE
  5
1A6
  8
0
  6
CONTINUOUS
 62
     7
 10
83.29915450951287
 20
108.4081832027458
 30
0.0
 11
83.29915450951287
 21
107.4081832027458
 31
0.0
  0
POLYLINE
  5
1A7
  8
0
  6
CONTINUOUS
 62
     7
 66
     1
 10
0.0
 20
0.0
 30
0.0
  0
VERTEX
  5
48F
  8
0
  6
CONTINUOUS
 62
     7
 10
83.29915450951287
 20
108.4081832027458
 30
0.0
  0
VERTEX
  5
490
  8
0
  6
CONTINUOUS
 62
     7
 10
83.29855223761545
 20
108.4327170399095
 30
0.0
  0
VERTEX
  5
491
  8
0
  6
CONTINUOUS
 62
     7
 10
83.29674687284896
 20
108.4571917729106
 30
0.0
  0
VERTEX
  5
492
  8
0
  6
CONTINUOUS
 62
     7
 10
83.29374276449526
 20
108.4815484399735
 30
0.0
  0
VERTEX
  5
493
  8
0
  6
CONTINUOUS
 62
     7
 10
83.28954714971448
 20
108.5057283637539
 30
0.0
  0
VERTEX
  5
494
  8
0
  6
CONTINUOUS
 62
     7
 10
83.28417013611013
 20
108.5296732926975
 30
0.0
  0
VERTEX
  5
495
  8
0
  6
CONTINUOUS
 62
     7
 10
83.27762467737898
 20
108.5533255413731
 30
0.0
  0
VERTEX
  5
496
  8
0
  6
CONTINUOUS
 62
     7
 10
83.26992654210439
 20
108.5766281294419
 30
0.0
  0
VERTEX
  5
497
  8
0
  6
CONTINUOUS
 62
     7
 10
83.26109427576851
 20
108.5995249189284
 30
0.0
  0
VERTEX
  5
498
  8
0
  6
CONTINUOUS
 62
     7
 10
83.25114915607459
 20
108.621960749461
 30
0.0
  0
VERTEX
  5
499
  8
0
  6
CONTINUOUS
 62
     7
 10
83.24011514168706
 20
108.6438815711588
 30
0.0
  0
VERTEX
  5
49A
  8
0
  6
CONTINUOUS
 62
     7
 10
83.228018814513
 20
108.6652345748424
 30
0.0
  0
VERTEX
  5
49B
  8
0
  6
CONTINUOUS
 62
     7
 10
83.21488931566415
 20
108.6859683192556
 30
0.0
  0
VERTEX
  5
49C
  8
0
  6
CONTINUOUS
 62
     7
 10
83.2007582752532
 20
108.7060328549921
 30
0.0
  0
VERTEX
  5
49D
  8
0
  6
CONTINUOUS
 62
     7
 10
83.18565973619424
 20
108.7253798448277
 30
0.0
  0
VERTEX
  5
49E
  8
0
  6
CONTINUOUS
 62
     7
 10
83.16963007219036
 20
108.7439626801693
 30
0.0
  0
VERTEX
  5
49F
  8
0
  6
CONTINUOUS
 62
     7
 10
83.15270790010615
 20
108.7617365933391
 30
0.0
  0
VERTEX
  5
4A0
  8
0
  6
CONTINUOUS
 62
     7
 10
83.13493398693639
 20
108.7786587654233
 30
0.0
  0
VERTEX
  5
4A1
  8
0
  6
CONTINUOUS
 62
     7
 10
83.1163511515947
 20
108.7946884294272
 30
0.0
  0
VERTEX
  5
4A2
  8
0
  6
CONTINUOUS
 62
     7
 10
83.09700416175909
 20
108.8097869684861
 30
0.0
  0
VERTEX
  5
4A3
  8
0
  6
CONTINUOUS
 62
     7
 10
83.07693962602266
 20
108.8239180088971
 30
0.0
  0
VERTEX
  5
4A4
  8
0
  6
CONTINUOUS
 62
     7
 10
83.05620588160949
 20
108.837047507746
 30
0.0
  0
VERTEX
  5
4A5
  8
0
  6
CONTINUOUS
 62
     7
 10
83.03485287792587
 20
108.84914383492
 30
0.0
  0
VERTEX
  5
4A6
  8
0
  6
CONTINUOUS
 62
     7
 10
83.01293205622802
 20
108.8601778493075
 30
0.0
  0
VERTEX
  5
4A7
  8
0
  6
CONTINUOUS
 62
     7
 10
82.99049622569541
 20
108.8701229690015
 30
0.0
  0
VERTEX
  5
4A8
  8
0
  6
CONTINUOUS
 62
     7
 10
82.96759943620899
 20
108.8789552353373
 30
0.0
  0
VERTEX
  5
4A9
  8
0
  6
CONTINUOUS
 62
     7
 10
82.9442968481401
 20
108.8866533706119
 30
0.0
  0
VERTEX
  5
4AA
  8
0
  6
CONTINUOUS
 62
     7
 10
82.92064459946451
 20
108.8931988293431
 30
0.0
  0
VERTEX
  5
4AB
  8
0
  6
CONTINUOUS
 62
     7
 10
82.89669967052093
 20
108.8985758429474
 30
0.0
  0
VERTEX
  5
4AC
  8
0
  6
CONTINUOUS
 62
     7
 10
82.87251974674056
 20
108.9027714577282
 30
0.0
  0
VERTEX
  5
4AD
  8
0
  6
CONTINUOUS
 62
     7
 10
82.84816307967765
 20
108.9057755660819
 30
0.0
  0
VERTEX
  5
4AE
  8
0
  6
CONTINUOUS
 62
     7
 10
82.82368834667658
 20
108.9075809308484
 30
0.0
  0
VERTEX
  5
4AF
  8
0
  6
CONTINUOUS
 62
     7
 10
82.79915450951287
 20
108.9081832027458
 30
0.0
  0
SEQEND
  5
505
  8
0
  6
CONTINUOUS
 62
     7
  0
ARC
  5
1A8
  8
0
  6
CONTINUOUS
 62
     7
 10
82.79915450951287
 20
107.4081832027458
 30
0.0
 40
0.5000000000000004
 50
270.0
 51
0.0
  0
ARC
  5
1A9
  8
0
  6
CONTINUOUS
 62
     7
 10
40.79915450951287
 20
107.4081832027458
 30
0.0
 40
0.5000000000000004
 50
180.0
 51
270.0
  0
ARC
  5
1AA
  8
0
  6
CONTINUOUS
 62
     7
 10
44.95560914894175
 20
97.889948030141
 30
0.0
 40
1.0
 50
219.8055710922649
 51
259.0414084580123
  0
LINE
  5
1AB
  8
0
  6
CONTINUOUS
 62
     7
 10
44.18738786934438
 20
97.24976363047654
 30
0.0
 11
42.6673743869945
 21
99.0737798092964
 31
0.0
  0
ARC
  5
1AC
  8
0
  6
CONTINUOUS
 62
     7
 10
44.97203822578663
 20
100.9943330082898
 30
0.0
 40
3.0
 50
180.0
 51
219.8055710922654
  0
LINE
  5
1AD
  8
0
  6
CONTINUOUS
 62
     7
 10
41.97203822578663
 20
101.4081832027458
 30
0.0
 11
41.97203822578663
 21
100.9943330082898
 31
0.0
  0
LINE
  5
1AE
  8
0
  6
CONTINUOUS
 62
     7
 10
43.9720382257866
 20
101.4081832027458
 30
0.0
 11
41.97203822578663
 21
101.4081832027458
 31
0.0
  0
LINE
  5
1AF
  8
0
  6
CONTINUOUS
 62
     7
 10
43.00223983189008
 20
106.9081832027458
 30
0.0
 11
43.9720382257866
 21
101.4081832027458
 31
0.0
  0
POLYLINE
  5
1B0
  8
0
  6
CONTINUOUS
 62
     7
 66
     1
 10
0.0
 20
0.0
 30
0.0
  0
VERTEX
  5
4B0
  8
0
  6
CONTINUOUS
 62
     7
 10
48.82172538103151
 20
92.40818320274582
 30
0.0
  0
VERTEX
  5
4B1
  8
0
  6
CONTINUOUS
 62
     7
 10
48.79680243820115
 20
92.40880474213637
 30
0.0
  0
VERTEX
  5
4B2
  8
0
  6
CONTINUOUS
 62
     7
 10
48.7719414577336
 20
92.41066781506312
 30
0.0
  0
VERTEX
  5
4B3
  8
0
  6
CONTINUOUS
 62
     7
 10
48.74720424794342
 20
92.41376778963327
 30
0.0
  0
VERTEX
  5
4B4
  8
0
  6
CONTINUOUS
 62
     7
 10
48.72265230943181
 20
92.41809695882155
 30
0.0
  0
VERTEX
  5
4B5
  8
0
  6
CONTINUOUS
 62
     7
 10
48.69834668218636
 20
92.42364455963128
 30
0.0
  0
VERTEX
  5
4B6
  8
0
  6
CONTINUOUS
 62
     7
 10
48.67434779382605
 20
92.43039679985276
 30
0.0
  0
VERTEX
  5
4B7
  8
0
  6
CONTINUOUS
 62
     7
 10
48.65071530936867
 20
92.43833689235288
 30
0.0
  0
VERTEX
  5
4B8
  8
0
  6
CONTINUOUS
 62
     7
 10
48.62750798289416
 20
92.44744509681063
 30
0.0
  0
VERTEX
  5
4B9
  8
0
  6
CONTINUOUS
 62
     7
 10
48.60478351147273
 20
92.45769876879461
 30
0.0
  0
VERTEX
  5
4BA
  8
0
  6
CONTINUOUS
 62
     7
 10
48.58259839172085
 20
92.46907241606071
 30
0.0
  0
VERTEX
  5
4BB
  8
0
  6
CONTINUOUS
 62
     7
 10
48.56100777934176
 20
92.48153776192976
 30
0.0
  0
VERTEX
  5
4BC
  8
0
  6
CONTINUOUS
 62
     7
 10
48.5400653519997
 20
92.49506381558784
 30
0.0
  0
VERTEX
  5
4BD
  8
0
  6
CONTINUOUS
 62
     7
 10
48.51982317586877
 20
92.50961694913437
 30
0.0
  0
VERTEX
  5
4BE
  8
0
  6
CONTINUOUS
 62
     7
 10
48.50033157618824
 20
92.52516098118635
 30
0.0
  0
VERTEX
  5
4BF
  8
0
  6
CONTINUOUS
 62
     7
 10
48.48163901214605
 20
92.54165726683091
 30
0.0
  0
VERTEX
  5
4C0
  8
0
  6
CONTINUOUS
 62
     7
 10
48.46379195640164
 20
92.55906479370279
 30
0.0
  0
VERTEX
  5
4C1
  8
0
  6
CONTINUOUS
 62
     7
 10
48.44683477954764
 20
92.5773402839474
 30
0.0
  0
VERTEX
  5
4C2
  8
0
  6
CONTINUOUS
 62
     7
 10
48.43080963979749
 20
92.59643830181646
 30
0.0
  0
VERTEX
  5
4C3
  8
0
  6
CONTINUOUS
 62
     7
 10
48.41575637817358
 20
92.61631136662844
 30
0.0
  0
VERTEX
  5
4C4
  8
0
  6
CONTINUOUS
 62
     7
 10
48.40171241945612
 20
92.63691007081296
 30
0.0
  0
VERTEX
  5
4C5
  8
0
  6
CONTINUOUS
 62
     7
 10
48.38871267913929
 20
92.65818320274582
 30
0.0
  0
VERTEX
  5
4C6
  8
0
  6
CONTINUOUS
 62
     7
 10
48.37678947662577
 20
92.68007787406924
 30
0.0
  0
VERTEX
  5
4C7
  8
0
  6
CONTINUOUS
 62
     7
 10
48.36597245487567
 20
92.70253965118053
 30
0.0
  0
VERTEX
  5
4C8
  8
0
  6
CONTINUOUS
 62
     7
 10
48.3562885067094
 20
92.72551269056262
 30
0.0
  0
VERTEX
  5
4C9
  8
0
  6
CONTINUOUS
 62
     7
 10
48.34776170794794
 20
92.74893987761999
 30
0.0
  0
VERTEX
  5
4CA
  8
0
  6
CONTINUOUS
 62
     7
 10
48.3404132575565
 20
92.77276296867433
 30
0.0
  0
VERTEX
  5
4CB
  8
0
  6
CONTINUOUS
 62
     7
 10
48.3342614249406
 20
92.79692273576767
 30
0.0
  0
VERTEX
  5
4CC
  8
0
  6
CONTINUOUS
 62
     7
 10
48.3293215045254
 20
92.82135911391237
 30
0.0
  0
SEQEND
  5
506
  8
0
  6
CONTINUOUS
 62
     7
  0
LINE
  5
1B1
  8
0
  6
CONTINUOUS
 62
     7
 10
49.19443209602377
 20
92.40818320274582
 30
0.0
 11
48.82172538103151
 21
92.40818320274582
 31
0.0
  0
LINE
  5
1B2
  8
0
  6
CONTINUOUS
 62
     7
 10
44.76550963897471
 20
96.90818320274583
 30
0.0
 11
47.05852975001297
 21
83.90381993499663
 31
0.0
  0
LINE
  5
1B3
  8
0
  6
CONTINUOUS
 62
     7
 10
48.3293215045254
 20
92.82135911391237
 30
0.0
 11
45.8454343451701
 21
106.9081832027458
 31
0.0
  0
LINE
  5
1B4
  8
0
  6
CONTINUOUS
 62
     7
 10
74.40387692300199
 20
92.40818320274582
 30
0.0
 11
74.77658363799424
 21
92.40818320274582
 31
0.0
  0
POLYLINE
  5
1B5
  8
0
  6
CONTINUOUS
 62
     7
 66
     1
 10
0.0
 20
0.0
 30
0.0
  0
VERTEX
  5
4CD
  8
0
  6
CONTINUOUS
 62
     7
 10
75.26898751450034
 20
92.82135911391237
 30
0.0
  0
VERTEX
  5
4CE
  8
0
  6
CONTINUOUS
 62
     7
 10
75.26404759408516
 20
92.79692273576767
 30
0.0
  0
VERTEX
  5
4CF
  8
0
  6
CONTINUOUS
 62
     7
 10
75.25789576146924
 20
92.77276296867433
 30
0.0
  0
VERTEX
  5
4D0
  8
0
  6
CONTINUOUS
 62
     7
 10
75.2505473110778
 20
92.74893987761999
 30
0.0
  0
VERTEX
  5
4D1
  8
0
  6
CONTINUOUS
 62
     7
 10
75.24202051231634
 20
92.72551269056264
 30
0.0
  0
VERTEX
  5
4D2
  8
0
  6
CONTINUOUS
 62
     7
 10
75.23233656415007
 20
92.70253965118053
 30
0.0
  0
VERTEX
  5
4D3
  8
0
  6
CONTINUOUS
 62
     7
 10
75.22151954239997
 20
92.68007787406926
 30
0.0
  0
VERTEX
  5
4D4
  8
0
  6
CONTINUOUS
 62
     7
 10
75.20959633988646
 20
92.65818320274583
 30
0.0
  0
VERTEX
  5
4D5
  8
0
  6
CONTINUOUS
 62
     7
 10
75.19659659956962
 20
92.63691007081296
 30
0.0
  0
VERTEX
  5
4D6
  8
0
  6
CONTINUOUS
 62
     7
 10
75.18255264085217
 20
92.61631136662844
 30
0.0
  0
VERTEX
  5
4D7
  8
0
  6
CONTINUOUS
 62
     7
 10
75.16749937922826
 20
92.59643830181646
 30
0.0
  0
VERTEX
  5
4D8
  8
0
  6
CONTINUOUS
 62
     7
 10
75.1514742394781
 20
92.5773402839474
 30
0.0
  0
VERTEX
  5
4D9
  8
0
  6
CONTINUOUS
 62
     7
 10
75.1345170626241
 20
92.55906479370279
 30
0.0
  0
VERTEX
  5
4DA
  8
0
  6
CONTINUOUS
 62
     7
 10
75.1166700068797
 20
92.54165726683091
 30
0.0
  0
VERTEX
  5
4DB
  8
0
  6
CONTINUOUS
 62
     7
 10
75.09797744283752
 20
92.52516098118635
 30
0.0
  0
VERTEX
  5
4DC
  8
0
  6
CONTINUOUS
 62
     7
 10
75.07848584315697
 20
92.50961694913437
 30
0.0
  0
VERTEX
  5
4DD
  8
0
  6
CONTINUOUS
 62
     7
 10
75.05824366702605
 20
92.49506381558784
 30
0.0
  0
VERTEX
  5
4DE
  8
0
  6
CONTINUOUS
 62
     7
 10
75.037301239684
 20
92.48153776192976
 30
0.0
  0
VERTEX
  5
4DF
  8
0
  6
CONTINUOUS
 62
     7
 10
75.0157106273049
 20
92.46907241606073
 30
0.0
  0
VERTEX
  5
4E0
  8
0
  6
CONTINUOUS
 62
     7
 10
74.99352550755302
 20
92.45769876879461
 30
0.0
  0
VERTEX
  5
4E1
  8
0
  6
CONTINUOUS
 62
     7
 10
74.97080103613159
 20
92.44744509681063
 30
0.0
  0
VERTEX
  5
4E2
  8
0
  6
CONTINUOUS
 62
     7
 10
74.94759370965707
 20
92.43833689235288
 30
0.0
  0
VERTEX
  5
4E3
  8
0
  6
CONTINUOUS
 62
     7
 10
74.92396122519969
 20
92.43039679985276
 30
0.0
  0
VERTEX
  5
4E4
  8
0
  6
CONTINUOUS
 62
     7
 10
74.8999623368394
 20
92.4236445596313
 30
0.0
  0
VERTEX
  5
4E5
  8
0
  6
CONTINUOUS
 62
     7
 10
74.87565670959394
 20
92.41809695882155
 30
0.0
  0
VERTEX
  5
4E6
  8
0
  6
CONTINUOUS
 62
     7
 10
74.85110477108232
 20
92.41376778963327
 30
0.0
  0
VERTEX
  5
4E7
  8
0
  6
CONTINUOUS
 62
     7
 10
74.82636756129214
 20
92.41066781506312
 30
0.0
  0
VERTEX
  5
4E8
  8
0
  6
CONTINUOUS
 62
     7
 10
74.80150658082458
 20
92.40880474213637
 30
0.0
  0
VERTEX
  5
4E9
  8
0
  6
CONTINUOUS
 62
     7
 10
74.77658363799424
 20
92.40818320274582
 30
0.0
  0
SEQEND
  5
507
  8
0
  6
CONTINUOUS
 62
     7
  0
LINE
  5
1B6
  8
0
  6
CONTINUOUS
 62
     7
 10
80.59606918713565
 20
106.9081832027458
 30
0.0
 11
79.62627079323914
 21
101.4081832027458
 31
0.0
  0
LINE
  5
1B7
  8
0
  6
CONTINUOUS
 62
     7
 10
79.62627079323914
 20
101.4081832027458
 30
0.0
 11
81.62627079323912
 21
101.4081832027458
 31
0.0
  0
LINE
  5
1B8
  8
0
  6
CONTINUOUS
 62
     7
 10
81.62627079323912
 20
101.4081832027458
 30
0.0
 11
81.62627079323912
 21
100.9943330082898
 31
0.0
  0
ARC
  5
1B9
  8
0
  6
CONTINUOUS
 62
     7
 10
78.62627079323912
 20
100.9943330082898
 30
0.0
 40
3.0
 50
320.1944289077347
 51
0.0
  0
LINE
  5
1BA
  8
0
  6
CONTINUOUS
 62
     7
 10
79.41092114968136
 20
97.24976363047654
 30
0.0
 11
80.93093463203124
 21
99.07377980929638
 31
0.0
  0
ARC
  5
1BB
  8
0
  6
CONTINUOUS
 62
     7
 10
78.64269987008399
 20
97.889948030141
 30
0.0
 40
1.0
 50
280.9585915419877
 51
320.1944289077351
  0
LINE
  5
1BC
  8
0
  6
CONTINUOUS
 62
     7
 10
78.83279938005103
 20
96.90818320274583
 30
0.0
 11
76.53977926901277
 21
83.90381993499663
 31
0.0
  0
LINE
  5
1BD
  8
0
  6
CONTINUOUS
 62
     7
 10
75.26898751450034
 20
92.82135911391237
 30
0.0
 11
77.75287467385563
 21
106.9081832027458
 31
0.0
  0
LINE
  5
1BE
  8
0
  6
CONTINUOUS
 62
     7
 10
47.14592387853896
 20
83.40818320274583
 30
0.0
 11
47.05852975001297
 21
83.90381993499663
 31
0.0
  0
LINE
  5
1BF
  8
0
  6
CONTINUOUS
 62
     7
 10
49.80073765354715
 20
83.40818320274583
 30
0.0
 11
47.14592387853896
 21
83.40818320274582
 31
0.0
  0
LINE
  5
1C0
  8
0
  6
CONTINUOUS
 62
     7
 10
76.53977926901277
 20
83.90381993499663
 30
0.0
 11
76.45238514048677
 21
83.40818320274583
 31
0.0
  0
LINE
  5
1C1
  8
0
  6
CONTINUOUS
 62
     7
 10
76.45238514048677
 20
83.40818320274582
 30
0.0
 11
73.7975713654786
 21
83.40818320274583
 31
0.0
  0
ENDBLK
  8
0
  0
ENDSEC
  0
SECTION
  2
ENTITIES
  0
LINE
  5
6F
  8
0
  6
CENTER
 62
     1
 10
40.8529346347938
 20
157.1113503336683
 30
0.0
 11
82.74537438423194
 21
157.1113503336683
 31
0.0
  0
LINE
  5
71
  8
0
  6
CENTER
 62
     1
 10
61.79915450951287
 20
136.1651304589492
 30
0.0
 11
61.79915450951287
 21
178.0575702083873
 31
0.0
  0
TEXT
  5
72
  8
0
  6
CONTINUOUS
 62
     7
 10
56.85064256753463
 20
71.79658854799864
 30
0.0
 40
3.0
  1
GGDA-360
  0
INSERT
  5
F6
  8
0
  6
DOT
 62
     7
  2
D_FRAME_VIEW_15705
 10
0.0
 20
0.0
 30
0.0
  0
INSERT
  5
161
  8
0
  6
CONTINUOUS
 62
     7
  2
D_FRAME_VIEW_17710
 10
0.0
 20
0.0
 30
0.0
  0
INSERT
  5
1C2
  8
0
  6
DOT
 62
     7
  2
D_FRAME_VIEW_15485
 10
0.0
 20
0.0
 30
0.0
  0
LINE
  5
1C3
  8
0
  6
CENTER
 62
     1
 10
122.6669614399788
 20
78.90818320274583
 30
0.0
 11
122.6669614399788
 21
111.9081832027458
 31
0.0
  0
LINE
  5
1C4
  8
0
  6
CENTER
 62
     1
 10
61.79915450951287
 20
78.90818320274583
 30
0.0
 11
61.79915450951287
 21
111.9081832027458
 31
0.0
  0
LINE
  5
1C5
  8
0
  6
CENTER
 62
     1
 10
122.6669614399788
 20
78.90818320274583
 30
0.0
 11
122.6669614399788
 21
111.9081832027458
 31
0.0
  0
POINT
  5
1C6
  8
0
 62
     1
 10
61.79915450951287
 20
95.40818320274583
 30
0.0
  0
POINT
  5
1C7
  8
0
 62
     1
 10
122.6669614399788
 20
95.40818320274583
 30
0.0
  0
ENDSEC
  0
EOF
