  0
SECTION
  2
HEADER
  9
$ACADVER
  1
AC1006
  9
$DWGCODEPAGE
  3
ansi_932
  9
$INSBASE
 10
0.0
 20
0.0
 30
0.0
  9
$EXTMIN
 10
46.49999999999991
 20
76.17045454545455
  9
$EXTMAX
 10
165.3708519670531
 20
229.3499875
  9
$LIMMIN
 10
0.0
 20
0.0
  9
$LIMMAX
 10
12.0
 20
9.0
  9
$ORTHOMODE
 70
     0
  9
$REGENMODE
 70
     1
  9
$FILLMODE
 70
     1
  9
$QTEXTMODE
 70
     0
  9
$MIRRTEXT
 70
     1
  9
$DRAGMODE
 70
     2
  9
$LTSCALE
 40
1.0
  9
$OSMODE
 70
    37
  9
$ATTMODE
 70
     1
  9
$TEXTSIZE
 40
0.2
  9
$TRACEWID
 40
0.05
  9
$TEXTSTYLE
  7
STANDARD
  9
$CLAYER
  8
0
  9
$CELTYPE
  6
BYLAYER
  9
$CECOLOR
 62
   256
  9
$DIMSCALE
 40
1.0
  9
$DIMASZ
 40
3.0
  9
$DIMEXO
 40
0.0625
  9
$DIMDLI
 40
0.38
  9
$DIMRND
 40
0.0
  9
$DIMDLE
 40
0.0
  9
$DIMEXE
 40
1.5
  9
$DIMTP
 40
0.0
  9
$DIMTM
 40
0.0
  9
$DIMTXT
 40
3.0
  9
$DIMCEN
 40
0.09
  9
$DIMTSZ
 40
0.0
  9
$DIMTOL
 70
     0
  9
$DIMLIM
 70
     0
  9
$DIMTIH
 70
     1
  9
$DIMTOH
 70
     1
  9
$DIMSE1
 70
     0
  9
$DIMSE2
 70
     0
  9
$DIMTAD
 70
     1
  9
$DIMZIN
 70
     0
  9
$DIMBLK
  1

  9
$DIMASO
 70
     1
  9
$DIMSHO
 70
     1
  9
$DIMPOST
  1

  9
$DIMAPOST
  1

  9
$DIMALT
 70
     0
  9
$DIMALTD
 70
     2
  9
$DIMALTF
 40
25.4
  9
$DIMLFAC
 40
1.0
  9
$DIMTOFL
 70
     0
  9
$DIMTVP
 40
0.0
  9
$DIMTIX
 70
     0
  9
$DIMSOXD
 70
     0
  9
$DIMSAH
 70
     0
  9
$DIMBLK1
  1

  9
$DIMBLK2
  1

  9
$LUNITS
 70
     2
  9
$LUPREC
 70
     4
  9
$SKETCHINC
 40
0.1
  9
$FILLETRAD
 40
0.5
  9
$AUNITS
 70
     0
  9
$AUPREC
 70
     0
  9
$MENU
  1
.
  9
$ELEVATION
 40
0.0
  9
$THICKNESS
 40
0.0
  9
$LIMCHECK
 70
     0
  9
$CHAMFERA
 40
0.0
  9
$CHAMFERB
 40
0.0
  9
$SKPOLY
 70
     0
  9
$TDCREATE
 40
2459444.365039028
  9
$TDUPDATE
 40
2459444.365039213
  9
$TDINDWG
 40
0.0000000116
  9
$TDUSRTIMER
 40
0.0000000116
  9
$USRTIMER
 70
     1
  9
$ANGBASE
 50
0.0
  9
$ANGDIR
 70
     0
  9
$PDMODE
 70
     0
  9
$PDSIZE
 40
0.0
  9
$PLINEWID
 40
0.0
  9
$COORDS
 70
     1
  9
$SPLFRAME
 70
     0
  9
$SPLINETYPE
 70
     6
  9
$SPLINESEGS
 70
     8
  9
$ATTDIA
 70
     0
  9
$ATTREQ
 70
     1
  9
$HANDLING
 70
     1
  9
$HANDSEED
  5
169
  9
$SURFTAB1
 70
     6
  9
$SURFTAB2
 70
     6
  9
$SURFTYPE
 70
     6
  9
$SURFU
 70
     6
  9
$SURFV
 70
     6
  9
$UCSNAME
  2

  9
$UCSORG
 10
0.0
 20
0.0
 30
0.0
  9
$UCSXDIR
 10
1.0
 20
0.0
 30
0.0
  9
$UCSYDIR
 10
0.0
 20
1.0
 30
0.0
  9
$USERI1
 70
     0
  9
$USERI2
 70
     0
  9
$USERI3
 70
     0
  9
$USERI4
 70
     0
  9
$USERI5
 70
     0
  9
$USERR1
 40
0.0
  9
$USERR2
 40
0.0
  9
$USERR3
 40
0.0
  9
$USERR4
 40
0.0
  9
$USERR5
 40
0.0
  9
$WORLDVIEW
 70
     1
  0
ENDSEC
  0
SECTION
  2
TABLES
  0
TABLE
  2
VPORT
 70
     1
  0
VPORT
  2
*ACTIVE
 70
     0
 10
0.0
 20
0.0
 11
1.0
 21
1.0
 12
105.9354259835265
 22
152.7602210227273
 13
0.0
 23
0.0
 14
0.5
 24
0.5
 15
0.5
 25
0.5
 16
0.0
 26
0.0
 36
1.0
 17
0.0
 27
0.0
 37
0.0
 40
153.1795329545455
 41
1.6
 42
50.0
 43
0.0
 44
0.0
 50
0.0
 51
0.0
 71
     0
 72
   100
 73
     1
 74
     3
 75
     0
 76
     0
 77
     0
 78
     0
  0
ENDTAB
  0
TABLE
  2
LTYPE
 70
     1
  0
LTYPE
  2
CONTINUOUS
 70
     0
  3
Solid line
 72
    65
 73
     0
 40
0.0
  0
ENDTAB
  0
TABLE
  2
LAYER
 70
     2
  0
LAYER
  2
0
 70
     0
 62
     7
  6
CONTINUOUS
  0
LAYER
  2
2
 70
     0
 62
     7
  6
CONTINUOUS
  0
ENDTAB
  0
TABLE
  2
STYLE
 70
     2
  0
STYLE
  2
STANDARD
 70
     0
 40
0.0
 41
1.0
 50
0.0
 71
     0
 42
0.2
  3
txt
  4

  0
STYLE
  2
ＭＳ_ゴシック
 70
     0
 40
0.0
 41
1.0
 50
0.0
 71
     0
 42
0.2
  3
ＭＳ ゴシック.shx
  4

  0
ENDTAB
  0
TABLE
  2
VIEW
 70
     0
  0
ENDTAB
  0
TABLE
  2
UCS
 70
     0
  0
ENDTAB
  0
ENDSEC
  0
SECTION
  2
BLOCKS
  0
BLOCK
  8
0
  2
D_FRAME_VIEW_17844
 70
     0
 10
0.0
 20
0.0
 30
0.0
  0
LINE
  5
71
  8
2
  6
CONTINUOUS
 62
     7
 10
158.5905436953016
 20
229.3499875
 30
0.0
 11
163.1807061338658
 21
229.3499875
 31
0.0
  0
LINE
  5
72
  8
2
  6
CONTINUOUS
 62
     7
 10
152.9689103072059
 20
164.3499875
 30
0.0
 11
157.5590727457701
 21
164.3499875
 31
0.0
  0
LINE
  5
73
  8
2
  6
CONTINUOUS
 62
     7
 10
158.3708519503271
 20
229.3499875
 30
0.0
 11
158.3708519503271
 21
204.541123966121
 31
0.0
  0
LINE
  5
74
  8
2
  6
CONTINUOUS
 62
     7
 10
158.3708519503271
 20
229.3499875
 30
0.0
 11
158.5905436953016
 21
229.3499875
 31
0.0
  0
LINE
  5
75
  8
2
  6
CONTINUOUS
 62
     7
 10
158.3442066725935
 20
204.1603964975695
 30
0.0
 11
152.7492185622315
 21
164.3499875
 31
0.0
  0
LINE
  5
76
  8
2
  6
CONTINUOUS
 62
     7
 10
152.7492185622315
 20
164.3499875
 30
0.0
 11
152.9689103072059
 21
164.3499875
 31
0.0
  0
LINE
  5
77
  8
2
  6
CONTINUOUS
 62
     7
 10
158.3442066725935
 20
204.1603964975695
 30
0.0
 11
158.3708519503271
 21
204.541123966121
 31
0.0
  0
LINE
  5
78
  8
2
  6
CONTINUOUS
 62
     7
 10
158.3708519503271
 20
229.3499875
 30
0.0
 11
157.1103806073874
 21
220.3812678705135
 31
0.0
  0
LINE
  5
79
  8
2
  6
CONTINUOUS
 62
     7
 10
157.1103806073874
 20
220.3812678705136
 30
0.0
 11
152.7492185622315
 21
189.3499875
 31
0.0
  0
LINE
  5
7A
  8
2
  6
CONTINUOUS
 62
     7
 10
156.2627394297913
 20
189.3499875
 30
0.0
 11
152.7492185622315
 21
189.3499875
 31
0.0
  0
LINE
  5
7B
  8
2
  6
CONTINUOUS
 62
     7
 10
163.1807061338658
 20
229.3499875
 30
0.0
 11
163.8079645332693
 21
229.3499875
 31
0.0
  0
LINE
  5
7C
  8
2
  6
CONTINUOUS
 62
     7
 10
157.5590727457701
 20
164.3499875
 30
0.0
 11
158.1863311451737
 21
164.3499875
 31
0.0
  0
LINE
  5
7D
  8
2
  6
CONTINUOUS
 62
     7
 10
158.1863311451735
 20
164.3499875
 30
0.0
 11
159.7492185622314
 21
164.3499875
 31
0.0
  0
LINE
  5
7E
  8
2
  6
CONTINUOUS
 62
     7
 10
163.8079645332693
 20
229.3499875
 30
0.0
 11
165.3708519589433
 21
229.3499875
 31
0.0
  0
LINE
  5
7F
  8
2
  6
CONTINUOUS
 62
     7
 10
152.9492185622315
 20
189.3499875
 30
0.0
 11
152.9492185622315
 21
182.7646893131673
 31
0.0
  0
LINE
  5
80
  8
2
  6
CONTINUOUS
 62
     7
 10
152.7492185622315
 20
189.3499875
 30
0.0
 11
152.7492185622315
 21
182.658347426835
 31
0.0
  0
LINE
  5
81
  8
2
  6
CONTINUOUS
 62
     7
 10
122.7488377928732
 20
164.3499875
 30
0.0
 11
112.7492185622315
 21
164.3499875
 31
0.0
  0
LINE
  5
82
  8
2
  6
CONTINUOUS
 62
     7
 10
112.7492185622315
 20
164.3499875
 30
0.0
 11
112.7710738093692
 21
166.8543507677492
 31
0.0
  0
LINE
  5
83
  8
2
  6
CONTINUOUS
 62
     7
 10
122.7488377928732
 20
164.3499875
 30
0.0
 11
152.7492185622314
 21
164.3499875
 31
0.0
  0
ARC
  5
84
  8
2
  6
CONTINUOUS
 62
     7
 10
113.2710547709013
 20
166.8499875
 30
0.0
 40
0.5000000000000016
 50
90.0000000000008
 51
179.5
  0
LINE
  5
85
  8
2
  6
CONTINUOUS
 62
     7
 10
113.2710547709013
 20
167.3499875
 30
0.0
 11
122.7706930400109
 21
167.3499875
 31
0.0
  0
LINE
  5
86
  8
2
  6
CONTINUOUS
 62
     7
 10
122.7706930400109
 20
167.3499875
 30
0.0
 11
123.833718016672
 21
167.3499875
 31
0.0
  0
POLYLINE
  5
87
  8
2
  6
CONTINUOUS
 62
     7
 66
     1
 10
0.0
 20
0.0
 30
0.0
  0
VERTEX
  5
148
  8
2
  6
CONTINUOUS
 62
     7
 10
123.833718016672
 20
167.3499875
 30
0.0
  0
VERTEX
  5
149
  8
2
  6
CONTINUOUS
 62
     7
 10
123.9546779009755
 20
167.3648394430932
 30
0.0
  0
VERTEX
  5
14A
  8
2
  6
CONTINUOUS
 62
     7
 10
124.0684518280061
 20
167.4085129515182
 30
0.0
  0
SEQEND
  5
165
  8
2
  6
CONTINUOUS
 62
     7
  0
LINE
  5
88
  8
2
  6
CONTINUOUS
 62
     7
 10
124.068452686757
 20
167.4085137035705
 30
0.0
 11
153.8527121105206
 21
183.2450853542379
 31
0.0
  0
POLYLINE
  5
89
  8
2
  6
CONTINUOUS
 62
     7
 10
0.0
 20
0.0
 30
0.0
 66
     1
 70
     8
  0
VERTEX
  5
8A
  8
2
  6
CONTINUOUS
 62
     7
 10
124.068452686757
 20
167.4085137035705
 30
0.0
 70
    32
  0
VERTEX
  5
8B
  8
2
  6
CONTINUOUS
 62
     7
 10
124.0684518280061
 20
167.4085129515182
 30
0.0
 70
    32
  0
SEQEND
  5
8C
  8
2
  6
CONTINUOUS
 62
     7
  0
POLYLINE
  5
8D
  8
2
  6
CONTINUOUS
 62
     7
 66
     1
 10
0.0
 20
0.0
 30
0.0
  0
VERTEX
  5
14B
  8
2
  6
CONTINUOUS
 62
     7
 10
153.8527121105206
 20
183.2450853542379
 30
0.0
  0
VERTEX
  5
14C
  8
2
  6
CONTINUOUS
 62
     7
 10
153.941363803219
 20
183.3052198178875
 30
0.0
  0
VERTEX
  5
14D
  8
2
  6
CONTINUOUS
 62
     7
 10
154.0151705475767
 20
183.3828594824149
 30
0.0
  0
VERTEX
  5
14E
  8
2
  6
CONTINUOUS
 62
     7
 10
154.0707442800633
 20
183.4744403359107
 30
0.0
  0
VERTEX
  5
14F
  8
2
  6
CONTINUOUS
 62
     7
 10
154.1055339148949
 20
183.5757584028096
 30
0.0
  0
VERTEX
  5
150
  8
2
  6
CONTINUOUS
 62
     7
 10
154.1179424504148
 20
183.6821627253919
 30
0.0
  0
SEQEND
  5
166
  8
2
  6
CONTINUOUS
 62
     7
  0
LINE
  5
8E
  8
2
  6
CONTINUOUS
 62
     7
 10
154.1179280532263
 20
183.6821803370991
 30
0.0
 11
154.1673902570004
 21
189.3499875
 31
0.0
  0
ARC
  5
8F
  8
2
  6
CONTINUOUS
 62
     7
 10
153.6179470916942
 20
183.6865436048483
 30
0.0
 40
0.4999999999999885
 50
298.0000000000005
 51
350.4264746909683
  0
ARC
  5
90
  8
2
  6
CONTINUOUS
 62
     7
 10
153.6179470916942
 20
183.6865436048483
 30
0.0
 40
0.5000000000000021
 50
350.4264746909684
 51
359.5000000000001
  0
LINE
  5
91
  8
2
  6
CONTINUOUS
 62
     7
 10
118.2492185622315
 20
170.3499875
 30
0.0
 11
124.7492185622315
 21
170.3499875
 31
0.0
  0
LINE
  5
92
  8
2
  6
CONTINUOUS
 62
     7
 10
124.7492185622315
 20
170.3499875
 30
0.0
 11
129.6005603028246
 21
170.3499875
 31
0.0
  0
LINE
  5
93
  8
2
  6
CONTINUOUS
 62
     7
 10
123.3083522884316
 20
170.3499875134254
 30
0.0
 11
123.3233439973408
 21
178.3499875
 31
0.0
  0
LINE
  5
94
  8
2
  6
CONTINUOUS
 62
     7
 10
125.0726523886034
 20
178.3499875
 30
0.0
 11
123.3233439973408
 21
178.3499875
 31
0.0
  0
LINE
  5
95
  8
2
  6
CONTINUOUS
 62
     7
 10
125.1134761487337
 20
170.3499876189724
 30
0.0
 11
125.0726523886034
 21
178.3499875
 31
0.0
  0
LINE
  5
96
  8
2
  6
CONTINUOUS
 62
     7
 10
123.3233439973408
 20
178.3499875
 30
0.0
 11
122.6860614480773
 21
178.3499875
 31
0.0
  0
LINE
  5
97
  8
2
  6
CONTINUOUS
 62
     7
 10
122.6860614480773
 20
178.3499875
 30
0.0
 11
122.6410789711214
 21
178.3499875
 31
0.0
  0
LINE
  5
98
  8
2
  6
CONTINUOUS
 62
     7
 10
127.0898392439367
 20
178.3499875
 30
0.0
 11
126.9274226924245
 21
178.3499875
 31
0.0
  0
LINE
  5
99
  8
2
  6
CONTINUOUS
 62
     7
 10
127.6684611384678
 20
170.3499875134254
 30
0.0
 11
127.6071863611289
 21
178.3499875
 31
0.0
  0
LINE
  5
9A
  8
2
  6
CONTINUOUS
 62
     7
 10
127.6071863611289
 20
178.3499875
 30
0.0
 11
127.0898392439367
 21
178.3499875
 31
0.0
  0
LINE
  5
9B
  8
2
  6
CONTINUOUS
 62
     7
 10
126.9274226924245
 20
178.3499875
 30
0.0
 11
125.0726523886034
 21
178.3499875
 31
0.0
  0
LINE
  5
9C
  8
2
  6
CONTINUOUS
 62
     7
 10
122.370382109282
 20
170.3499876189724
 30
0.0
 11
122.4195897312065
 21
178.3499875
 31
0.0
  0
LINE
  5
9D
  8
2
  6
CONTINUOUS
 62
     7
 10
122.6410789711214
 20
178.3499875
 30
0.0
 11
122.4195897312065
 21
178.3499875
 31
0.0
  0
LINE
  5
9E
  8
2
  6
CONTINUOUS
 62
     7
 10
127.7276101084945
 20
178.3499875
 30
0.0
 11
127.6071863611289
 21
178.3499875
 31
0.0
  0
LINE
  5
9F
  8
2
  6
CONTINUOUS
 62
     7
 10
120.9394716555434
 20
170.3499875134254
 30
0.0
 11
121.0100118185377
 21
178.3499875
 31
0.0
  0
LINE
  5
A0
  8
2
  6
CONTINUOUS
 62
     7
 10
122.4195897312065
 20
178.3499875
 30
0.0
 11
121.0100118185377
 21
178.3499875
 31
0.0
  0
LINE
  5
A1
  8
2
  6
CONTINUOUS
 62
     7
 10
128.2653657391113
 20
178.3499875
 30
0.0
 11
128.1038216068006
 21
178.3499875
 31
0.0
  0
LINE
  5
A2
  8
2
  6
CONTINUOUS
 62
     7
 10
128.1038216068006
 20
178.3499875
 30
0.0
 11
127.7276101084945
 21
178.3499875
 31
0.0
  0
LINE
  5
A3
  8
2
  6
CONTINUOUS
 62
     7
 10
159.7488524162738
 20
164.3473822361385
 30
0.0
 11
165.3708519503271
 21
204.3499875
 31
0.0
  0
LINE
  5
A4
  8
2
  6
CONTINUOUS
 62
     7
 10
165.3708519670531
 20
204.3499875
 30
0.0
 11
165.3708519670531
 21
229.3499875
 31
0.0
  0
LINE
  5
A5
  8
2
  6
CONTINUOUS
 62
     7
 10
131.9992185622315
 20
164.3499875
 30
0.0
 11
132.7492185622315
 21
163.6499875
 31
0.0
  0
LINE
  5
A6
  8
2
  6
CONTINUOUS
 62
     7
 10
132.7492185622315
 20
163.6499875
 30
0.0
 11
133.4992185622314
 21
164.3499875
 31
0.0
  0
LINE
  5
A7
  8
2
  6
CONTINUOUS
 62
     7
 10
115.9992185622315
 20
164.3499875
 30
0.0
 11
116.7492185622315
 21
163.6499875
 31
0.0
  0
LINE
  5
A8
  8
2
  6
CONTINUOUS
 62
     7
 10
116.7492185622315
 20
163.6499875
 30
0.0
 11
117.4992185622315
 21
164.3499875
 31
0.0
  0
LINE
  5
A9
  8
2
  6
CONTINUOUS
 62
     7
 10
118.2492185622315
 20
170.3499875
 30
0.0
 11
118.2492185622315
 21
167.3499875
 31
0.0
  0
LINE
  5
AA
  8
2
  6
CONTINUOUS
 62
     7
 10
122.6410789711214
 20
178.3499875
 30
0.0
 11
122.5712640287953
 21
170.3499875
 31
0.0
  0
LINE
  5
AB
  8
2
  6
CONTINUOUS
 62
     7
 10
126.9274226924245
 20
178.3499875
 30
0.0
 11
126.8576077500985
 21
170.3499875
 31
0.0
  0
LINE
  5
AC
  8
2
  6
CONTINUOUS
 62
     7
 10
127.7974250508206
 20
170.3499875
 30
0.0
 11
127.7276101084945
 21
178.3499875
 31
0.0
  0
LINE
  5
AD
  8
2
  6
CONTINUOUS
 62
     7
 10
128.3351806814374
 20
170.3499875
 30
0.0
 11
128.2653657391113
 21
178.3499875
 31
0.0
  0
ENDBLK
  8
0
  0
BLOCK
  8
0
  2
D_FRAME_VIEW_17908
 70
     0
 10
0.0
 20
0.0
 30
0.0
  0
LINE
  5
B2
  8
2
  6
CONTINUOUS
 62
     7
 10
152.9689103072059
 20
137.5
 30
0.0
 11
157.5590727457701
 21
127.4016426351588
 31
0.0
  0
LINE
  5
B3
  8
2
  6
CONTINUOUS
 62
     7
 10
158.5905436953016
 20
137.5
 30
0.0
 11
152.9689103072059
 21
137.5
 31
0.0
  0
LINE
  5
B4
  8
2
  6
CONTINUOUS
 62
     7
 10
158.5905436953016
 20
137.5
 30
0.0
 11
163.1807061338658
 21
127.4016426351588
 31
0.0
  0
ARC
  5
B5
  8
2
  6
CONTINUOUS
 62
     7
 10
148.2733346756516
 20
123.1808526032867
 30
0.0
 40
10.19999999999998
 50
13.62400492341544
 51
24.44395478041656
  0
LINE
  5
B6
  8
2
  6
CONTINUOUS
 62
     7
 10
163.1807061338658
 20
127.4016426351588
 30
0.0
 11
163.8079645332693
 21
125.5834555657511
 31
0.0
  0
ARC
  5
B7
  8
2
  6
CONTINUOUS
 62
     7
 10
104.204774117787
 20
112.5
 30
0.0
 40
55.54444444444444
 50
346.3759950765845
 51
13.6240049234155
  0
ARC
  5
B8
  8
2
  6
CONTINUOUS
 62
     7
 10
109.8264075058831
 20
112.5
 30
0.0
 40
55.54444444444403
 50
346.3759950765844
 51
13.62400492341561
  0
ARC
  5
B9
  8
2
  6
CONTINUOUS
 62
     7
 10
148.2733346756516
 20
101.8191473967133
 30
0.0
 40
10.20000000000001
 50
335.5560452195834
 51
346.3759950765846
  0
LINE
  5
BA
  8
2
  6
CONTINUOUS
 62
     7
 10
163.8079645332693
 20
99.41654443424892
 30
0.0
 11
163.1807061338658
 21
97.59835736484125
 31
0.0
  0
LINE
  5
BB
  8
2
  6
CONTINUOUS
 62
     7
 10
158.5905436953016
 20
87.5
 30
0.0
 11
152.9689103072059
 21
87.5
 31
0.0
  0
LINE
  5
BC
  8
2
  6
CONTINUOUS
 62
     7
 10
157.5590727457701
 20
97.59835736484125
 30
0.0
 11
152.9689103072059
 21
87.5
 31
0.0
  0
LINE
  5
BD
  8
2
  6
CONTINUOUS
 62
     7
 10
163.1807061338658
 20
97.59835736484125
 30
0.0
 11
158.5905436953016
 21
87.5
 31
0.0
  0
LINE
  5
BE
  8
2
  6
CONTINUOUS
 62
     7
 10
152.7492185622315
 20
137.5
 30
0.0
 11
152.9689103072059
 21
137.5
 31
0.0
  0
LINE
  5
BF
  8
2
  6
CONTINUOUS
 62
     7
 10
152.9689103072059
 20
87.5
 30
0.0
 11
152.7492185622314
 21
87.5
 31
0.0
  0
LINE
  5
C0
  8
2
  6
CONTINUOUS
 62
     7
 10
152.7492185622314
 20
87.5
 30
0.0
 11
157.7492185622315
 21
98.50000000000003
 31
0.0
  0
ARC
  5
C1
  8
2
  6
CONTINUOUS
 62
     7
 10
104.204774117787
 20
112.5
 30
0.0
 40
55.34444444444444
 50
345.3471866796609
 51
14.65281332033902
  0
LINE
  5
C2
  8
2
  6
CONTINUOUS
 62
     7
 10
157.7492185622315
 20
126.4999999999999
 30
0.0
 11
152.7492185622315
 21
137.5
 31
0.0
  0
LINE
  5
C3
  8
2
  6
CONTINUOUS
 62
     7
 10
158.6849829257419
 20
108.2
 30
0.0
 11
158.6849829257419
 21
116.8
 31
0.0
  0
LINE
  5
C4
  8
2
  6
CONTINUOUS
 62
     7
 10
152.9492185622315
 20
126.0
 30
0.0
 11
152.9492185622315
 21
126.3782124755182
 31
0.0
  0
LINE
  5
C5
  8
2
  6
CONTINUOUS
 62
     7
 10
157.7809138569337
 20
126.3782124755182
 30
0.0
 11
152.9492185622315
 21
126.3782124755182
 31
0.0
  0
LINE
  5
C6
  8
2
  6
CONTINUOUS
 62
     7
 10
157.7809138569337
 20
98.62178752448185
 30
0.0
 11
152.9492185622315
 21
98.62178752448185
 31
0.0
  0
LINE
  5
C7
  8
2
  6
CONTINUOUS
 62
     7
 10
152.9492185622315
 20
98.99999999999999
 30
0.0
 11
152.9492185622315
 21
98.62178752448185
 31
0.0
  0
LINE
  5
C8
  8
2
  6
CONTINUOUS
 62
     7
 10
156.2810004593278
 20
128.3246363257311
 30
0.0
 11
156.786530422757
 21
128.6179139068437
 31
0.0
  0
LINE
  5
C9
  8
2
  6
CONTINUOUS
 62
     7
 10
156.4364817278652
 20
128.1798489397151
 30
0.0
 11
156.8703449675986
 21
128.4335219081924
 31
0.0
  0
LINE
  5
CA
  8
2
  6
CONTINUOUS
 62
     7
 10
152.9492185622315
 20
126.3782124755182
 30
0.0
 11
156.4364817278652
 21
128.1798489397151
 31
0.0
  0
LINE
  5
CB
  8
2
  6
CONTINUOUS
 62
     7
 10
152.7492185622315
 20
126.5
 30
0.0
 11
152.7492185622315
 21
126.0
 31
0.0
  0
LINE
  5
CC
  8
2
  6
CONTINUOUS
 62
     7
 10
156.2810004593278
 20
128.3246363257311
 30
0.0
 11
152.7492185622315
 21
126.5
 31
0.0
  0
LINE
  5
CD
  8
2
  6
CONTINUOUS
 62
     7
 10
157.2549458250691
 20
126.3792279258678
 30
0.0
 11
157.7734363222616
 21
126.4070471519692
 31
0.0
  0
LINE
  5
CE
  8
2
  6
CONTINUOUS
 62
     7
 10
157.7806508072637
 20
126.3792279258678
 30
0.0
 11
157.2549458250691
 21
126.3792279258678
 31
0.0
  0
LINE
  5
CF
  8
2
  6
CONTINUOUS
 62
     7
 10
156.7865304227571
 20
96.38208609315627
 30
0.0
 11
156.2810004593279
 21
96.6753636742689
 31
0.0
  0
LINE
  5
D0
  8
2
  6
CONTINUOUS
 62
     7
 10
152.9492185622315
 20
98.62178752448185
 30
0.0
 11
156.4364817278654
 21
96.82015106028487
 31
0.0
  0
LINE
  5
D1
  8
2
  6
CONTINUOUS
 62
     7
 10
157.7806508072637
 20
98.62077207413222
 30
0.0
 11
157.254945825069
 21
98.62077207413222
 31
0.0
  0
LINE
  5
D2
  8
2
  6
CONTINUOUS
 62
     7
 10
156.8703449675986
 20
96.56647809180765
 30
0.0
 11
156.4364817278654
 21
96.82015106028486
 31
0.0
  0
LINE
  5
D3
  8
2
  6
CONTINUOUS
 62
     7
 10
156.2810004593279
 20
96.6753636742689
 30
0.0
 11
152.7492185622315
 21
98.50000000000001
 31
0.0
  0
LINE
  5
D4
  8
2
  6
CONTINUOUS
 62
     7
 10
152.7492185622315
 20
98.50000000000001
 30
0.0
 11
152.7492185622315
 21
99.0
 31
0.0
  0
LINE
  5
D5
  8
2
  6
CONTINUOUS
 62
     7
 10
157.7734363222616
 20
98.5929528480308
 30
0.0
 11
157.254945825069
 21
98.62077207413222
 31
0.0
  0
CIRCLE
  5
D6
  8
2
  6
CONTINUOUS
 62
     7
 10
116.7492185622315
 20
120.5
 30
0.0
 40
0.7499999999999868
  0
CIRCLE
  5
D7
  8
2
  6
CONTINUOUS
 62
     7
 10
132.7492185622315
 20
120.5
 30
0.0
 40
0.7499999999999868
  0
CIRCLE
  5
D8
  8
2
  6
CONTINUOUS
 62
     7
 10
132.7492185622315
 20
104.5
 30
0.0
 40
0.7499999999999868
  0
CIRCLE
  5
D9
  8
2
  6
CONTINUOUS
 62
     7
 10
116.7492185622315
 20
104.5
 30
0.0
 40
0.7499999999999868
  0
POLYLINE
  5
DA
  8
2
  6
CONTINUOUS
 62
     7
 66
     1
 10
0.0
 20
0.0
 30
0.0
  0
VERTEX
  5
151
  8
2
  6
CONTINUOUS
 62
     7
 10
122.7488377928732
 20
126.0
 30
0.0
  0
VERTEX
  5
152
  8
2
  6
CONTINUOUS
 62
     7
 10
120.7979682878521
 20
125.8078640583907
 30
0.0
  0
VERTEX
  5
153
  8
2
  6
CONTINUOUS
 62
     7
 10
118.9220916214345
 20
125.238839196443
 30
0.0
  0
VERTEX
  5
154
  8
2
  6
CONTINUOUS
 62
     7
 10
117.1932897147861
 20
124.3147906070956
 30
0.0
  0
VERTEX
  5
155
  8
2
  6
CONTINUOUS
 62
     7
 10
115.67799303478
 20
123.0712255274515
 30
0.0
  0
VERTEX
  5
156
  8
2
  6
CONTINUOUS
 62
     7
 10
114.434427955136
 20
121.5559288474455
 30
0.0
  0
VERTEX
  5
157
  8
2
  6
CONTINUOUS
 62
     7
 10
113.5103793657886
 20
119.8271269407971
 30
0.0
  0
VERTEX
  5
158
  8
2
  6
CONTINUOUS
 62
     7
 10
112.9413545038409
 20
117.9512502743794
 30
0.0
  0
VERTEX
  5
159
  8
2
  6
CONTINUOUS
 62
     7
 10
112.7492185622315
 20
116.0003807693583
 30
0.0
  0
SEQEND
  5
167
  8
2
  6
CONTINUOUS
 62
     7
  0
LINE
  5
DB
  8
2
  6
CONTINUOUS
 62
     7
 10
122.7488377928732
 20
126.0
 30
0.0
 11
157.7492185622315
 21
126.0
 31
0.0
  0
LINE
  5
DC
  8
2
  6
CONTINUOUS
 62
     7
 10
157.7492185622315
 20
126.0
 30
0.0
 11
157.7492185622315
 21
98.99999999999999
 31
0.0
  0
LINE
  5
DD
  8
2
  6
CONTINUOUS
 62
     7
 10
157.7492185622315
 20
98.99999999999999
 30
0.0
 11
122.7488377928732
 21
99.0
 31
0.0
  0
POLYLINE
  5
DE
  8
2
  6
CONTINUOUS
 62
     7
 66
     1
 10
0.0
 20
0.0
 30
0.0
  0
VERTEX
  5
15A
  8
2
  6
CONTINUOUS
 62
     7
 10
112.7492185622315
 20
108.9996192306417
 30
0.0
  0
VERTEX
  5
15B
  8
2
  6
CONTINUOUS
 62
     7
 10
112.9413545038408
 20
107.0487497256206
 30
0.0
  0
VERTEX
  5
15C
  8
2
  6
CONTINUOUS
 62
     7
 10
113.5103793657886
 20
105.172873059203
 30
0.0
  0
VERTEX
  5
15D
  8
2
  6
CONTINUOUS
 62
     7
 10
114.434427955136
 20
103.4440711525546
 30
0.0
  0
VERTEX
  5
15E
  8
2
  6
CONTINUOUS
 62
     7
 10
115.67799303478
 20
101.9287744725485
 30
0.0
  0
VERTEX
  5
15F
  8
2
  6
CONTINUOUS
 62
     7
 10
117.1932897147861
 20
100.6852093929045
 30
0.0
  0
VERTEX
  5
160
  8
2
  6
CONTINUOUS
 62
     7
 10
118.9220916214345
 20
99.76116080355705
 30
0.0
  0
VERTEX
  5
161
  8
2
  6
CONTINUOUS
 62
     7
 10
120.7979682878521
 20
99.19213594160934
 30
0.0
  0
VERTEX
  5
162
  8
2
  6
CONTINUOUS
 62
     7
 10
122.7488377928732
 20
99.0
 30
0.0
  0
SEQEND
  5
168
  8
2
  6
CONTINUOUS
 62
     7
  0
LINE
  5
DF
  8
2
  6
CONTINUOUS
 62
     7
 10
112.7492185622315
 20
108.9996192306417
 30
0.0
 11
112.7492185622315
 21
116.0003807693583
 31
0.0
  0
CIRCLE
  5
E0
  8
2
  6
CONTINUOUS
 62
     7
 10
124.7492185622315
 20
112.5
 30
0.0
 40
2.000000000000002
  0
LINE
  5
E1
  8
2
  6
CONTINUOUS
 62
     7
 10
157.7492185622315
 20
99.1701739219198
 30
0.0
 11
157.9200444545465
 21
99.17043648452655
 31
0.0
  0
LINE
  5
E2
  8
2
  6
CONTINUOUS
 62
     7
 10
157.7492185622315
 20
125.8298260780802
 30
0.0
 11
157.9200444545465
 21
125.8295635154735
 31
0.0
  0
LINE
  5
E3
  8
2
  6
CONTINUOUS
 62
     7
 10
159.0722966686021
 20
119.75
 30
0.0
 11
158.2492185622315
 21
119.75
 31
0.0
  0
LINE
  5
E4
  8
2
  6
CONTINUOUS
 62
     7
 10
158.2492185622315
 20
108.2
 30
0.0
 11
159.0359531247378
 21
108.2
 31
0.0
  0
LINE
  5
E5
  8
2
  6
CONTINUOUS
 62
     7
 10
159.0359531247378
 20
116.8
 30
0.0
 11
158.2492185622315
 21
116.8
 31
0.0
  0
LINE
  5
E6
  8
2
  6
CONTINUOUS
 62
     7
 10
159.2199082389811
 20
116.8
 30
0.0
 11
159.0359531247378
 21
116.8
 31
0.0
  0
LINE
  5
E7
  8
2
  6
CONTINUOUS
 62
     7
 10
159.0359531247378
 20
108.2
 30
0.0
 11
159.2199082389811
 21
108.2
 31
0.0
  0
LINE
  5
E8
  8
2
  6
CONTINUOUS
 62
     7
 10
159.2199082389811
 20
108.2
 30
0.0
 11
159.3819209347818
 21
108.2
 31
0.0
  0
LINE
  5
E9
  8
2
  6
CONTINUOUS
 62
     7
 10
159.3819209347818
 20
116.8
 30
0.0
 11
159.2199082389811
 21
116.8
 31
0.0
  0
LINE
  5
EA
  8
2
  6
CONTINUOUS
 62
     7
 10
158.2492185622315
 20
100.5750029117171
 30
0.0
 11
158.2492185622315
 21
124.4249970882829
 31
0.0
  0
ENDBLK
  8
0
  0
BLOCK
  8
0
  2
D_FRAME_VIEW_17681
 70
     0
 10
0.0
 20
0.0
 30
0.0
  0
LINE
  5
F0
  8
2
  6
CONTINUOUS
 62
     7
 10
57.50000000000003
 20
189.3499875
 30
0.0
 11
57.50000000000003
 21
164.3499875000001
 31
0.0
  0
LINE
  5
F1
  8
2
  6
CONTINUOUS
 62
     7
 10
46.50000000000001
 20
164.3499875
 30
0.0
 11
57.50000000000003
 21
164.3499875
 31
0.0
  0
LINE
  5
F2
  8
2
  6
CONTINUOUS
 62
     7
 10
46.50000000000001
 20
204.16039649757
 30
0.0
 11
46.50000000000001
 21
164.3499875
 31
0.0
  0
LINE
  5
F3
  8
2
  6
CONTINUOUS
 62
     7
 10
57.50000000000002
 20
189.3499875
 30
0.0
 11
60.50000000000001
 21
189.3499875
 31
0.0
  0
LINE
  5
F4
  8
2
  6
CONTINUOUS
 62
     7
 10
57.50000000000002
 20
220.381267870514
 30
0.0
 11
57.50000000000002
 21
189.3499875
 31
0.0
  0
LINE
  5
F5
  8
2
  6
CONTINUOUS
 62
     7
 10
57.50000000000001
 20
220.3812678705139
 30
0.0
 11
57.36024688091591
 21
229.3499874999999
 31
0.0
  0
LINE
  5
F6
  8
2
  6
CONTINUOUS
 62
     7
 10
57.36024688091591
 20
229.3499875
 30
0.0
 11
85.6397531190841
 21
229.3499875
 31
0.0
  0
LINE
  5
F7
  8
2
  6
CONTINUOUS
 62
     7
 10
85.6397531190841
 20
229.3499875
 30
0.0
 11
85.5
 21
220.3812678705135
 31
0.0
  0
LINE
  5
F8
  8
2
  6
CONTINUOUS
 62
     7
 10
85.49999999999997
 20
220.3812678705135
 30
0.0
 11
85.49999999999997
 21
189.3499875
 31
0.0
  0
LINE
  5
F9
  8
2
  6
CONTINUOUS
 62
     7
 10
85.49999999999997
 20
189.3499875
 30
0.0
 11
82.5
 21
189.3499875
 31
0.0
  0
LINE
  5
FA
  8
2
  6
CONTINUOUS
 62
     7
 10
60.50000000000001
 20
189.3499875
 30
0.0
 11
82.5
 21
189.3499875
 31
0.0
  0
LINE
  5
FB
  8
2
  6
CONTINUOUS
 62
     7
 10
60.50000000000001
 20
189.3499875
 30
0.0
 11
60.50000000000001
 21
179.3499875
 31
0.0
  0
LINE
  5
FC
  8
2
  6
CONTINUOUS
 62
     7
 10
60.50000000000001
 20
179.3499875
 30
0.0
 11
82.5
 21
179.3499875
 31
0.0
  0
LINE
  5
FD
  8
2
  6
CONTINUOUS
 62
     7
 10
82.5
 20
189.3499875
 30
0.0
 11
82.5
 21
179.3499875
 31
0.0
  0
LINE
  5
FE
  8
2
  6
CONTINUOUS
 62
     7
 10
87.32463632573109
 20
189.3499875
 30
0.0
 11
85.49999999999999
 21
189.3499875
 31
0.0
  0
LINE
  5
FF
  8
2
  6
CONTINUOUS
 62
     7
 10
85.49999999999996
 20
189.3499875
 30
0.0
 11
85.49999999999996
 21
164.3499875
 31
0.0
  0
LINE
  5
100
  8
2
  6
CONTINUOUS
 62
     7
 10
96.5
 20
204.1603964975695
 30
0.0
 11
96.5
 21
164.3499875
 31
0.0
  0
LINE
  5
101
  8
2
  6
CONTINUOUS
 62
     7
 10
85.49999999999996
 20
164.3499875
 30
0.0
 11
96.5
 21
164.3499875
 31
0.0
  0
LINE
  5
102
  8
2
  6
CONTINUOUS
 62
     7
 10
55.6753636742689
 20
189.3499875
 30
0.0
 11
57.50000000000002
 21
189.3499875
 31
0.0
  0
LINE
  5
103
  8
2
  6
CONTINUOUS
 62
     7
 10
92.7977402153472
 20
229.3499875
 30
0.0
 11
85.6397531190841
 21
229.3499875
 31
0.0
  0
LINE
  5
104
  8
2
  6
CONTINUOUS
 62
     7
 10
87.32463632573108
 20
189.3499875
 30
0.0
 11
88.45333656678169
 21
189.3499875
 31
0.0
  0
LINE
  5
105
  8
2
  6
CONTINUOUS
 62
     7
 10
57.36024688091591
 20
229.3499875
 30
0.0
 11
50.20225978465279
 21
229.3499875
 31
0.0
  0
LINE
  5
106
  8
2
  6
CONTINUOUS
 62
     7
 10
54.54666343321837
 20
189.3499875
 30
0.0
 11
55.67536367426891
 21
189.3499875
 31
0.0
  0
LINE
  5
107
  8
2
  6
CONTINUOUS
 62
     7
 10
58.00000000000001
 20
164.3499875
 30
0.0
 11
57.50000000000004
 21
164.3499875
 31
0.0
  0
LINE
  5
108
  8
2
  6
CONTINUOUS
 62
     7
 10
85.49999999999996
 20
164.3499875
 30
0.0
 11
85.0
 21
164.3499875
 31
0.0
  0
LINE
  5
109
  8
2
  6
CONTINUOUS
 62
     7
 10
54.54666343321837
 20
189.3499875
 30
0.0
 11
51.21114238355806
 21
189.3499875
 31
0.0
  0
LINE
  5
10A
  8
2
  6
CONTINUOUS
 62
     7
 10
91.78885761644197
 20
189.3499875
 30
0.0
 11
88.4533365667817
 21
189.3499875
 31
0.0
  0
LINE
  5
10B
  8
2
  6
CONTINUOUS
 62
     7
 10
96.5
 20
204.1603964975695
 30
0.0
 11
96.5
 21
204.541123966121
 31
0.0
  0
LINE
  5
10C
  8
2
  6
CONTINUOUS
 62
     7
 10
46.50000000000001
 20
204.5411239661215
 30
0.0
 11
46.50000000000001
 21
204.16039649757
 31
0.0
  0
LINE
  5
10D
  8
2
  6
CONTINUOUS
 62
     7
 10
46.49999999999991
 20
229.3499875
 30
0.0
 11
50.20225978465278
 21
229.3499875
 31
0.0
  0
LINE
  5
10E
  8
2
  6
CONTINUOUS
 62
     7
 10
46.49999999999991
 20
229.3499875
 30
0.0
 11
46.49999999999993
 21
204.5411239661215
 31
0.0
  0
LINE
  5
10F
  8
2
  6
CONTINUOUS
 62
     7
 10
92.7977402153472
 20
229.3499875
 30
0.0
 11
96.49999999999993
 21
229.3499875
 31
0.0
  0
LINE
  5
110
  8
2
  6
CONTINUOUS
 62
     7
 10
96.49999999999994
 20
229.3499875
 30
0.0
 11
96.49999999999994
 21
204.541123966121
 31
0.0
  0
LINE
  5
111
  8
2
  6
CONTINUOUS
 62
     7
 10
67.99961923064174
 20
164.3499875
 30
0.0
 11
58.00000000000001
 21
164.3499875
 31
0.0
  0
LINE
  5
112
  8
2
  6
CONTINUOUS
 62
     7
 10
58.00000000000001
 20
164.3499875
 30
0.0
 11
58.02185524713769
 21
166.8543507677492
 31
0.0
  0
LINE
  5
113
  8
2
  6
CONTINUOUS
 62
     7
 10
67.99961923064174
 20
164.3499875
 30
0.0
 11
75.0003807693583
 21
164.3499875
 31
0.0
  0
LINE
  5
114
  8
2
  6
CONTINUOUS
 62
     7
 10
84.97814475286233
 20
166.8543507677492
 30
0.0
 11
85.00000000000001
 21
164.3499875
 31
0.0
  0
LINE
  5
115
  8
2
  6
CONTINUOUS
 62
     7
 10
85.00000000000001
 20
164.3499875
 30
0.0
 11
75.00038076935832
 21
164.3499875
 31
0.0
  0
LINE
  5
116
  8
2
  6
CONTINUOUS
 62
     7
 10
68.02147447777939
 20
167.3499875
 30
0.0
 11
74.97852552222061
 21
167.3499875
 31
0.0
  0
LINE
  5
117
  8
2
  6
CONTINUOUS
 62
     7
 10
58.52183620866977
 20
167.3499875
 30
0.0
 11
68.02147447777939
 21
167.3499875
 31
0.0
  0
ARC
  5
118
  8
2
  6
CONTINUOUS
 62
     7
 10
58.52183620866978
 20
166.8499875
 30
0.0
 40
0.5000000000000004
 50
90.00000000000043
 51
179.5
  0
LINE
  5
119
  8
2
  6
CONTINUOUS
 62
     7
 10
74.97852552222062
 20
167.3499875
 30
0.0
 11
84.47816379133025
 21
167.3499875
 31
0.0
  0
ARC
  5
11A
  8
2
  6
CONTINUOUS
 62
     7
 10
84.47816379133025
 20
166.8499875
 30
0.0
 40
0.4999999999999998
 50
0.5000000000000828
 51
90.0
  0
LINE
  5
11B
  8
2
  6
CONTINUOUS
 62
     7
 10
65.00000000000001
 20
170.3499875
 30
0.0
 11
78.0
 21
170.3499875
 31
0.0
  0
LINE
  5
11C
  8
2
  6
CONTINUOUS
 62
     7
 10
71.21568867782835
 20
178.3499875
 30
0.0
 11
70.50548749398358
 21
178.3499875
 31
0.0
  0
LINE
  5
11D
  8
2
  6
CONTINUOUS
 62
     7
 10
71.22284535056579
 20
170.3499875134254
 30
0.0
 11
71.21568867782835
 21
178.3499875
 31
0.0
  0
LINE
  5
11E
  8
2
  6
CONTINUOUS
 62
     7
 10
72.59702074258298
 20
178.3499875
 30
0.0
 11
71.21568867782835
 21
178.3499875
 31
0.0
  0
LINE
  5
11F
  8
2
  6
CONTINUOUS
 62
     7
 10
72.65593390977938
 20
170.3499876189724
 30
0.0
 11
72.59702074258298
 21
178.3499875
 31
0.0
  0
LINE
  5
120
  8
2
  6
CONTINUOUS
 62
     7
 10
70.50548749398357
 20
178.3499875
 30
0.0
 11
70.43200782747734
 21
178.3499875
 31
0.0
  0
LINE
  5
121
  8
2
  6
CONTINUOUS
 62
     7
 10
69.59479531271803
 20
170.3499876189724
 30
0.0
 11
69.62338937234463
 21
178.3499875
 31
0.0
  0
LINE
  5
122
  8
2
  6
CONTINUOUS
 62
     7
 10
70.43200782747734
 20
178.3499875
 30
0.0
 11
69.62338937234462
 21
178.3499875
 31
0.0
  0
LINE
  5
123
  8
2
  6
CONTINUOUS
 62
     7
 10
74.01908443180496
 20
178.3499875
 30
0.0
 11
72.59702074258298
 21
178.3499875
 31
0.0
  0
LINE
  5
124
  8
2
  6
CONTINUOUS
 62
     7
 10
74.6314346108956
 20
178.3499875
 30
0.0
 11
74.44792968793838
 21
178.3499875
 31
0.0
  0
LINE
  5
125
  8
2
  6
CONTINUOUS
 62
     7
 10
75.03763912429581
 20
170.3499875134254
 30
0.0
 11
74.96833990912049
 21
178.3499875
 31
0.0
  0
LINE
  5
126
  8
2
  6
CONTINUOUS
 62
     7
 10
74.96833990912049
 20
178.3499875
 30
0.0
 11
74.6314346108956
 21
178.3499875
 31
0.0
  0
LINE
  5
127
  8
2
  6
CONTINUOUS
 62
     7
 10
67.79106988221379
 20
170.3499875134254
 30
0.0
 11
67.85594603039101
 21
178.3499875
 31
0.0
  0
LINE
  5
128
  8
2
  6
CONTINUOUS
 62
     7
 10
69.62338937234462
 20
178.3499875
 30
0.0
 11
67.85594603039101
 21
178.3499875
 31
0.0
  0
LINE
  5
129
  8
2
  6
CONTINUOUS
 62
     7
 10
74.96953883495145
 20
178.3499875
 30
0.0
 11
74.96833990912049
 21
178.3499875
 31
0.0
  0
LINE
  5
12A
  8
2
  6
CONTINUOUS
 62
     7
 10
74.19886824760538
 20
178.3499875
 30
0.0
 11
74.45171631498845
 21
178.3499875
 31
0.0
  0
LINE
  5
12B
  8
2
  6
CONTINUOUS
 62
     7
 10
67.85594603039101
 20
178.3499875
 30
0.0
 11
67.75392285814942
 21
178.3499875
 31
0.0
  0
ARC
  5
12C
  8
2
  6
CONTINUOUS
 62
     7
 10
83.00434439470253
 20
167.8499875
 30
0.0
 40
0.5000000000000004
 50
270.0
 51
359.4999999999993
  0
ARC
  5
12D
  8
2
  6
CONTINUOUS
 62
     7
 10
59.9956556052975
 20
167.8499875
 30
0.0
 40
0.4999999999999998
 50
180.5
 51
270.0
  0
LINE
  5
12E
  8
2
  6
CONTINUOUS
 62
     7
 10
83.5043253562346
 20
167.8456242322508
 30
0.0
 11
83.63267553272529
 21
182.553097700176
 31
0.0
  0
LINE
  5
12F
  8
2
  6
CONTINUOUS
 62
     7
 10
59.36732446727474
 20
182.553097700176
 30
0.0
 11
59.4956746437654
 21
167.8456242322508
 31
0.0
  0
LINE
  5
130
  8
2
  6
CONTINUOUS
 62
     7
 10
58.02185524713769
 20
166.8543507677492
 30
0.0
 11
58.16351774794286
 21
183.0872655089565
 31
0.0
  0
LINE
  5
131
  8
2
  6
CONTINUOUS
 62
     7
 10
84.83648225205715
 20
183.0872655089565
 30
0.0
 11
84.97814475286233
 21
166.8543507677492
 31
0.0
  0
LINE
  5
132
  8
2
  6
CONTINUOUS
 62
     7
 10
74.01908443180496
 20
178.3499875
 30
0.0
 11
74.19886824760536
 21
178.3499875
 31
0.0
  0
LINE
  5
133
  8
2
  6
CONTINUOUS
 62
     7
 10
67.75392285814942
 20
178.3499875
 30
0.0
 11
67.75381824859878
 21
178.3499875
 31
0.0
  0
LINE
  5
134
  8
2
  6
CONTINUOUS
 62
     7
 10
58.16351774794285
 20
183.0872655089565
 30
0.0
 11
58.21817169476897
 21
189.3499875
 31
0.0
  0
LINE
  5
135
  8
2
  6
CONTINUOUS
 62
     7
 10
84.78182830523103
 20
189.3499875
 30
0.0
 11
84.83648225205715
 21
183.0872655089565
 31
0.0
  0
LINE
  5
136
  8
2
  6
CONTINUOUS
 62
     7
 10
62.75000000000001
 20
164.3499875
 30
0.0
 11
63.5
 21
163.6499875
 31
0.0
  0
LINE
  5
137
  8
2
  6
CONTINUOUS
 62
     7
 10
63.5
 20
163.6499875
 30
0.0
 11
64.25
 21
164.3499875
 31
0.0
  0
LINE
  5
138
  8
2
  6
CONTINUOUS
 62
     7
 10
78.75000000000001
 20
164.3499875
 30
0.0
 11
79.50000000000001
 21
163.6499875
 31
0.0
  0
LINE
  5
139
  8
2
  6
CONTINUOUS
 62
     7
 10
79.5
 20
163.6499875
 30
0.0
 11
80.24999999999999
 21
164.3499875
 31
0.0
  0
LINE
  5
13A
  8
2
  6
CONTINUOUS
 62
     7
 10
78.00000000000001
 20
167.3499875
 30
0.0
 11
78.00000000000001
 21
170.3499875
 31
0.0
  0
LINE
  5
13B
  8
2
  6
CONTINUOUS
 62
     7
 10
65.0
 20
170.3499875
 30
0.0
 11
65.0
 21
167.3499875
 31
0.0
  0
LINE
  5
13C
  8
2
  6
CONTINUOUS
 62
     7
 10
70.43200782747734
 20
178.3499875
 30
0.0
 11
70.36219288515127
 21
170.3499875
 31
0.0
  0
LINE
  5
13D
  8
2
  6
CONTINUOUS
 62
     7
 10
74.44792968793838
 20
178.3499875
 30
0.0
 11
74.37811474561232
 21
170.3499875
 31
0.0
  0
LINE
  5
13E
  8
2
  6
CONTINUOUS
 62
     7
 10
75.03935377727754
 20
170.3499875
 30
0.0
 11
74.96953883495146
 21
178.3499875
 31
0.0
  0
LINE
  5
13F
  8
2
  6
CONTINUOUS
 62
     7
 10
67.75381824859878
 20
178.3499875
 30
0.0
 11
67.6840033062727
 21
170.3499875
 31
0.0
  0
ENDBLK
  8
0
  0
ENDSEC
  0
SECTION
  2
ENTITIES
  0
INSERT
  5
AE
  8
2
  6
CONTINUOUS
 62
     7
  2
D_FRAME_VIEW_17844
 10
0.0
 20
0.0
 30
0.0
  0
INSERT
  5
EB
  8
2
  6
CONTINUOUS
 62
     7
  2
D_FRAME_VIEW_17908
 10
0.0
 20
0.0
 30
0.0
  0
TEXT
  5
EC
  8
2
  6
CONTINUOUS
 62
     7
 10
134.5901244216581
 20
75.8284200325122
 30
0.0
 40
3.0
  1
GGDL-25T
  0
INSERT
  5
140
  8
2
  6
CONTINUOUS
 62
     7
  2
D_FRAME_VIEW_17681
 10
0.0
 20
0.0
 30
0.0
  0
ENDSEC
  0
EOF
