  0
SECTION
  2
HEADER
  9
$ACADVER
  1
AC1006
  9
$DWGCODEPAGE
  3
ansi_932
  9
$INSBASE
 10
0.0
 20
0.0
 30
0.0
  9
$EXTMIN
 10
-160.0000000000001
 20
75.35375493723203
  9
$EXTMAX
 10
-36.12914803294687
 20
240.3499875
  9
$LIMMIN
 10
0.0
 20
0.0
  9
$LIMMAX
 10
12.0
 20
9.0
  9
$ORTHOMODE
 70
     0
  9
$REGENMODE
 70
     1
  9
$FILLMODE
 70
     1
  9
$QTEXTMODE
 70
     0
  9
$MIRRTEXT
 70
     1
  9
$DRAGMODE
 70
     2
  9
$LTSCALE
 40
1.0
  9
$OSMODE
 70
    37
  9
$ATTMODE
 70
     1
  9
$TEXTSIZE
 40
0.2
  9
$TRACEWID
 40
0.05
  9
$TEXTSTYLE
  7
STANDARD
  9
$CLAYER
  8
0
  9
$CELTYPE
  6
BYLAYER
  9
$CECOLOR
 62
   256
  9
$DIMSCALE
 40
1.0
  9
$DIMASZ
 40
3.0
  9
$DIMEXO
 40
0.0625
  9
$DIMDLI
 40
0.38
  9
$DIMRND
 40
0.0
  9
$DIMDLE
 40
0.0
  9
$DIMEXE
 40
1.5
  9
$DIMTP
 40
0.0
  9
$DIMTM
 40
0.0
  9
$DIMTXT
 40
3.0
  9
$DIMCEN
 40
0.09
  9
$DIMTSZ
 40
0.0
  9
$DIMTOL
 70
     0
  9
$DIMLIM
 70
     0
  9
$DIMTIH
 70
     1
  9
$DIMTOH
 70
     1
  9
$DIMSE1
 70
     0
  9
$DIMSE2
 70
     0
  9
$DIMTAD
 70
     1
  9
$DIMZIN
 70
     0
  9
$DIMBLK
  1

  9
$DIMASO
 70
     1
  9
$DIMSHO
 70
     1
  9
$DIMPOST
  1

  9
$DIMAPOST
  1

  9
$DIMALT
 70
     0
  9
$DIMALTD
 70
     2
  9
$DIMALTF
 40
25.4
  9
$DIMLFAC
 40
1.0
  9
$DIMTOFL
 70
     0
  9
$DIMTVP
 40
0.0
  9
$DIMTIX
 70
     0
  9
$DIMSOXD
 70
     0
  9
$DIMSAH
 70
     0
  9
$DIMBLK1
  1

  9
$DIMBLK2
  1

  9
$LUNITS
 70
     2
  9
$LUPREC
 70
     4
  9
$SKETCHINC
 40
0.1
  9
$FILLETRAD
 40
0.5
  9
$AUNITS
 70
     0
  9
$AUPREC
 70
     0
  9
$MENU
  1
.
  9
$ELEVATION
 40
0.0
  9
$THICKNESS
 40
0.0
  9
$LIMCHECK
 70
     0
  9
$CHAMFERA
 40
0.0
  9
$CHAMFERB
 40
0.0
  9
$SKPOLY
 70
     0
  9
$TDCREATE
 40
2459444.364694861
  9
$TDUPDATE
 40
2459444.364695046
  9
$TDINDWG
 40
0.0000000116
  9
$TDUSRTIMER
 40
0.0000000116
  9
$USRTIMER
 70
     1
  9
$ANGBASE
 50
0.0
  9
$ANGDIR
 70
     0
  9
$PDMODE
 70
     0
  9
$PDSIZE
 40
0.0
  9
$PLINEWID
 40
0.0
  9
$COORDS
 70
     1
  9
$SPLFRAME
 70
     0
  9
$SPLINETYPE
 70
     6
  9
$SPLINESEGS
 70
     8
  9
$ATTDIA
 70
     0
  9
$ATTREQ
 70
     1
  9
$HANDLING
 70
     1
  9
$HANDSEED
  5
16A
  9
$SURFTAB1
 70
     6
  9
$SURFTAB2
 70
     6
  9
$SURFTYPE
 70
     6
  9
$SURFU
 70
     6
  9
$SURFV
 70
     6
  9
$UCSNAME
  2

  9
$UCSORG
 10
0.0
 20
0.0
 30
0.0
  9
$UCSXDIR
 10
1.0
 20
0.0
 30
0.0
  9
$UCSYDIR
 10
0.0
 20
1.0
 30
0.0
  9
$USERI1
 70
     0
  9
$USERI2
 70
     0
  9
$USERI3
 70
     0
  9
$USERI4
 70
     0
  9
$USERI5
 70
     0
  9
$USERR1
 40
0.0
  9
$USERR2
 40
0.0
  9
$USERR3
 40
0.0
  9
$USERR4
 40
0.0
  9
$USERR5
 40
0.0
  9
$WORLDVIEW
 70
     1
  0
ENDSEC
  0
SECTION
  2
TABLES
  0
TABLE
  2
VPORT
 70
     1
  0
VPORT
  2
*ACTIVE
 70
     0
 10
0.0
 20
0.0
 11
1.0
 21
1.0
 12
-98.06457401647347
 22
157.851871218616
 13
0.0
 23
0.0
 14
0.5
 24
0.5
 15
0.5
 25
0.5
 16
0.0
 26
0.0
 36
1.0
 17
0.0
 27
0.0
 37
0.0
 40
164.996232562768
 41
1.6
 42
50.0
 43
0.0
 44
0.0
 50
0.0
 51
0.0
 71
     0
 72
   100
 73
     1
 74
     3
 75
     0
 76
     0
 77
     0
 78
     0
  0
ENDTAB
  0
TABLE
  2
LTYPE
 70
     1
  0
LTYPE
  2
CONTINUOUS
 70
     0
  3
Solid line
 72
    65
 73
     0
 40
0.0
  0
ENDTAB
  0
TABLE
  2
LAYER
 70
     2
  0
LAYER
  2
0
 70
     0
 62
     7
  6
CONTINUOUS
  0
LAYER
  2
2
 70
     0
 62
     7
  6
CONTINUOUS
  0
ENDTAB
  0
TABLE
  2
STYLE
 70
     2
  0
STYLE
  2
STANDARD
 70
     0
 40
0.0
 41
1.0
 50
0.0
 71
     0
 42
0.2
  3
txt
  4

  0
STYLE
  2
ＭＳ_ゴシック
 70
     0
 40
0.0
 41
1.0
 50
0.0
 71
     0
 42
0.2
  3
ＭＳ ゴシック.shx
  4

  0
ENDTAB
  0
TABLE
  2
VIEW
 70
     0
  0
ENDTAB
  0
TABLE
  2
UCS
 70
     0
  0
ENDTAB
  0
ENDSEC
  0
SECTION
  2
BLOCKS
  0
BLOCK
  8
0
  2
D_FRAME_VIEW_17676
 70
     0
 10
0.0
 20
0.0
 30
0.0
  0
LINE
  5
71
  8
2
  6
CONTINUOUS
 62
     7
 10
-48.53108969279408
 20
135.0
 30
0.0
 11
-43.94092725422989
 21
124.9016426351588
 31
0.0
  0
LINE
  5
72
  8
2
  6
CONTINUOUS
 62
     7
 10
-42.90945630469842
 20
135.0
 30
0.0
 11
-48.53108969279408
 21
135.0
 31
0.0
  0
LINE
  5
73
  8
2
  6
CONTINUOUS
 62
     7
 10
-42.90945630469842
 20
135.0
 30
0.0
 11
-38.31929386613423
 21
124.9016426351588
 31
0.0
  0
ARC
  5
74
  8
2
  6
CONTINUOUS
 62
     7
 10
-53.22666532434845
 20
120.6808526032867
 30
0.0
 40
10.2
 50
13.62400492341544
 51
24.44395478041656
  0
LINE
  5
75
  8
2
  6
CONTINUOUS
 62
     7
 10
-38.31929386613423
 20
124.9016426351588
 30
0.0
 11
-37.69203546673072
 21
123.0834555657511
 31
0.0
  0
ARC
  5
76
  8
2
  6
CONTINUOUS
 62
     7
 10
-97.29522588221297
 20
110.0
 30
0.0
 40
55.54444444444443
 50
346.3759950765845
 51
13.6240049234155
  0
ARC
  5
77
  8
2
  6
CONTINUOUS
 62
     7
 10
-91.67359249411739
 20
110.0
 30
0.0
 40
55.5444444444445
 50
346.3759950765845
 51
13.62400492341544
  0
ARC
  5
78
  8
2
  6
CONTINUOUS
 62
     7
 10
-53.22666532434845
 20
99.31914739671332
 30
0.0
 40
10.2
 50
335.5560452195834
 51
346.3759950765846
  0
LINE
  5
79
  8
2
  6
CONTINUOUS
 62
     7
 10
-37.69203546673071
 20
96.91654443424893
 30
0.0
 11
-38.31929386613422
 21
95.09835736484125
 31
0.0
  0
LINE
  5
7A
  8
2
  6
CONTINUOUS
 62
     7
 10
-42.90945630469844
 20
85.0
 30
0.0
 11
-48.53108969279409
 21
85.0
 31
0.0
  0
LINE
  5
7B
  8
2
  6
CONTINUOUS
 62
     7
 10
-43.94092725422988
 20
95.09835736484125
 30
0.0
 11
-48.53108969279409
 21
85.0
 31
0.0
  0
LINE
  5
7C
  8
2
  6
CONTINUOUS
 62
     7
 10
-38.31929386613423
 20
95.09835736484125
 30
0.0
 11
-42.90945630469843
 21
85.0
 31
0.0
  0
LINE
  5
7D
  8
2
  6
CONTINUOUS
 62
     7
 10
-48.53108969279409
 20
85.0
 30
0.0
 11
-48.75078143776857
 21
84.99999999999999
 31
0.0
  0
LINE
  5
7E
  8
2
  6
CONTINUOUS
 62
     7
 10
-48.75078143776853
 20
135.0
 30
0.0
 11
-48.53108969279408
 21
135.0
 31
0.0
  0
LINE
  5
7F
  8
2
  6
CONTINUOUS
 62
     7
 10
-48.75078143776857
 20
84.99999999999999
 30
0.0
 11
-43.75078143776852
 21
96.00000000000003
 31
0.0
  0
ARC
  5
80
  8
2
  6
CONTINUOUS
 62
     7
 10
-97.29522588221297
 20
110.0
 30
0.0
 40
55.34444444444444
 50
345.3471866796609
 51
14.65281332033902
  0
LINE
  5
81
  8
2
  6
CONTINUOUS
 62
     7
 10
-43.75078143776851
 20
124.0
 30
0.0
 11
-48.75078143776853
 21
135.0
 31
0.0
  0
LINE
  5
82
  8
2
  6
CONTINUOUS
 62
     7
 10
-48.55078143776853
 20
123.5
 30
0.0
 11
-48.55078143776853
 21
123.8782124755182
 31
0.0
  0
LINE
  5
83
  8
2
  6
CONTINUOUS
 62
     7
 10
-43.71908614306631
 20
123.8782124755182
 30
0.0
 11
-48.55078143776853
 21
123.8782124755182
 31
0.0
  0
LINE
  5
84
  8
2
  6
CONTINUOUS
 62
     7
 10
-43.71908614306631
 20
96.12178752448186
 30
0.0
 11
-48.55078143776853
 21
96.12178752448185
 31
0.0
  0
LINE
  5
85
  8
2
  6
CONTINUOUS
 62
     7
 10
-48.55078143776853
 20
96.5
 30
0.0
 11
-48.55078143776853
 21
96.12178752448185
 31
0.0
  0
LINE
  5
86
  8
2
  6
CONTINUOUS
 62
     7
 10
-42.81501707425807
 20
105.7
 30
0.0
 11
-42.81501707425807
 21
114.3
 31
0.0
  0
LINE
  5
87
  8
2
  6
CONTINUOUS
 62
     7
 10
-45.2189995406722
 20
125.8246363257311
 30
0.0
 11
-44.71346957724296
 21
126.1179139068438
 31
0.0
  0
LINE
  5
88
  8
2
  6
CONTINUOUS
 62
     7
 10
-45.06351827213476
 20
125.6798489397151
 30
0.0
 11
-44.62965503240142
 21
125.9335219081923
 31
0.0
  0
LINE
  5
89
  8
2
  6
CONTINUOUS
 62
     7
 10
-48.55078143776853
 20
123.8782124755182
 30
0.0
 11
-45.06351827213477
 21
125.6798489397151
 31
0.0
  0
LINE
  5
8A
  8
2
  6
CONTINUOUS
 62
     7
 10
-48.75078143776854
 20
124.0
 30
0.0
 11
-48.75078143776854
 21
123.5
 31
0.0
  0
LINE
  5
8B
  8
2
  6
CONTINUOUS
 62
     7
 10
-45.21899954067219
 20
125.8246363257311
 30
0.0
 11
-48.75078143776854
 21
124.0
 31
0.0
  0
LINE
  5
8C
  8
2
  6
CONTINUOUS
 62
     7
 10
-44.24505417493087
 20
123.8792279258678
 30
0.0
 11
-43.72656367773838
 21
123.9070471519692
 31
0.0
  0
LINE
  5
8D
  8
2
  6
CONTINUOUS
 62
     7
 10
-43.71934919273631
 20
123.8792279258678
 30
0.0
 11
-44.24505417493086
 21
123.8792279258678
 31
0.0
  0
LINE
  5
8E
  8
2
  6
CONTINUOUS
 62
     7
 10
-44.71346957724295
 20
93.88208609315627
 30
0.0
 11
-45.21899954067215
 21
94.1753636742689
 31
0.0
  0
LINE
  5
8F
  8
2
  6
CONTINUOUS
 62
     7
 10
-44.62965503240142
 20
94.06647809180765
 30
0.0
 11
-45.06351827213462
 21
94.32015106028486
 31
0.0
  0
LINE
  5
90
  8
2
  6
CONTINUOUS
 62
     7
 10
-43.72656367773838
 20
96.09295284803082
 30
0.0
 11
-44.24505417493101
 21
96.12077207413223
 31
0.0
  0
LINE
  5
91
  8
2
  6
CONTINUOUS
 62
     7
 10
-48.55078143776853
 20
96.12178752448185
 30
0.0
 11
-45.06351827213462
 21
94.32015106028486
 31
0.0
  0
LINE
  5
92
  8
2
  6
CONTINUOUS
 62
     7
 10
-45.21899954067216
 20
94.1753636742689
 30
0.0
 11
-48.75078143776853
 21
96.00000000000003
 31
0.0
  0
LINE
  5
93
  8
2
  6
CONTINUOUS
 62
     7
 10
-48.75078143776853
 20
96.00000000000003
 30
0.0
 11
-48.75078143776853
 21
96.5
 31
0.0
  0
LINE
  5
94
  8
2
  6
CONTINUOUS
 62
     7
 10
-43.71934919273631
 20
96.12077207413222
 30
0.0
 11
-44.24505417493102
 21
96.12077207413222
 31
0.0
  0
CIRCLE
  5
95
  8
2
  6
CONTINUOUS
 62
     7
 10
-68.75078143776852
 20
118.0
 30
0.0
 40
0.7499999999999868
  0
CIRCLE
  5
96
  8
2
  6
CONTINUOUS
 62
     7
 10
-84.75078143776854
 20
118.0
 30
0.0
 40
0.7499999999999868
  0
CIRCLE
  5
97
  8
2
  6
CONTINUOUS
 62
     7
 10
-84.75078143776854
 20
102.0
 30
0.0
 40
0.7499999999999868
  0
CIRCLE
  5
98
  8
2
  6
CONTINUOUS
 62
     7
 10
-68.75078143776852
 20
102.0
 30
0.0
 40
0.7499999999999868
  0
POLYLINE
  5
99
  8
2
  6
CONTINUOUS
 62
     7
 66
     1
 10
0.0
 20
0.0
 30
0.0
  0
VERTEX
  5
148
  8
2
  6
CONTINUOUS
 62
     7
 10
-78.7511622071268
 20
123.5
 30
0.0
  0
VERTEX
  5
149
  8
2
  6
CONTINUOUS
 62
     7
 10
-80.70203171214787
 20
123.3078640583907
 30
0.0
  0
VERTEX
  5
14A
  8
2
  6
CONTINUOUS
 62
     7
 10
-82.57790837856552
 20
122.738839196443
 30
0.0
  0
VERTEX
  5
14B
  8
2
  6
CONTINUOUS
 62
     7
 10
-84.30671028521392
 20
121.8147906070955
 30
0.0
  0
VERTEX
  5
14C
  8
2
  6
CONTINUOUS
 62
     7
 10
-85.82200696522001
 20
120.5712255274515
 30
0.0
  0
VERTEX
  5
14D
  8
2
  6
CONTINUOUS
 62
     7
 10
-87.06557204486403
 20
119.0559288474454
 30
0.0
  0
VERTEX
  5
14E
  8
2
  6
CONTINUOUS
 62
     7
 10
-87.98962063421145
 20
117.3271269407971
 30
0.0
  0
VERTEX
  5
14F
  8
2
  6
CONTINUOUS
 62
     7
 10
-88.55864549615916
 20
115.4512502743794
 30
0.0
  0
VERTEX
  5
150
  8
2
  6
CONTINUOUS
 62
     7
 10
-88.7507814377685
 20
113.5003807693583
 30
0.0
  0
SEQEND
  5
166
  8
2
  6
CONTINUOUS
 62
     7
  0
LINE
  5
9A
  8
2
  6
CONTINUOUS
 62
     7
 10
-78.75116220712678
 20
123.5
 30
0.0
 11
-43.75078143776853
 21
123.5
 31
0.0
  0
LINE
  5
9B
  8
2
  6
CONTINUOUS
 62
     7
 10
-43.75078143776853
 20
123.5
 30
0.0
 11
-43.75078143776853
 21
96.5
 31
0.0
  0
LINE
  5
9C
  8
2
  6
CONTINUOUS
 62
     7
 10
-43.75078143776853
 20
96.5
 30
0.0
 11
-78.75116220712677
 21
96.5
 31
0.0
  0
POLYLINE
  5
9D
  8
2
  6
CONTINUOUS
 62
     7
 66
     1
 10
0.0
 20
0.0
 30
0.0
  0
VERTEX
  5
151
  8
2
  6
CONTINUOUS
 62
     7
 10
-88.75078143776851
 20
106.4996192306417
 30
0.0
  0
VERTEX
  5
152
  8
2
  6
CONTINUOUS
 62
     7
 10
-88.55864549615917
 20
104.5487497256206
 30
0.0
  0
VERTEX
  5
153
  8
2
  6
CONTINUOUS
 62
     7
 10
-87.98962063421146
 20
102.672873059203
 30
0.0
  0
VERTEX
  5
154
  8
2
  6
CONTINUOUS
 62
     7
 10
-87.06557204486404
 20
100.9440711525546
 30
0.0
  0
VERTEX
  5
155
  8
2
  6
CONTINUOUS
 62
     7
 10
-85.82200696522003
 20
99.42877447254848
 30
0.0
  0
VERTEX
  5
156
  8
2
  6
CONTINUOUS
 62
     7
 10
-84.30671028521394
 20
98.18520939290447
 30
0.0
  0
VERTEX
  5
157
  8
2
  6
CONTINUOUS
 62
     7
 10
-82.57790837856554
 20
97.26116080355705
 30
0.0
  0
VERTEX
  5
158
  8
2
  6
CONTINUOUS
 62
     7
 10
-80.70203171214787
 20
96.69213594160934
 30
0.0
  0
VERTEX
  5
159
  8
2
  6
CONTINUOUS
 62
     7
 10
-78.7511622071268
 20
96.5
 30
0.0
  0
SEQEND
  5
167
  8
2
  6
CONTINUOUS
 62
     7
  0
LINE
  5
9E
  8
2
  6
CONTINUOUS
 62
     7
 10
-88.75078143776851
 20
106.4996192306417
 30
0.0
 11
-88.75078143776851
 21
113.5003807693583
 31
0.0
  0
CIRCLE
  5
9F
  8
2
  6
CONTINUOUS
 62
     7
 10
-76.75078143776854
 20
110.0
 30
0.0
 40
2.000000000000002
  0
LINE
  5
A0
  8
2
  6
CONTINUOUS
 62
     7
 10
-43.75078143776853
 20
96.75744259982739
 30
0.0
 11
-43.55835673985776
 21
96.75777867419566
 31
0.0
  0
LINE
  5
A1
  8
2
  6
CONTINUOUS
 62
     7
 10
-43.75078143776853
 20
123.2425574001726
 30
0.0
 11
-43.55835673985774
 21
123.2422213258043
 31
0.0
  0
LINE
  5
A2
  8
2
  6
CONTINUOUS
 62
     7
 10
-42.46404687526221
 20
114.3
 30
0.0
 11
-43.25078143776853
 21
114.3
 31
0.0
  0
LINE
  5
A3
  8
2
  6
CONTINUOUS
 62
     7
 10
-43.25078143776853
 20
105.7
 30
0.0
 11
-42.46404687526222
 21
105.7
 31
0.0
  0
LINE
  5
A4
  8
2
  6
CONTINUOUS
 62
     7
 10
-42.28009176101888
 20
114.3
 30
0.0
 11
-42.46404687526221
 21
114.3
 31
0.0
  0
LINE
  5
A5
  8
2
  6
CONTINUOUS
 62
     7
 10
-42.46404687526222
 20
105.7
 30
0.0
 11
-42.28009176101888
 21
105.7
 31
0.0
  0
LINE
  5
A6
  8
2
  6
CONTINUOUS
 62
     7
 10
-42.28009176101888
 20
105.7
 30
0.0
 11
-42.1180790652182
 21
105.7
 31
0.0
  0
LINE
  5
A7
  8
2
  6
CONTINUOUS
 62
     7
 10
-42.1180790652182
 20
114.3
 30
0.0
 11
-42.28009176101888
 21
114.3
 31
0.0
  0
LINE
  5
A8
  8
2
  6
CONTINUOUS
 62
     7
 10
-43.25078143776853
 20
98.07500291171712
 30
0.0
 11
-43.25078143776853
 21
121.9249970882829
 31
0.0
  0
ENDBLK
  8
0
  0
BLOCK
  8
0
  2
D_FRAME_VIEW_17612
 70
     0
 10
0.0
 20
0.0
 30
0.0
  0
LINE
  5
AD
  8
2
  6
CONTINUOUS
 62
     7
 10
-42.90945630469842
 20
240.3499875
 30
0.0
 11
-38.31929386613424
 21
240.3499875
 31
0.0
  0
LINE
  5
AE
  8
2
  6
CONTINUOUS
 62
     7
 10
-48.53108969279407
 20
175.3499875
 30
0.0
 11
-43.94092725422989
 21
175.3499875
 31
0.0
  0
LINE
  5
AF
  8
2
  6
CONTINUOUS
 62
     7
 10
-43.12914804967289
 20
240.3499875
 30
0.0
 11
-43.12914804967287
 21
215.541123966121
 31
0.0
  0
LINE
  5
B0
  8
2
  6
CONTINUOUS
 62
     7
 10
-43.12914804967289
 20
240.3499875
 30
0.0
 11
-42.90945630469843
 21
240.3499875
 31
0.0
  0
LINE
  5
B1
  8
2
  6
CONTINUOUS
 62
     7
 10
-43.15579332740651
 20
215.1603964975695
 30
0.0
 11
-48.75078143776854
 21
175.3499875
 31
0.0
  0
LINE
  5
B2
  8
2
  6
CONTINUOUS
 62
     7
 10
-48.75078143776854
 20
175.3499875
 30
0.0
 11
-48.53108969279407
 21
175.3499875
 31
0.0
  0
LINE
  5
B3
  8
2
  6
CONTINUOUS
 62
     7
 10
-43.15579332740651
 20
215.1603964975695
 30
0.0
 11
-43.12914804967289
 21
215.541123966121
 31
0.0
  0
LINE
  5
B4
  8
2
  6
CONTINUOUS
 62
     7
 10
-43.12914804967289
 20
240.3499875
 30
0.0
 11
-44.38961939261263
 21
231.3812678705135
 31
0.0
  0
LINE
  5
B5
  8
2
  6
CONTINUOUS
 62
     7
 10
-44.38961939261263
 20
231.3812678705135
 30
0.0
 11
-48.75078143776854
 21
200.3499875
 31
0.0
  0
LINE
  5
B6
  8
2
  6
CONTINUOUS
 62
     7
 10
-45.23726057020874
 20
200.3499875
 30
0.0
 11
-48.75078143776854
 21
200.3499875
 31
0.0
  0
LINE
  5
B7
  8
2
  6
CONTINUOUS
 62
     7
 10
-38.31929386613425
 20
240.3499875
 30
0.0
 11
-37.69203546673072
 21
240.3499875
 31
0.0
  0
LINE
  5
B8
  8
2
  6
CONTINUOUS
 62
     7
 10
-43.94092725422988
 20
175.3499875
 30
0.0
 11
-43.31366885482636
 21
175.3499875
 31
0.0
  0
LINE
  5
B9
  8
2
  6
CONTINUOUS
 62
     7
 10
-37.69203546673072
 20
240.3499875
 30
0.0
 11
-36.12914804105669
 21
240.3499875
 31
0.0
  0
LINE
  5
BA
  8
2
  6
CONTINUOUS
 62
     7
 10
-43.31366885482649
 20
175.3499875
 30
0.0
 11
-41.75078143776864
 21
175.3499875
 31
0.0
  0
LINE
  5
BB
  8
2
  6
CONTINUOUS
 62
     7
 10
-48.55078143776853
 20
200.3499875
 30
0.0
 11
-48.55078143776853
 21
190.3499875
 31
0.0
  0
LINE
  5
BC
  8
2
  6
CONTINUOUS
 62
     7
 10
-48.75078143776854
 20
200.3499875
 30
0.0
 11
-48.75078143776854
 21
190.3499875
 31
0.0
  0
LINE
  5
BD
  8
2
  6
CONTINUOUS
 62
     7
 10
-48.55078143776853
 20
190.3499875
 30
0.0
 11
-48.75078143776854
 21
190.3499875
 31
0.0
  0
LINE
  5
BE
  8
2
  6
CONTINUOUS
 62
     7
 10
-78.7511622071268
 20
160.3499875
 30
0.0
 11
-88.75078143776851
 21
160.3499875
 31
0.0
  0
LINE
  5
BF
  8
2
  6
CONTINUOUS
 62
     7
 10
-88.75078143776851
 20
160.3499875
 30
0.0
 11
-88.72892619063083
 21
162.8543507677492
 31
0.0
  0
LINE
  5
C0
  8
2
  6
CONTINUOUS
 62
     7
 10
-43.75078143776853
 20
175.3499875
 30
0.0
 11
-43.75078143776853
 21
160.3499875
 31
0.0
  0
LINE
  5
C1
  8
2
  6
CONTINUOUS
 62
     7
 10
-78.75116220712678
 20
160.3499875
 30
0.0
 11
-43.75078143776853
 21
160.3499875
 31
0.0
  0
ARC
  5
C2
  8
2
  6
CONTINUOUS
 62
     7
 10
-88.22894522909874
 20
162.8499875
 30
0.0
 40
0.5000000000000016
 50
90.0000000000008
 51
179.5
  0
LINE
  5
C3
  8
2
  6
CONTINUOUS
 62
     7
 10
-88.22894522909874
 20
163.3499875
 30
0.0
 11
-78.72930695998912
 21
163.3499875
 31
0.0
  0
LINE
  5
C4
  8
2
  6
CONTINUOUS
 62
     7
 10
-77.3192728507619
 20
163.4726327098886
 30
0.0
 11
-47.46573228540725
 21
189.4239196002102
 31
0.0
  0
POLYLINE
  5
C5
  8
2
  6
CONTINUOUS
 62
     7
 10
0.0
 20
0.0
 30
0.0
 66
     1
 70
     8
  0
VERTEX
  5
C6
  8
2
  6
CONTINUOUS
 62
     7
 10
-77.31927285076192
 20
163.4726327098886
 30
0.0
 70
    32
  0
VERTEX
  5
C7
  8
2
  6
CONTINUOUS
 62
     7
 10
-77.31927473476865
 20
163.4726295542908
 30
0.0
 70
    32
  0
SEQEND
  5
C8
  8
2
  6
CONTINUOUS
 62
     7
  0
POLYLINE
  5
C9
  8
2
  6
CONTINUOUS
 62
     7
 66
     1
 10
0.0
 20
0.0
 30
0.0
  0
VERTEX
  5
15A
  8
2
  6
CONTINUOUS
 62
     7
 10
-77.64729887307061
 20
163.3499875
 30
0.0
  0
VERTEX
  5
15B
  8
2
  6
CONTINUOUS
 62
     7
 10
-77.55832875721615
 20
163.3579669372031
 30
0.0
  0
VERTEX
  5
15C
  8
2
  6
CONTINUOUS
 62
     7
 10
-77.47219836717133
 20
163.3816505631401
 30
0.0
  0
VERTEX
  5
15D
  8
2
  6
CONTINUOUS
 62
     7
 10
-77.39165679109074
 20
163.4202824497874
 30
0.0
  0
VERTEX
  5
15E
  8
2
  6
CONTINUOUS
 62
     7
 10
-77.31927473476865
 20
163.4726295542908
 30
0.0
  0
SEQEND
  5
168
  8
2
  6
CONTINUOUS
 62
     7
  0
LINE
  5
CA
  8
2
  6
CONTINUOUS
 62
     7
 10
-78.72930695998912
 20
163.3499875
 30
0.0
 11
-77.64729887307061
 21
163.3499875
 31
0.0
  0
LINE
  5
CB
  8
2
  6
CONTINUOUS
 62
     7
 10
-47.29380219044987
 20
189.7968925614929
 30
0.0
 11
-47.20170672613818
 21
200.3499875
 31
0.0
  0
POLYLINE
  5
CC
  8
2
  6
CONTINUOUS
 62
     7
 66
     1
 10
0.0
 20
0.0
 30
0.0
  0
VERTEX
  5
15F
  8
2
  6
CONTINUOUS
 62
     7
 10
-47.46573228540726
 20
189.4239196002102
 30
0.0
  0
VERTEX
  5
160
  8
2
  6
CONTINUOUS
 62
     7
 10
-47.39379436619391
 20
189.5012323619891
 30
0.0
  0
VERTEX
  5
161
  8
2
  6
CONTINUOUS
 62
     7
 10
-47.33970005101029
 20
189.5919307914364
 30
0.0
  0
VERTEX
  5
162
  8
2
  6
CONTINUOUS
 62
     7
 10
-47.30586263018716
 20
189.6919685919671
 30
0.0
  0
VERTEX
  5
163
  8
2
  6
CONTINUOUS
 62
     7
 10
-47.29379168047422
 20
189.796882812975
 30
0.0
  0
SEQEND
  5
169
  8
2
  6
CONTINUOUS
 62
     7
  0
ARC
  5
CD
  8
2
  6
CONTINUOUS
 62
     7
 10
-47.79378315198193
 20
189.8012558292421
 30
0.0
 40
0.4999999999999972
 50
311.0000000000001
 51
359.4999999999995
  0
LINE
  5
CE
  8
2
  6
CONTINUOUS
 62
     7
 10
-83.25078143776852
 20
166.3499875
 30
0.0
 11
-76.75078143776854
 21
166.3499875
 31
0.0
  0
LINE
  5
CF
  8
2
  6
CONTINUOUS
 62
     7
 10
-76.75078143776854
 20
166.3499875
 30
0.0
 11
-74.00925480385175
 21
166.3499875
 31
0.0
  0
LINE
  5
D0
  8
2
  6
CONTINUOUS
 62
     7
 10
-78.19164771156845
 20
166.3499875134254
 30
0.0
 11
-78.17665600265916
 21
174.3499875
 31
0.0
  0
LINE
  5
D1
  8
2
  6
CONTINUOUS
 62
     7
 10
-76.4273476113966
 20
174.3499875
 30
0.0
 11
-78.17665600265916
 21
174.3499875
 31
0.0
  0
LINE
  5
D2
  8
2
  6
CONTINUOUS
 62
     7
 10
-76.38652385126635
 20
166.3499876189724
 30
0.0
 11
-76.4273476113966
 21
174.3499875
 31
0.0
  0
LINE
  5
D3
  8
2
  6
CONTINUOUS
 62
     7
 10
-78.17665600265916
 20
174.3499875
 30
0.0
 11
-78.81393855192276
 21
174.3499875
 31
0.0
  0
LINE
  5
D4
  8
2
  6
CONTINUOUS
 62
     7
 10
-78.81393855192276
 20
174.3499875
 30
0.0
 11
-78.85892102887864
 21
174.3499875
 31
0.0
  0
LINE
  5
D5
  8
2
  6
CONTINUOUS
 62
     7
 10
-74.41016075606332
 20
174.3499875
 30
0.0
 11
-74.57257730757547
 21
174.3499875
 31
0.0
  0
LINE
  5
D6
  8
2
  6
CONTINUOUS
 62
     7
 10
-73.83271335180358
 20
166.5034505883831
 30
0.0
 11
-73.89281363887112
 21
174.3499875
 31
0.0
  0
LINE
  5
D7
  8
2
  6
CONTINUOUS
 62
     7
 10
-73.89281363887112
 20
174.3499875
 30
0.0
 11
-74.41016075606332
 21
174.3499875
 31
0.0
  0
LINE
  5
D8
  8
2
  6
CONTINUOUS
 62
     7
 10
-74.57257730757547
 20
174.3499875
 30
0.0
 11
-76.4273476113966
 21
174.3499875
 31
0.0
  0
LINE
  5
D9
  8
2
  6
CONTINUOUS
 62
     7
 10
-79.12961789071804
 20
166.3499876189724
 30
0.0
 11
-79.08041026879349
 21
174.3499875
 31
0.0
  0
LINE
  5
DA
  8
2
  6
CONTINUOUS
 62
     7
 10
-78.85892102887864
 20
174.3499875
 30
0.0
 11
-79.08041026879349
 21
174.3499875
 31
0.0
  0
LINE
  5
DB
  8
2
  6
CONTINUOUS
 62
     7
 10
-73.77238989150547
 20
174.3499875
 30
0.0
 11
-73.89281363887112
 21
174.3499875
 31
0.0
  0
LINE
  5
DC
  8
2
  6
CONTINUOUS
 62
     7
 10
-80.56052834445661
 20
166.3499875134254
 30
0.0
 11
-80.4899881814623
 21
174.3499875
 31
0.0
  0
LINE
  5
DD
  8
2
  6
CONTINUOUS
 62
     7
 10
-79.08041026879349
 20
174.3499875
 30
0.0
 11
-80.48998818146231
 21
174.3499875
 31
0.0
  0
LINE
  5
DE
  8
2
  6
CONTINUOUS
 62
     7
 10
-73.23463426088873
 20
174.3499875
 30
0.0
 11
-73.39617839319945
 21
174.3499875
 31
0.0
  0
LINE
  5
DF
  8
2
  6
CONTINUOUS
 62
     7
 10
-73.39617839319943
 20
174.3499875
 30
0.0
 11
-73.77238989150547
 21
174.3499875
 31
0.0
  0
LINE
  5
E0
  8
2
  6
CONTINUOUS
 62
     7
 10
-36.12914803294687
 20
215.3499875
 30
0.0
 11
-36.12914803294688
 21
240.3499875
 31
0.0
  0
LINE
  5
E1
  8
2
  6
CONTINUOUS
 62
     7
 10
-41.75114758372625
 20
175.3473822361385
 30
0.0
 11
-36.12914804967288
 21
215.3499875
 31
0.0
  0
LINE
  5
E2
  8
2
  6
CONTINUOUS
 62
     7
 10
-69.50078143776852
 20
160.3499875
 30
0.0
 11
-68.75078143776852
 21
159.6499875
 31
0.0
  0
LINE
  5
E3
  8
2
  6
CONTINUOUS
 62
     7
 10
-68.75078143776852
 20
159.6499875
 30
0.0
 11
-68.00078143776854
 21
160.3499875
 31
0.0
  0
LINE
  5
E4
  8
2
  6
CONTINUOUS
 62
     7
 10
-85.50078143776852
 20
160.3499875
 30
0.0
 11
-84.75078143776854
 21
159.6499875
 31
0.0
  0
LINE
  5
E5
  8
2
  6
CONTINUOUS
 62
     7
 10
-84.75078143776854
 20
159.6499875
 30
0.0
 11
-84.00078143776854
 21
160.3499875
 31
0.0
  0
LINE
  5
E6
  8
2
  6
CONTINUOUS
 62
     7
 10
-83.25078143776854
 20
166.3499875
 30
0.0
 11
-83.25078143776854
 21
163.3499875
 31
0.0
  0
LINE
  5
E7
  8
2
  6
CONTINUOUS
 62
     7
 10
-78.85892102887864
 20
174.3499875
 30
0.0
 11
-78.92873597120472
 21
166.3499875
 31
0.0
  0
LINE
  5
E8
  8
2
  6
CONTINUOUS
 62
     7
 10
-74.57257730757547
 20
174.3499875
 30
0.0
 11
-74.64239224990153
 21
166.3499875
 31
0.0
  0
LINE
  5
E9
  8
2
  6
CONTINUOUS
 62
     7
 10
-73.70488395224714
 20
166.6145730446777
 30
0.0
 11
-73.77238989150547
 21
174.3499875
 31
0.0
  0
LINE
  5
EA
  8
2
  6
CONTINUOUS
 62
     7
 10
-73.17117710208295
 20
167.0785173314071
 30
0.0
 11
-73.23463426088873
 21
174.3499875
 31
0.0
  0
ENDBLK
  8
0
  0
BLOCK
  8
0
  2
D_FRAME_VIEW_17456
 70
     0
 10
0.0
 20
0.0
 30
0.0
  0
LINE
  5
F0
  8
2
  6
CONTINUOUS
 62
     7
 10
-149.0
 20
200.3499875
 30
0.0
 11
-149.0
 21
175.3499875
 31
0.0
  0
LINE
  5
F1
  8
2
  6
CONTINUOUS
 62
     7
 10
-160.0
 20
175.3499875
 30
0.0
 11
-149.0
 21
175.3499875
 31
0.0
  0
LINE
  5
F2
  8
2
  6
CONTINUOUS
 62
     7
 10
-160.0
 20
215.16039649757
 30
0.0
 11
-160.0
 21
175.3499875
 31
0.0
  0
LINE
  5
F3
  8
2
  6
CONTINUOUS
 62
     7
 10
-149.0
 20
200.3499875
 30
0.0
 11
-146.0
 21
200.3499875
 31
0.0
  0
LINE
  5
F4
  8
2
  6
CONTINUOUS
 62
     7
 10
-149.0
 20
231.381267870514
 30
0.0
 11
-149.0
 21
200.3499875
 31
0.0
  0
LINE
  5
F5
  8
2
  6
CONTINUOUS
 62
     7
 10
-149.0
 20
231.3812678705139
 30
0.0
 11
-149.1397531190841
 21
240.3499874999999
 31
0.0
  0
LINE
  5
F6
  8
2
  6
CONTINUOUS
 62
     7
 10
-149.1397531190841
 20
240.3499875
 30
0.0
 11
-120.8602468809159
 21
240.3499875
 31
0.0
  0
LINE
  5
F7
  8
2
  6
CONTINUOUS
 62
     7
 10
-120.8602468809159
 20
240.3499875
 30
0.0
 11
-121.0
 21
231.3812678705135
 31
0.0
  0
LINE
  5
F8
  8
2
  6
CONTINUOUS
 62
     7
 10
-121.0
 20
231.3812678705135
 30
0.0
 11
-121.0
 21
200.3499875
 31
0.0
  0
LINE
  5
F9
  8
2
  6
CONTINUOUS
 62
     7
 10
-121.0
 20
200.3499875
 30
0.0
 11
-124.0
 21
200.3499875
 31
0.0
  0
LINE
  5
FA
  8
2
  6
CONTINUOUS
 62
     7
 10
-146.0
 20
200.3499875
 30
0.0
 11
-124.0
 21
200.3499875
 31
0.0
  0
LINE
  5
FB
  8
2
  6
CONTINUOUS
 62
     7
 10
-146.0
 20
200.3499875
 30
0.0
 11
-146.0
 21
190.3499875
 31
0.0
  0
LINE
  5
FC
  8
2
  6
CONTINUOUS
 62
     7
 10
-124.0
 20
200.3499875
 30
0.0
 11
-124.0
 21
190.3499875
 31
0.0
  0
LINE
  5
FD
  8
2
  6
CONTINUOUS
 62
     7
 10
-146.0
 20
190.3499875
 30
0.0
 11
-124.0
 21
190.3499875
 31
0.0
  0
LINE
  5
FE
  8
2
  6
CONTINUOUS
 62
     7
 10
-119.1753636742689
 20
200.3499875
 30
0.0
 11
-121.0
 21
200.3499875
 31
0.0
  0
LINE
  5
FF
  8
2
  6
CONTINUOUS
 62
     7
 10
-121.0
 20
200.3499875
 30
0.0
 11
-121.0
 21
175.3499875
 31
0.0
  0
LINE
  5
100
  8
2
  6
CONTINUOUS
 62
     7
 10
-110.0
 20
215.1603964975695
 30
0.0
 11
-110.0
 21
175.3499875
 31
0.0
  0
LINE
  5
101
  8
2
  6
CONTINUOUS
 62
     7
 10
-121.0
 20
175.3499875
 30
0.0
 11
-110.0
 21
175.3499875
 31
0.0
  0
LINE
  5
102
  8
2
  6
CONTINUOUS
 62
     7
 10
-150.8246363257311
 20
200.3499875
 30
0.0
 11
-149.0
 21
200.3499875
 31
0.0
  0
LINE
  5
103
  8
2
  6
CONTINUOUS
 62
     7
 10
-113.7022597846528
 20
240.3499875
 30
0.0
 11
-120.8602468809159
 21
240.3499875
 31
0.0
  0
LINE
  5
104
  8
2
  6
CONTINUOUS
 62
     7
 10
-119.1753636742689
 20
200.3499875
 30
0.0
 11
-118.0466634332183
 21
200.3499875
 31
0.0
  0
LINE
  5
105
  8
2
  6
CONTINUOUS
 62
     7
 10
-149.1397531190841
 20
240.3499875
 30
0.0
 11
-156.2977402153473
 21
240.3499875
 31
0.0
  0
LINE
  5
106
  8
2
  6
CONTINUOUS
 62
     7
 10
-151.9533365667816
 20
200.3499875
 30
0.0
 11
-150.8246363257311
 21
200.3499875
 31
0.0
  0
LINE
  5
107
  8
2
  6
CONTINUOUS
 62
     7
 10
-148.3690969831386
 20
175.3499875
 30
0.0
 11
-149.0
 21
175.3499875
 31
0.0
  0
LINE
  5
108
  8
2
  6
CONTINUOUS
 62
     7
 10
-121.0
 20
175.3499875
 30
0.0
 11
-121.6309030168614
 21
175.3499875
 31
0.0
  0
LINE
  5
109
  8
2
  6
CONTINUOUS
 62
     7
 10
-151.9533365667816
 20
200.3499875
 30
0.0
 11
-155.288857616442
 21
200.3499875
 31
0.0
  0
LINE
  5
10A
  8
2
  6
CONTINUOUS
 62
     7
 10
-114.711142383558
 20
200.3499875
 30
0.0
 11
-118.0466634332183
 21
200.3499875
 31
0.0
  0
LINE
  5
10B
  8
2
  6
CONTINUOUS
 62
     7
 10
-110.0
 20
215.1603964975695
 30
0.0
 11
-110.0
 21
215.541123966121
 31
0.0
  0
LINE
  5
10C
  8
2
  6
CONTINUOUS
 62
     7
 10
-160.0
 20
215.5411239661215
 30
0.0
 11
-160.0
 21
215.16039649757
 31
0.0
  0
LINE
  5
10D
  8
2
  6
CONTINUOUS
 62
     7
 10
-160.0000000000001
 20
240.3499875
 30
0.0
 11
-156.2977402153472
 21
240.3499875
 31
0.0
  0
LINE
  5
10E
  8
2
  6
CONTINUOUS
 62
     7
 10
-160.0000000000001
 20
240.3499875
 30
0.0
 11
-160.0000000000001
 21
215.5411239661215
 31
0.0
  0
LINE
  5
10F
  8
2
  6
CONTINUOUS
 62
     7
 10
-113.7022597846528
 20
240.3499875
 30
0.0
 11
-110.0000000000001
 21
240.3499875
 31
0.0
  0
LINE
  5
110
  8
2
  6
CONTINUOUS
 62
     7
 10
-110.0000000000001
 20
240.3499875
 30
0.0
 11
-110.0000000000001
 21
215.541123966121
 31
0.0
  0
LINE
  5
111
  8
2
  6
CONTINUOUS
 62
     7
 10
-138.5003807693583
 20
160.3499875
 30
0.0
 11
-131.4996192306417
 21
160.3499875
 31
0.0
  0
LINE
  5
112
  8
2
  6
CONTINUOUS
 62
     7
 10
-138.5003807693583
 20
160.3499875
 30
0.0
 11
-148.5
 21
160.3499875
 31
0.0
  0
LINE
  5
113
  8
2
  6
CONTINUOUS
 62
     7
 10
-148.5
 20
160.3499875
 30
0.0
 11
-148.4781447528623
 21
162.8543507677492
 31
0.0
  0
LINE
  5
114
  8
2
  6
CONTINUOUS
 62
     7
 10
-121.5
 20
160.3499875
 30
0.0
 11
-131.4996192306417
 21
160.3499875
 31
0.0
  0
LINE
  5
115
  8
2
  6
CONTINUOUS
 62
     7
 10
-121.5218552471377
 20
162.8543507677492
 30
0.0
 11
-121.5
 21
160.3499875
 31
0.0
  0
LINE
  5
116
  8
2
  6
CONTINUOUS
 62
     7
 10
-138.4785255222206
 20
163.3499875
 30
0.0
 11
-131.5214744777794
 21
163.3499875
 31
0.0
  0
LINE
  5
117
  8
2
  6
CONTINUOUS
 62
     7
 10
-147.9781637913302
 20
163.3499875
 30
0.0
 11
-138.4785255222206
 21
163.3499875
 31
0.0
  0
ARC
  5
118
  8
2
  6
CONTINUOUS
 62
     7
 10
-147.9781637913302
 20
162.8499875
 30
0.0
 40
0.5000000000000004
 50
90.00000000000043
 51
179.5
  0
LINE
  5
119
  8
2
  6
CONTINUOUS
 62
     7
 10
-131.5214744777794
 20
163.3499875
 30
0.0
 11
-122.0218362086698
 21
163.3499875
 31
0.0
  0
ARC
  5
11A
  8
2
  6
CONTINUOUS
 62
     7
 10
-122.0218362086698
 20
162.8499875
 30
0.0
 40
0.4999999999999998
 50
0.5000000000000828
 51
90.0
  0
LINE
  5
11B
  8
2
  6
CONTINUOUS
 62
     7
 10
-141.5
 20
166.3499875
 30
0.0
 11
-128.5
 21
166.3499875
 31
0.0
  0
LINE
  5
11C
  8
2
  6
CONTINUOUS
 62
     7
 10
-135.2771546494342
 20
166.3499875134254
 30
0.0
 11
-135.2843113221717
 21
174.3499875
 31
0.0
  0
LINE
  5
11D
  8
2
  6
CONTINUOUS
 62
     7
 10
-133.902979257417
 20
174.3499875
 30
0.0
 11
-135.2843113221717
 21
174.3499875
 31
0.0
  0
LINE
  5
11E
  8
2
  6
CONTINUOUS
 62
     7
 10
-133.8440660902207
 20
166.3499876189724
 30
0.0
 11
-133.9029792574171
 21
174.3499875
 31
0.0
  0
LINE
  5
11F
  8
2
  6
CONTINUOUS
 62
     7
 10
-135.2843113221717
 20
174.3499875
 30
0.0
 11
-135.9945125060165
 21
174.3499875
 31
0.0
  0
LINE
  5
120
  8
2
  6
CONTINUOUS
 62
     7
 10
-135.9945125060164
 20
174.3499875
 30
0.0
 11
-136.0679921725227
 21
174.3499875
 31
0.0
  0
LINE
  5
121
  8
2
  6
CONTINUOUS
 62
     7
 10
-136.905204687282
 20
166.3499876189724
 30
0.0
 11
-136.8766106276554
 21
174.3499875
 31
0.0
  0
LINE
  5
122
  8
2
  6
CONTINUOUS
 62
     7
 10
-136.0679921725227
 20
174.3499875
 30
0.0
 11
-136.8766106276554
 21
174.3499875
 31
0.0
  0
LINE
  5
123
  8
2
  6
CONTINUOUS
 62
     7
 10
-132.4809155681951
 20
174.3499875
 30
0.0
 11
-133.9029792574171
 21
174.3499875
 31
0.0
  0
LINE
  5
124
  8
2
  6
CONTINUOUS
 62
     7
 10
-131.8685653891044
 20
174.3499875
 30
0.0
 11
-132.0520703120616
 21
174.3499875
 31
0.0
  0
LINE
  5
125
  8
2
  6
CONTINUOUS
 62
     7
 10
-131.4623608757042
 20
166.3499875134254
 30
0.0
 11
-131.5316600908795
 21
174.3499875
 31
0.0
  0
LINE
  5
126
  8
2
  6
CONTINUOUS
 62
     7
 10
-131.5316600908795
 20
174.3499875
 30
0.0
 11
-131.8685653891044
 21
174.3499875
 31
0.0
  0
LINE
  5
127
  8
2
  6
CONTINUOUS
 62
     7
 10
-138.7089301177862
 20
166.3499875134254
 30
0.0
 11
-138.644053969609
 21
174.3499875
 31
0.0
  0
LINE
  5
128
  8
2
  6
CONTINUOUS
 62
     7
 10
-136.8766106276554
 20
174.3499875
 30
0.0
 11
-138.644053969609
 21
174.3499875
 31
0.0
  0
LINE
  5
129
  8
2
  6
CONTINUOUS
 62
     7
 10
-131.5304611650486
 20
174.3499875
 30
0.0
 11
-131.5316600908795
 21
174.3499875
 31
0.0
  0
LINE
  5
12A
  8
2
  6
CONTINUOUS
 62
     7
 10
-132.3011317523946
 20
174.3499875
 30
0.0
 11
-132.0482836850116
 21
174.3499875
 31
0.0
  0
LINE
  5
12B
  8
2
  6
CONTINUOUS
 62
     7
 10
-138.644053969609
 20
174.3499875
 30
0.0
 11
-138.7460771418506
 21
174.3499875
 31
0.0
  0
ARC
  5
12C
  8
2
  6
CONTINUOUS
 62
     7
 10
-146.5043443947025
 20
163.8499875
 30
0.0
 40
0.4999999999999998
 50
180.5
 51
270.0
  0
ARC
  5
12D
  8
2
  6
CONTINUOUS
 62
     7
 10
-123.4956556052975
 20
163.8499875
 30
0.0
 40
0.5000000000000004
 50
270.0
 51
359.4999999999999
  0
LINE
  5
12E
  8
2
  6
CONTINUOUS
 62
     7
 10
-121.7530482297111
 20
189.346442560211
 30
0.0
 11
-121.5218552471377
 21
162.8543507677492
 31
0.0
  0
LINE
  5
12F
  8
2
  6
CONTINUOUS
 62
     7
 10
-148.4781447528623
 20
162.8543507677492
 30
0.0
 11
-148.2469517702889
 21
189.346442560211
 31
0.0
  0
LINE
  5
130
  8
2
  6
CONTINUOUS
 62
     7
 10
-122.9956746437654
 20
163.8456242322508
 30
0.0
 11
-122.7807762226251
 21
188.4705442256399
 31
0.0
  0
LINE
  5
131
  8
2
  6
CONTINUOUS
 62
     7
 10
-147.2192237773749
 20
188.4705442256399
 30
0.0
 11
-147.0043253562346
 21
163.8456242322508
 31
0.0
  0
LINE
  5
132
  8
2
  6
CONTINUOUS
 62
     7
 10
-132.4809155681951
 20
174.3499875
 30
0.0
 11
-132.3011317523947
 21
174.3499875
 31
0.0
  0
LINE
  5
133
  8
2
  6
CONTINUOUS
 62
     7
 10
-138.7460771418506
 20
174.3499875
 30
0.0
 11
-138.7461817514013
 21
174.3499875
 31
0.0
  0
LINE
  5
134
  8
2
  6
CONTINUOUS
 62
     7
 10
-121.8490747116304
 20
200.3499875
 30
0.0
 11
-121.7530482297112
 21
189.346442560211
 31
0.0
  0
LINE
  5
135
  8
2
  6
CONTINUOUS
 62
     7
 10
-148.2469517702889
 20
189.346442560211
 30
0.0
 11
-148.1509252883697
 21
200.3499875
 31
0.0
  0
LINE
  5
136
  8
2
  6
CONTINUOUS
 62
     7
 10
-143.75
 20
160.3499875
 30
0.0
 11
-143.0
 21
159.6499875
 31
0.0
  0
LINE
  5
137
  8
2
  6
CONTINUOUS
 62
     7
 10
-143.0
 20
159.6499875
 30
0.0
 11
-142.25
 21
160.3499875
 31
0.0
  0
LINE
  5
138
  8
2
  6
CONTINUOUS
 62
     7
 10
-127.75
 20
160.3499875
 30
0.0
 11
-127.0
 21
159.6499875
 31
0.0
  0
LINE
  5
139
  8
2
  6
CONTINUOUS
 62
     7
 10
-127.0
 20
159.6499875
 30
0.0
 11
-126.25
 21
160.3499875
 31
0.0
  0
LINE
  5
13A
  8
2
  6
CONTINUOUS
 62
     7
 10
-128.5
 20
163.3499875
 30
0.0
 11
-128.5
 21
166.3499875
 31
0.0
  0
LINE
  5
13B
  8
2
  6
CONTINUOUS
 62
     7
 10
-141.5
 20
166.3499875
 30
0.0
 11
-141.5
 21
163.3499875
 31
0.0
  0
LINE
  5
13C
  8
2
  6
CONTINUOUS
 62
     7
 10
-136.0679921725227
 20
174.3499875
 30
0.0
 11
-136.1378071148488
 21
166.3499875
 31
0.0
  0
LINE
  5
13D
  8
2
  6
CONTINUOUS
 62
     7
 10
-132.0520703120616
 20
174.3499875
 30
0.0
 11
-132.1218852543877
 21
166.3499875
 31
0.0
  0
LINE
  5
13E
  8
2
  6
CONTINUOUS
 62
     7
 10
-131.4606462227225
 20
166.3499875
 30
0.0
 11
-131.5304611650485
 21
174.3499875
 31
0.0
  0
LINE
  5
13F
  8
2
  6
CONTINUOUS
 62
     7
 10
-138.7461817514013
 20
174.3499875
 30
0.0
 11
-138.8159966937273
 21
166.3499875
 31
0.0
  0
ENDBLK
  8
0
  0
ENDSEC
  0
SECTION
  2
ENTITIES
  0
INSERT
  5
A9
  8
2
  6
CONTINUOUS
 62
     7
  2
D_FRAME_VIEW_17676
 10
0.0
 20
0.0
 30
0.0
  0
INSERT
  5
EB
  8
2
  6
CONTINUOUS
 62
     7
  2
D_FRAME_VIEW_17612
 10
0.0
 20
0.0
 30
0.0
  0
TEXT
  5
EC
  8
2
  6
CONTINUOUS
 62
     7
 10
-67.55543460130075
 20
75.01172042428966
 30
0.0
 40
3.0
  1
GGDL-40T
  0
INSERT
  5
140
  8
2
  6
CONTINUOUS
 62
     7
  2
D_FRAME_VIEW_17456
 10
0.0
 20
0.0
 30
0.0
  0
ENDSEC
  0
EOF
