  0
SECTION
  2
HEADER
  9
$ACADVER
  1
AC1004
  9
$INSBASE
 10
0.0
 20
0.0
  9
$EXTMIN
 10
51.74999999999997
 20
89.79318181818184
  9
$EXTMAX
 10
172.25
 20
195.0
  9
$LIMMIN
 10
0.0
 20
0.0
  9
$LIMMAX
 10
12.0
 20
9.0
  9
$ORTHOMODE
 70
     0
  9
$REGENMODE
 70
     1
  9
$FILLMODE
 70
     1
  9
$QTEXTMODE
 70
     0
  9
$DRAGMODE
 70
     2
  9
$LTSCALE
 40
1.0
  9
$OSMODE
 70
    37
  9
$ATTMODE
 70
     1
  9
$TEXTSIZE
 40
0.2
  9
$TRACEWID
 40
0.05
  9
$TEXTSTYLE
  7
STANDARD
  9
$CLAYER
  8
0
  9
$CELTYPE
  6
BYLAYER
  9
$CECOLOR
 62
   256
  9
$DIMSCALE
 40
1.0
  9
$DIMASZ
 40
3.0
  9
$DIMEXO
 40
0.0625
  9
$DIMDLI
 40
0.38
  9
$DIMRND
 40
0.0
  9
$DIMDLE
 40
0.0
  9
$DIMEXE
 40
1.5
  9
$DIMTP
 40
0.0
  9
$DIMTM
 40
0.0
  9
$DIMTXT
 40
3.0
  9
$DIMCEN
 40
0.09
  9
$DIMTSZ
 40
0.0
  9
$DIMTOL
 70
     0
  9
$DIMLIM
 70
     0
  9
$DIMTIH
 70
     1
  9
$DIMTOH
 70
     1
  9
$DIMSE1
 70
     0
  9
$DIMSE2
 70
     0
  9
$DIMTAD
 70
     1
  9
$DIMZIN
 70
     0
  9
$DIMBLK
  1

  9
$DIMASO
 70
     1
  9
$DIMSHO
 70
     1
  9
$DIMPOST
  1

  9
$DIMAPOST
  1

  9
$DIMALT
 70
     0
  9
$DIMALTD
 70
     2
  9
$DIMALTF
 40
25.4
  9
$DIMLFAC
 40
1.0
  9
$DIMTOFL
 70
     0
  9
$DIMTVP
 40
0.0
  9
$DIMTIX
 70
     0
  9
$DIMSOXD
 70
     0
  9
$DIMSAH
 70
     0
  9
$DIMBLK1
  1

  9
$DIMBLK2
  1

  9
$LUNITS
 70
     2
  9
$LUPREC
 70
     4
  9
$SKETCHINC
 40
0.1
  9
$FILLETRAD
 40
0.5
  9
$AUNITS
 70
     0
  9
$AUPREC
 70
     0
  9
$MENU
  1
.
  9
$ELEVATION
 40
0.0
  9
$THICKNESS
 40
0.0
  9
$LIMCHECK
 70
     0
  9
$CHAMFERA
 40
0.0
  9
$CHAMFERB
 40
0.0
  9
$SKPOLY
 70
     0
  9
$TDCREATE
 40
2460131.422556574
  9
$TDUPDATE
 40
2460131.422556655
  9
$TDINDWG
 40
0.0000000116
  9
$TDUSRTIMER
 40
0.0000000116
  9
$USRTIMER
 70
     1
  9
$ANGBASE
 50
0.0
  9
$ANGDIR
 70
     0
  9
$PDMODE
 70
     0
  9
$PDSIZE
 40
0.0
  9
$PLINEWID
 40
0.0
  9
$COORDS
 70
     1
  9
$SPLFRAME
 70
     0
  9
$SPLINETYPE
 70
     6
  9
$SPLINESEGS
 70
     8
  9
$ATTDIA
 70
     0
  9
$ATTREQ
 70
     1
  9
$SURFTAB1
 70
     6
  9
$SURFTAB2
 70
     6
  9
$SURFTYPE
 70
     6
  9
$SURFU
 70
     6
  9
$SURFV
 70
     6
  9
$UCSNAME
  2

  9
$UCSORG
 10
0.0
 20
0.0
 30
0.0
  9
$UCSXDIR
 10
1.0
 20
0.0
 30
0.0
  9
$UCSYDIR
 10
0.0
 20
1.0
 30
0.0
  9
$USERI1
 70
     0
  9
$USERI2
 70
     0
  9
$USERI3
 70
     0
  9
$USERI4
 70
     0
  9
$USERI5
 70
     0
  9
$USERR1
 40
0.0
  9
$USERR2
 40
0.0
  9
$USERR3
 40
0.0
  9
$USERR4
 40
0.0
  9
$USERR5
 40
0.0
  9
$WORLDVIEW
 70
     1
  0
ENDSEC
  0
SECTION
  2
TABLES
  0
TABLE
  2
LTYPE
 70
     3
  0
LTYPE
  2
CONTINUOUS
 70
     0
  3
Solid line
 72
    65
 73
     0
 40
0.0
  0
LTYPE
  2
DOT
 70
     0
  3

 72
    65
 73
     0
 40
0.0
  0
LTYPE
  2
CENTER
 70
     0
  3

 72
    65
 73
     0
 40
0.0
  0
ENDTAB
  0
TABLE
  2
LAYER
 70
     1
  0
LAYER
  2
0
 70
     0
 62
     7
  6
CONTINUOUS
  0
ENDTAB
  0
TABLE
  2
STYLE
 70
     2
  0
STYLE
  2
STANDARD
 70
     0
 40
0.0
 41
1.0
 50
0.0
 71
     0
 42
0.2
  3
txt
  4

  0
STYLE
  2
ＭＳ_ゴシック
 70
     0
 40
0.0
 41
1.0
 50
0.0
 71
     0
 42
0.2
  3
ＭＳ ゴシック.shx
  4

  0
ENDTAB
  0
TABLE
  2
VIEW
 70
     0
  0
ENDTAB
  0
ENDSEC
  0
SECTION
  2
BLOCKS
  0
BLOCK
  8
0
  2
D_FRAME_VIEW_9807
 70
     0
 10
0.0
 20
0.0
  0
LINE
  8
0
  6
CONTINUOUS
 62
     7
 10
59.19327535936005
 20
120.4027030812165
 11
57.30036796147299
 21
120.4027030812165
  0
LINE
  8
0
  6
CONTINUOUS
 62
     7
 10
57.17210548010652
 20
126.9027030812165
 11
59.08216150713239
 21
126.9027030812165
  0
LINE
  8
0
  6
CONTINUOUS
 62
     7
 10
56.68706630664627
 20
132.3780419440443
 11
57.12395515403599
 21
126.9027030812165
  0
LINE
  8
0
  6
CONTINUOUS
 62
     7
 10
57.12395515403599
 20
126.9027030812165
 11
57.17210548010652
 21
126.9027030812165
  0
LINE
  8
0
  6
CONTINUOUS
 62
     7
 10
71.4570988951949
 20
103.4027030812165
 11
82.04290110480505
 21
103.4027030812165
  0
LINE
  8
0
  6
CONTINUOUS
 62
     7
 10
82.34240956907031
 20
118.3500469104678
 11
82.39644103316857
 21
103.4027030812165
  0
LINE
  8
0
  6
CONTINUOUS
 62
     7
 10
82.39644103316857
 20
103.4027030812165
 11
82.04290110480505
 21
103.4027030812165
  0
LINE
  8
0
  6
CONTINUOUS
 62
     7
 10
71.1035589668314
 20
103.4027030812165
 11
71.16136293188866
 21
119.3936771335495
  0
LINE
  8
0
  6
CONTINUOUS
 62
     7
 10
71.4570988951949
 20
103.4027030812165
 11
71.1035589668314
 21
103.4027030812165
  0
LINE
  8
0
  6
CONTINUOUS
 62
     7
 10
69.39644103316856
 20
103.4027030812165
 11
71.1035589668314
 21
103.4027030812165
  0
LINE
  8
0
  6
CONTINUOUS
 62
     7
 10
82.39644103316857
 20
103.4027030812165
 11
84.10355896683141
 21
103.4027030812165
  0
LINE
  8
0
  6
CONTINUOUS
 62
     7
 10
69.04290110480504
 20
103.4027030812165
 11
69.39644103316856
 21
103.4027030812165
  0
LINE
  8
0
  6
CONTINUOUS
 62
     7
 10
84.10355896683141
 20
103.4027030812165
 11
84.4570988951949
 21
103.4027030812165
  0
LINE
  8
0
  6
CONTINUOUS
 62
     7
 10
84.4570988951949
 20
103.4027030812165
 11
89.9114755314713
 21
103.4027030812165
  0
LINE
  8
0
  6
CONTINUOUS
 62
     7
 10
54.673286561531
 20
109.5004860515692
 11
54.67241484583084
 21
106.6400472114976
  0
ARC
  8
0
  6
CONTINUOUS
 62
     7
 10
49.24999999999999
 20
117.9027030812165
 40
12.5
 50
295.7085273683318
 51
0.0
  0
LINE
  8
0
  6
CONTINUOUS
 62
     7
 10
54.38602215169231
 20
118.8544473671124
 11
58.85294578542621
 21
117.2284883484031
  0
POLYLINE
  8
0
  6
CONTINUOUS
 62
     7
 66
     1
  0
VERTEX
  8
0
  6
CONTINUOUS
 62
     7
 10
59.17824118877573
 20
116.6984275739449
  0
VERTEX
  8
0
  6
CONTINUOUS
 62
     7
 10
59.18031371878603
 20
116.7190982872524
  0
VERTEX
  8
0
  6
CONTINUOUS
 62
     7
 10
59.1815269540428
 20
116.7398551741023
  0
VERTEX
  8
0
  6
CONTINUOUS
 62
     7
 10
59.181878856212
 20
116.7606445057045
  0
VERTEX
  8
0
  6
CONTINUOUS
 62
     7
 10
59.18136738695959
 20
116.781412553269
  0
VERTEX
  8
0
  6
CONTINUOUS
 62
     7
 10
59.17993736961326
 20
116.802742222196
  0
VERTEX
  8
0
  6
CONTINUOUS
 62
     7
 10
59.17759481539169
 20
116.8240107433709
  0
VERTEX
  8
0
  6
CONTINUOUS
 62
     7
 10
59.17434736292596
 20
116.8451600207224
  0
VERTEX
  8
0
  6
CONTINUOUS
 62
     7
 10
59.1702026508472
 20
116.8661319581793
  0
VERTEX
  8
0
  6
CONTINUOUS
 62
     7
 10
59.16531617650087
 20
116.8863235079073
  0
VERTEX
  8
0
  6
CONTINUOUS
 62
     7
 10
59.15959019519534
 20
116.9063119317928
  0
VERTEX
  8
0
  6
CONTINUOUS
 62
     7
 10
59.15304057182171
 20
116.9260458392761
  0
VERTEX
  8
0
  6
CONTINUOUS
 62
     7
 10
59.14568317127106
 20
116.9454738397977
  0
VERTEX
  8
0
  6
CONTINUOUS
 62
     7
 10
59.13727288672965
 20
116.9651278794373
  0
VERTEX
  8
0
  6
CONTINUOUS
 62
     7
 10
59.12802160989929
 20
116.9844221017564
  0
VERTEX
  8
0
  6
CONTINUOUS
 62
     7
 10
59.11795579142879
 20
117.003304198657
  0
VERTEX
  8
0
  6
CONTINUOUS
 62
     7
 10
59.10710188196701
 20
117.0217218620414
  0
VERTEX
  8
0
  6
CONTINUOUS
 62
     7
 10
59.095807639729
 20
117.0391554836951
  0
VERTEX
  8
0
  6
CONTINUOUS
 62
     7
 10
59.08378852922232
 20
117.0561195685881
  0
VERTEX
  8
0
  6
CONTINUOUS
 62
     7
 10
59.07107653617391
 20
117.07257088154
  0
VERTEX
  8
0
  6
CONTINUOUS
 62
     7
 10
59.05770364631074
 20
117.0884661873706
  0
VERTEX
  8
0
  6
CONTINUOUS
 62
     7
 10
59.0432625082057
 20
117.1042262675072
  0
VERTEX
  8
0
  6
CONTINUOUS
 62
     7
 10
59.02814699001819
 20
117.1193684892455
  0
VERTEX
  8
0
  6
CONTINUOUS
 62
     7
 10
59.01239936869706
 20
117.1338522614068
  0
VERTEX
  8
0
  6
CONTINUOUS
 62
     7
 10
58.99606192119115
 20
117.1476369928126
  0
VERTEX
  8
0
  6
CONTINUOUS
 62
     7
 10
58.97997480309629
 20
117.1600954523264
  0
VERTEX
  8
0
  6
CONTINUOUS
 62
     7
 10
58.96338025892654
 20
117.1718987766408
  0
VERTEX
  8
0
  6
CONTINUOUS
 62
     7
 10
58.94632006779727
 20
117.1830185082595
  0
VERTEX
  8
0
  6
CONTINUOUS
 62
     7
 10
58.92883600882384
 20
117.1934261896865
  0
VERTEX
  8
0
  6
CONTINUOUS
 62
     7
 10
58.91043805670019
 20
117.2033699070087
  0
VERTEX
  8
0
  6
CONTINUOUS
 62
     7
 10
58.89162381790345
 20
117.2125435159769
  0
VERTEX
  8
0
  6
CONTINUOUS
 62
     7
 10
58.8724431187175
 20
117.2209240014791
  0
VERTEX
  8
0
  6
CONTINUOUS
 62
     7
 10
58.85294578542621
 20
117.2284883484031
  0
SEQEND
  8
0
  6
CONTINUOUS
 62
     7
  0
ARC
  8
0
  6
CONTINUOUS
 62
     7
 10
49.24999999999999
 20
117.9034647475364
 40
10.001104352218
 50
302.8382178791344
 51
353.0795935550318
  0
LINE
  8
0
  6
CONTINUOUS
 62
     7
 10
52.24998096153206
 20
103.4027030812165
 11
63.4820899594509
 21
103.4027030812165
  0
LINE
  8
0
  6
CONTINUOUS
 62
     7
 10
51.74999999999998
 20
103.4027030812165
 11
52.00261435406684
 21
132.3494409170256
  0
LINE
  8
0
  6
CONTINUOUS
 62
     7
 10
52.24998096153206
 20
103.4027030812165
 11
51.74999999999998
 21
103.4027030812165
  0
LINE
  8
0
  6
CONTINUOUS
 62
     7
 10
63.4820899594509
 20
103.4027030812165
 11
69.04290110480504
 21
103.4027030812165
  0
ARC
  8
0
  6
CONTINUOUS
 62
     7
 10
114.75
 20
119.4027030812165
 40
23.49999999999999
 50
90.0
 51
180.0000000000018
  0
LINE
  8
0
  6
CONTINUOUS
 62
     7
 10
91.24999999999999
 20
119.4027030812158
 11
91.11037011534783
 21
103.4027030812165
  0
LINE
  8
0
  6
CONTINUOUS
 62
     7
 10
91.11037011534785
 20
103.4027030812165
 11
90.61042722857678
 21
103.4027030812165
  0
LINE
  8
0
  6
CONTINUOUS
 62
     7
 10
89.9114755314713
 20
103.4027030812165
 11
90.61042722857678
 21
103.4027030812165
  0
ARC
  8
0
  6
CONTINUOUS
 62
     7
 10
115.25
 20
142.9027030812165
 40
0.5000000000000004
 50
180.0000000000008
 51
270.0
  0
ARC
  8
0
  6
CONTINUOUS
 62
     7
 10
88.24999999999999
 20
121.4127070844197
 40
0.4999999999999901
 50
0.0
 51
128.6821874534897
  0
ARC
  8
0
  6
CONTINUOUS
 62
     7
 10
55.50248108479143
 20
132.3188980427813
 40
3.500000000000002
 50
69.99999999999996
 51
179.5
  0
LINE
  8
0
  6
CONTINUOUS
 62
     7
 10
162.2325396152541
 20
144.4027030812165
 11
166.6336606055926
 21
144.4027030812165
  0
ARC
  8
0
  6
CONTINUOUS
 62
     7
 10
171.95
 20
143.9027030812165
 40
0.2999999999999947
 50
269.9999999999972
 51
359.9999999999993
  0
ARC
  8
0
  6
CONTINUOUS
 62
     7
 10
171.75
 20
143.9027030812165
 40
0.5000000000000004
 50
0.0
 51
90.0
  0
LINE
  8
0
  6
CONTINUOUS
 62
     7
 10
166.6336606055926
 20
144.4027030812165
 11
171.75
 21
144.4027030812165
  0
LINE
  8
0
  6
CONTINUOUS
 62
     7
 10
60.74999999999999
 20
123.4027030812165
 11
60.74999999999999
 21
124.4027030812165
  0
LINE
  8
0
  6
CONTINUOUS
 62
     7
 10
59.24999999999998
 20
123.4027030812165
 11
60.74999999999999
 21
123.4027030812165
  0
ENDBLK
  8
0
  0
BLOCK
  8
0
  2
D_FRAME_VIEW_15295
 70
     0
 10
0.0
 20
0.0
  0
LINE
  8
0
  6
CONTINUOUS
 62
     7
 10
162.25
 20
173.5
 11
119.6155881787881
 21
173.5
  0
LINE
  8
0
  6
CONTINUOUS
 62
     7
 10
166.6685388424647
 20
173.8089743347022
 11
164.6709269421232
 21
173.6692877030108
  0
LINE
  8
0
  6
CONTINUOUS
 62
     7
 10
164.6709269421232
 20
173.6692877030108
 11
162.25
 21
173.5
  0
LINE
  8
0
  6
CONTINUOUS
 62
     7
 10
172.25
 20
183.2056413637389
 11
172.25
 21
179.7943586362611
  0
ARC
  8
0
  6
CONTINUOUS
 62
     7
 10
166.25
 20
179.7943586362611
 40
6.000000000000005
 50
273.9999999999999
 51
0.0
  0
LINE
  8
0
  6
CONTINUOUS
 62
     7
 10
119.6155881787881
 20
189.5
 11
162.25
 21
189.5
  0
ARC
  8
0
  6
CONTINUOUS
 62
     7
 10
119.6155881787881
 20
192.0
 40
2.500000000000014
 50
231.8046839425043
 51
270.0
  0
ARC
  8
0
  6
CONTINUOUS
 62
     7
 10
166.25
 20
183.2056413637389
 40
5.999999999999981
 50
0.0
 51
86.00000000000006
  0
ARC
  8
0
  6
CONTINUOUS
 62
     7
 10
115.4037647284847
 20
172.1396298846522
 40
1.000000000000005
 50
270.0
 51
308.1953160574957
  0
LINE
  8
0
  6
CONTINUOUS
 62
     7
 10
118.0697278054923
 20
172.9647686139273
 11
116.0221088778031
 21
171.3537224390812
  0
LINE
  8
0
  6
CONTINUOUS
 62
     7
 10
116.0221088778031
 20
191.6462775609188
 11
118.0697278054923
 21
190.0352313860727
  0
ARC
  8
0
  6
CONTINUOUS
 62
     7
 10
115.4037647284847
 20
190.8603701153479
 40
1.000000000000001
 50
51.80468394250431
 51
90.0
  0
ARC
  8
0
  6
CONTINUOUS
 62
     7
 10
119.6155881787881
 20
171.0
 40
2.500000000000002
 50
90.0
 51
128.1953160574957
  0
LINE
  8
0
  6
CONTINUOUS
 62
     7
 10
162.25
 20
189.5
 11
164.6709269421232
 21
189.3307122969892
  0
LINE
  8
0
  6
CONTINUOUS
 62
     7
 10
164.6709269421232
 20
189.3307122969892
 11
166.6685388424647
 21
189.1910256652979
  0
LINE
  8
0
  6
CONTINUOUS
 62
     7
 10
119.6047946901002
 20
173.5
 11
119.6155881787881
 21
173.5
  0
LINE
  8
0
  6
CONTINUOUS
 62
     9
 10
54.03341508907136
 20
189.5
 11
54.03341508907136
 21
173.5
  0
LINE
  8
0
  6
CONTINUOUS
 62
     9
 10
62.77217229308568
 20
180.4659597133487
 11
62.77217229308568
 21
171.758722687645
  0
LINE
  8
0
  6
CONTINUOUS
 62
     9
 10
62.77217229308568
 20
191.241277312355
 11
62.77217229308568
 21
182.5340402866513
  0
POLYLINE
  8
0
  6
CONTINUOUS
 62
     7
 66
     1
  0
VERTEX
  8
0
  6
CONTINUOUS
 62
     7
 10
63.19346403646511
 20
180.9583635898548
  0
VERTEX
  8
0
  6
CONTINUOUS
 62
     7
 10
63.17441720505651
 20
180.9547830474852
  0
VERTEX
  8
0
  6
CONTINUOUS
 62
     7
 10
63.15513925026215
 20
180.9504151844845
  0
VERTEX
  8
0
  6
CONTINUOUS
 62
     7
 10
63.13566736907413
 20
180.945218006374
  0
VERTEX
  8
0
  6
CONTINUOUS
 62
     7
 10
63.1160425815942
 20
180.9391504629904
  0
VERTEX
  8
0
  6
CONTINUOUS
 62
     7
 10
63.09630983054523
 20
180.9321727440859
  0
VERTEX
  8
0
  6
CONTINUOUS
 62
     7
 10
63.0765180632911
 20
180.924246595286
  0
VERTEX
  8
0
  6
CONTINUOUS
 62
     7
 10
63.05672029391069
 20
180.915335654087
  0
VERTEX
  8
0
  6
CONTINUOUS
 62
     7
 10
63.03697364276811
 20
180.9054058053495
  0
VERTEX
  8
0
  6
CONTINUOUS
 62
     7
 10
63.0212541427182
 20
180.8967070512484
  0
VERTEX
  8
0
  6
CONTINUOUS
 62
     7
 10
63.00563972342342
 20
180.8873212278562
  0
VERTEX
  8
0
  6
CONTINUOUS
 62
     7
 10
62.9901653043483
 20
180.8772349475977
  0
VERTEX
  8
0
  6
CONTINUOUS
 62
     7
 10
62.97486745273039
 20
180.8664363273137
  0
VERTEX
  8
0
  6
CONTINUOUS
 62
     7
 10
62.9597843523962
 20
180.854915129046
  0
VERTEX
  8
0
  6
CONTINUOUS
 62
     7
 10
62.94495576276865
 20
180.8426629039271
  0
VERTEX
  8
0
  6
CONTINUOUS
 62
     7
 10
62.9304229674808
 20
180.8296731386654
  0
VERTEX
  8
0
  6
CONTINUOUS
 62
     7
 10
62.91622871202109
 20
180.8159414040519
  0
VERTEX
  8
0
  6
CONTINUOUS
 62
     7
 10
62.90241712985017
 20
180.801465504855
  0
VERTEX
  8
0
  6
CONTINUOUS
 62
     7
 10
62.88903365644999
 20
180.7862456303998
  0
VERTEX
  8
0
  6
CONTINUOUS
 62
     7
 10
62.8769697910585
 20
180.7713715475961
  0
VERTEX
  8
0
  6
CONTINUOUS
 62
     7
 10
62.86535825405018
 20
180.7558560488714
  0
VERTEX
  8
0
  6
CONTINUOUS
 62
     7
 10
62.85423856652338
 20
180.7397055972311
  0
VERTEX
  8
0
  6
CONTINUOUS
 62
     7
 10
62.84728145245635
 20
180.7288532530743
  0
VERTEX
  8
0
  6
CONTINUOUS
 62
     7
 10
62.84065099879497
 20
180.7178952198882
  0
VERTEX
  8
0
  6
CONTINUOUS
 62
     7
 10
62.83412450825357
 20
180.7064416957853
  0
VERTEX
  8
0
  6
CONTINUOUS
 62
     7
 10
62.82415214791764
 20
180.6874264067277
  0
VERTEX
  8
0
  6
CONTINUOUS
 62
     7
 10
62.81463624723263
 20
180.6671509841833
  0
VERTEX
  8
0
  6
CONTINUOUS
 62
     7
 10
62.80570888900079
 20
180.6456032726969
  0
VERTEX
  8
0
  6
CONTINUOUS
 62
     7
 10
62.79937424259025
 20
180.6282898618014
  0
VERTEX
  8
0
  6
CONTINUOUS
 62
     7
 10
62.79352892281776
 20
180.6102357421331
  0
VERTEX
  8
0
  6
CONTINUOUS
 62
     7
 10
62.78824005638656
 20
180.5914479691822
  0
VERTEX
  8
0
  6
CONTINUOUS
 62
     7
 10
62.78357680231994
 20
180.5719380274731
  0
VERTEX
  8
0
  6
CONTINUOUS
 62
     7
 10
62.77961012168007
 20
180.5517222065282
  0
VERTEX
  8
0
  6
CONTINUOUS
 62
     7
 10
62.77646243700715
 20
180.531201048677
  0
VERTEX
  8
0
  6
CONTINUOUS
 62
     7
 10
62.77412641500297
 20
180.5100452423348
  0
VERTEX
  8
0
  6
CONTINUOUS
 62
     7
 10
62.77267268117534
 20
180.4882858390307
  0
VERTEX
  8
0
  6
CONTINUOUS
 62
     7
 10
62.77217229308568
 20
180.4659597133487
  0
SEQEND
  8
0
  6
CONTINUOUS
 62
     7
  0
POLYLINE
  8
0
  6
CONTINUOUS
 62
     7
 66
     1
  0
VERTEX
  8
0
  6
CONTINUOUS
 62
     7
 10
63.19346403646511
 20
182.0416364101452
  0
VERTEX
  8
0
  6
CONTINUOUS
 62
     7
 10
63.17492662850071
 20
182.0451119261094
  0
VERTEX
  8
0
  6
CONTINUOUS
 62
     7
 10
63.1561305895049
 20
182.0493421982502
  0
VERTEX
  8
0
  6
CONTINUOUS
 62
     7
 10
63.13711129098781
 20
182.0543703624468
  0
VERTEX
  8
0
  6
CONTINUOUS
 62
     7
 10
63.11790792735047
 20
182.0602388178434
  0
VERTEX
  8
0
  6
CONTINUOUS
 62
     7
 10
63.09856363483956
 20
182.0669889353662
  0
VERTEX
  8
0
  6
CONTINUOUS
 62
     7
 10
63.07912559416728
 20
182.0746607444193
  0
VERTEX
  8
0
  6
CONTINUOUS
 62
     7
 10
63.05964511424963
 20
182.0832925978933
  0
VERTEX
  8
0
  6
CONTINUOUS
 62
     7
 10
63.04017769438983
 20
182.0929208158373
  0
VERTEX
  8
0
  6
CONTINUOUS
 62
     7
 10
63.0246531561549
 20
182.1013636512393
  0
VERTEX
  8
0
  6
CONTINUOUS
 62
     7
 10
63.00920765482966
 20
182.1104820038126
  0
VERTEX
  8
0
  6
CONTINUOUS
 62
     7
 10
62.99387545637311
 20
182.12029067627
  0
VERTEX
  8
0
  6
CONTINUOUS
 62
     7
 10
62.97869254453427
 20
182.1308030462281
  0
VERTEX
  8
0
  6
CONTINUOUS
 62
     7
 10
62.96369659779338
 20
182.1420309217218
  0
VERTEX
  8
0
  6
CONTINUOUS
 62
     7
 10
62.94892695646401
 20
182.1539843928948
  0
VERTEX
  8
0
  6
CONTINUOUS
 62
     7
 10
62.93442457931164
 20
182.1666716803514
  0
VERTEX
  8
0
  6
CONTINUOUS
 62
     7
 10
62.92023198905018
 20
182.1800989807189
  0
VERTEX
  8
0
  6
CONTINUOUS
 62
     7
 10
62.90639320608837
 20
182.1942703100403
  0
VERTEX
  8
0
  6
CONTINUOUS
 62
     7
 10
62.89295366991436
 20
182.2091873456854
  0
VERTEX
  8
0
  6
CONTINUOUS
 62
     7
 10
62.8825208840947
 20
182.2216574196121
  0
VERTEX
  8
0
  6
CONTINUOUS
 62
     7
 10
62.87239803693401
 20
182.2346026351418
  0
VERTEX
  8
0
  6
CONTINUOUS
 62
     7
 10
62.86261010426804
 20
182.2480202159773
  0
VERTEX
  8
0
  6
CONTINUOUS
 62
     7
 10
62.85318248209623
 20
182.2619061948407
  0
VERTEX
  8
0
  6
CONTINUOUS
 62
     7
 10
62.8441409403672
 20
182.2762553629115
  0
VERTEX
  8
0
  6
CONTINUOUS
 62
     7
 10
62.83870298129776
 20
182.285445783301
  0
VERTEX
  8
0
  6
CONTINUOUS
 62
     7
 10
62.83331938719708
 20
182.2950157139595
  0
VERTEX
  8
0
  6
CONTINUOUS
 62
     7
 10
62.82365747517933
 20
182.3135628762058
  0
VERTEX
  8
0
  6
CONTINUOUS
 62
     7
 10
62.81437598015553
 20
182.3334287112221
  0
VERTEX
  8
0
  6
CONTINUOUS
 62
     7
 10
62.80561396776987
 20
182.3546314059742
  0
VERTEX
  8
0
  6
CONTINUOUS
 62
     7
 10
62.79936418660483
 20
182.3717285113078
  0
VERTEX
  8
0
  6
CONTINUOUS
 62
     7
 10
62.79357251798502
 20
182.3896099494491
  0
VERTEX
  8
0
  6
CONTINUOUS
 62
     7
 10
62.78831080293875
 20
182.4082710005939
  0
VERTEX
  8
0
  6
CONTINUOUS
 62
     7
 10
62.78365339170307
 20
182.4277022711631
  0
VERTEX
  8
0
  6
CONTINUOUS
 62
     7
 10
62.77967690891345
 20
182.4478892466749
  0
VERTEX
  8
0
  6
CONTINUOUS
 62
     7
 10
62.77651029250445
 20
182.4684319147979
  0
VERTEX
  8
0
  6
CONTINUOUS
 62
     7
 10
62.77415237006995
 20
182.489659503183
  0
VERTEX
  8
0
  6
CONTINUOUS
 62
     7
 10
62.77268036771796
 20
182.5115413247189
  0
VERTEX
  8
0
  6
CONTINUOUS
 62
     7
 10
62.77217229308568
 20
182.5340402866513
  0
SEQEND
  8
0
  6
CONTINUOUS
 62
     7
  0
LINE
  8
0
  6
CONTINUOUS
 62
     7
 10
63.93985298810008
 20
181.0860685830918
 11
63.19346403646512
 21
180.9583635898548
  0
LINE
  8
0
  6
CONTINUOUS
 62
     7
 10
63.19346403646511
 20
182.0416364101453
 11
63.93985298810008
 21
181.9139314169082
  0
LINE
  8
0
  6
CONTINUOUS
 62
     7
 10
65.47601571675179
 20
181.8937124365505
 11
64.0704300226508
 21
181.8937124365505
  0
LINE
  8
0
  6
CONTINUOUS
 62
     7
 10
63.93985298810009
 20
181.9139314169082
 11
64.07043002265078
 21
181.8937124365505
  0
LINE
  8
0
  6
CONTINUOUS
 62
     7
 10
64.07043002265078
 20
181.1062875634495
 11
63.93985298810008
 21
181.0860685830918
  0
LINE
  8
0
  6
CONTINUOUS
 62
     7
 10
64.07043002265077
 20
181.1062875634495
 11
65.47601571675176
 21
181.1062875634495
  0
LINE
  8
0
  6
CONTINUOUS
 62
     7
 10
64.31714656886054
 20
181.5982701106468
 11
64.31714656886054
 21
181.4017298893532
  0
POLYLINE
  8
0
  6
CONTINUOUS
 62
     7
 66
     1
  0
VERTEX
  8
0
  6
CONTINUOUS
 62
     7
 10
64.07043002265078
 20
181.1062875634496
  0
VERTEX
  8
0
  6
CONTINUOUS
 62
     7
 10
64.12766205844066
 20
181.12246776476
  0
VERTEX
  8
0
  6
CONTINUOUS
 62
     7
 10
64.18056865763727
 20
181.149722112408
  0
VERTEX
  8
0
  6
CONTINUOUS
 62
     7
 10
64.22705180776366
 20
181.1869698345753
  0
VERTEX
  8
0
  6
CONTINUOUS
 62
     7
 10
64.26526821837189
 20
181.2327338719341
  0
VERTEX
  8
0
  6
CONTINUOUS
 62
     7
 10
64.29370241677051
 20
181.2851994504708
  0
VERTEX
  8
0
  6
CONTINUOUS
 62
     7
 10
64.31122684413103
 20
181.3422860463934
  0
VERTEX
  8
0
  6
CONTINUOUS
 62
     7
 10
64.31714656886054
 20
181.4017298893532
  0
SEQEND
  8
0
  6
CONTINUOUS
 62
     7
  0
POLYLINE
  8
0
  6
CONTINUOUS
 62
     7
 66
     1
  0
VERTEX
  8
0
  6
CONTINUOUS
 62
     7
 10
64.31714656886054
 20
181.5982701106468
  0
VERTEX
  8
0
  6
CONTINUOUS
 62
     7
 10
64.31122684413103
 20
181.6577139536066
  0
VERTEX
  8
0
  6
CONTINUOUS
 62
     7
 10
64.29370241677051
 20
181.7148005495293
  0
VERTEX
  8
0
  6
CONTINUOUS
 62
     7
 10
64.26526821837189
 20
181.7672661280659
  0
VERTEX
  8
0
  6
CONTINUOUS
 62
     7
 10
64.22705180776366
 20
181.8130301654247
  0
VERTEX
  8
0
  6
CONTINUOUS
 62
     7
 10
64.18056865763727
 20
181.8502778875921
  0
VERTEX
  8
0
  6
CONTINUOUS
 62
     7
 10
64.12766205844066
 20
181.8775322352401
  0
VERTEX
  8
0
  6
CONTINUOUS
 62
     7
 10
64.07043002265078
 20
181.8937124365505
  0
SEQEND
  8
0
  6
CONTINUOUS
 62
     7
  0
POLYLINE
  8
0
  6
CONTINUOUS
 62
     7
 66
     1
  0
VERTEX
  8
0
  6
CONTINUOUS
 62
     7
 10
65.69827586206894
 20
181.5982701106468
  0
VERTEX
  8
0
  6
CONTINUOUS
 62
     7
 10
65.69294294500752
 20
181.6577139536066
  0
VERTEX
  8
0
  6
CONTINUOUS
 62
     7
 10
65.67715567077892
 20
181.7148005495292
  0
VERTEX
  8
0
  6
CONTINUOUS
 62
     7
 10
65.65154008412635
 20
181.7672661280659
  0
VERTEX
  8
0
  6
CONTINUOUS
 62
     7
 10
65.61711197176106
 20
181.8130301654247
  0
VERTEX
  8
0
  6
CONTINUOUS
 62
     7
 10
65.5752365813156
 20
181.8502778875921
  0
VERTEX
  8
0
  6
CONTINUOUS
 62
     7
 10
65.52757448241577
 20
181.8775322352401
  0
VERTEX
  8
0
  6
CONTINUOUS
 62
     7
 10
65.47601571675177
 20
181.8937124365505
  0
SEQEND
  8
0
  6
CONTINUOUS
 62
     7
  0
POLYLINE
  8
0
  6
CONTINUOUS
 62
     7
 66
     1
  0
VERTEX
  8
0
  6
CONTINUOUS
 62
     7
 10
65.47601571675177
 20
181.1062875634496
  0
VERTEX
  8
0
  6
CONTINUOUS
 62
     7
 10
65.52757448241577
 20
181.12246776476
  0
VERTEX
  8
0
  6
CONTINUOUS
 62
     7
 10
65.5752365813156
 20
181.149722112408
  0
VERTEX
  8
0
  6
CONTINUOUS
 62
     7
 10
65.61711197176106
 20
181.1869698345753
  0
VERTEX
  8
0
  6
CONTINUOUS
 62
     7
 10
65.65154008412635
 20
181.2327338719341
  0
VERTEX
  8
0
  6
CONTINUOUS
 62
     7
 10
65.67715567077892
 20
181.2851994504708
  0
VERTEX
  8
0
  6
CONTINUOUS
 62
     7
 10
65.69294294500752
 20
181.3422860463934
  0
VERTEX
  8
0
  6
CONTINUOUS
 62
     7
 10
65.69827586206894
 20
181.4017298893532
  0
SEQEND
  8
0
  6
CONTINUOUS
 62
     7
  0
LINE
  8
0
  6
CONTINUOUS
 62
     7
 10
65.69827586206895
 20
181.4017298893532
 11
65.69827586206895
 21
181.5982701106468
  0
POLYLINE
  8
0
  6
CONTINUOUS
 62
     7
 66
     1
  0
VERTEX
  8
0
  6
CONTINUOUS
 62
     7
 10
52.24998096153206
 20
192.0
  0
VERTEX
  8
0
  6
CONTINUOUS
 62
     7
 10
52.15243748628101
 20
191.9903932029196
  0
VERTEX
  8
0
  6
CONTINUOUS
 62
     7
 10
52.05864365296011
 20
191.9619419598222
  0
VERTEX
  8
0
  6
CONTINUOUS
 62
     7
 10
51.97220355762769
 20
191.9157395303548
  0
VERTEX
  8
0
  6
CONTINUOUS
 62
     7
 10
51.89643872362739
 20
191.8535612763726
  0
VERTEX
  8
0
  6
CONTINUOUS
 62
     7
 10
51.83426046964519
 20
191.7777964423723
  0
VERTEX
  8
0
  6
CONTINUOUS
 62
     7
 10
51.78805804017782
 20
191.6913563470399
  0
VERTEX
  8
0
  6
CONTINUOUS
 62
     7
 10
51.75960679708044
 20
191.597562513719
  0
VERTEX
  8
0
  6
CONTINUOUS
 62
     7
 10
51.74999999999996
 20
191.5000190384679
  0
SEQEND
  8
0
  6
CONTINUOUS
 62
     7
  0
POLYLINE
  8
0
  6
CONTINUOUS
 62
     7
 66
     1
  0
VERTEX
  8
0
  6
CONTINUOUS
 62
     7
 10
51.74999999999999
 20
171.4999809615321
  0
VERTEX
  8
0
  6
CONTINUOUS
 62
     7
 10
51.75960679708046
 20
171.402437486281
  0
VERTEX
  8
0
  6
CONTINUOUS
 62
     7
 10
51.78805804017784
 20
171.3086436529602
  0
VERTEX
  8
0
  6
CONTINUOUS
 62
     7
 10
51.83426046964521
 20
171.2222035576278
  0
VERTEX
  8
0
  6
CONTINUOUS
 62
     7
 10
51.8964387236274
 20
171.1464387236274
  0
VERTEX
  8
0
  6
CONTINUOUS
 62
     7
 10
51.97220355762771
 20
171.0842604696452
  0
VERTEX
  8
0
  6
CONTINUOUS
 62
     7
 10
52.05864365296013
 20
171.0380580401779
  0
VERTEX
  8
0
  6
CONTINUOUS
 62
     7
 10
52.15243748628101
 20
171.0096067970805
  0
VERTEX
  8
0
  6
CONTINUOUS
 62
     7
 10
52.24998096153207
 20
171.0
  0
SEQEND
  8
0
  6
CONTINUOUS
 62
     7
  0
LINE
  8
0
  6
CONTINUOUS
 62
     7
 10
51.79196028020942
 20
173.25
 11
51.75436343389536
 21
173.25
  0
LINE
  8
0
  6
CONTINUOUS
 62
     7
 10
59.18454849156929
 20
168.0
 11
57.30909482926374
 21
168.0
  0
LINE
  8
0
  6
CONTINUOUS
 62
     7
 10
57.07346939891325
 20
195.0
 11
59.42017392191978
 21
195.0
  0
CIRCLE
  8
0
  6
CONTINUOUS
 62
     7
 10
76.74999999999999
 20
181.5
 40
10.24999999999999
  0
LINE
  8
0
  6
CONTINUOUS
 62
     7
 10
88.75
 20
191.3428100369601
 11
88.75
 21
171.6571899630399
  0
LINE
  8
0
  6
CONTINUOUS
 62
     7
 10
90.1209278358205
 20
171.1396298846522
 11
90.11871511576291
 21
171.1396346858267
  0
LINE
  8
0
  6
CONTINUOUS
 62
     7
 10
89.9114755314713
 20
171.0
 11
90.74999999999996
 21
171.1396298846522
  0
LINE
  8
0
  6
CONTINUOUS
 62
     7
 10
84.4570988951949
 20
171.0
 11
89.9114755314713
 21
171.0
  0
LINE
  8
0
  6
CONTINUOUS
 62
     7
 10
90.11871511576291
 20
191.8603653141734
 11
90.1209278358205
 21
191.8603701153479
  0
LINE
  8
0
  6
CONTINUOUS
 62
     9
 10
89.25
 20
191.8646954715825
 11
89.25490243203608
 21
191.8646954715825
  0
LINE
  8
0
  6
CONTINUOUS
 62
     7
 10
84.19392460823249
 20
191.8646220286795
 11
84.1702070538581
 21
191.8635123317242
  0
LINE
  8
0
  6
CONTINUOUS
 62
     7
 10
84.24999999999999
 20
192.0
 11
89.9114755314713
 21
192.0
  0
LINE
  8
0
  6
CONTINUOUS
 62
     7
 10
89.9114755314713
 20
192.0
 11
90.74999999999997
 21
191.8603701153479
  0
POLYLINE
  8
0
  6
CONTINUOUS
 62
     7
 66
     1
  0
VERTEX
  8
0
  6
CONTINUOUS
 62
     7
 10
69.39644103316857
 20
170.8535589668314
  0
VERTEX
  8
0
  6
CONTINUOUS
 62
     7
 10
69.32067554258083
 20
170.9157381694145
  0
VERTEX
  8
0
  6
CONTINUOUS
 62
     7
 10
69.23423558473704
 20
170.9619413348693
  0
VERTEX
  8
0
  6
CONTINUOUS
 62
     7
 10
69.1404427327748
 20
170.9903930436207
  0
VERTEX
  8
0
  6
CONTINUOUS
 62
     7
 10
69.04290110480505
 20
171.0
  0
SEQEND
  8
0
  6
CONTINUOUS
 62
     7
  0
LINE
  8
0
  6
CONTINUOUS
 62
     7
 10
69.24999999999997
 20
192.0
 11
71.1035589668314
 21
193.8535589668314
  0
LINE
  8
0
  6
CONTINUOUS
 62
     7
 10
69.39644103316856
 20
170.8535589668314
 11
71.1035589668314
 21
169.1464410331686
  0
POLYLINE
  8
0
  6
CONTINUOUS
 62
     7
 66
     1
  0
VERTEX
  8
0
  6
CONTINUOUS
 62
     7
 10
71.10355896683139
 20
169.1464410331686
  0
VERTEX
  8
0
  6
CONTINUOUS
 62
     7
 10
71.17932445741913
 20
169.0842618305856
  0
VERTEX
  8
0
  6
CONTINUOUS
 62
     7
 10
71.26576441526292
 20
169.0380586651307
  0
VERTEX
  8
0
  6
CONTINUOUS
 62
     7
 10
71.35955726722516
 20
169.0096069563793
  0
VERTEX
  8
0
  6
CONTINUOUS
 62
     7
 10
71.4570988951949
 20
169.0
  0
SEQEND
  8
0
  6
CONTINUOUS
 62
     7
  0
POLYLINE
  8
0
  6
CONTINUOUS
 62
     7
 66
     1
  0
VERTEX
  8
0
  6
CONTINUOUS
 62
     7
 10
71.45709889519489
 20
194.0
  0
VERTEX
  8
0
  6
CONTINUOUS
 62
     7
 10
71.35955726722516
 20
193.9903930436207
  0
VERTEX
  8
0
  6
CONTINUOUS
 62
     7
 10
71.26576441526292
 20
193.9619413348693
  0
VERTEX
  8
0
  6
CONTINUOUS
 62
     7
 10
71.17932445741913
 20
193.9157381694145
  0
VERTEX
  8
0
  6
CONTINUOUS
 62
     7
 10
71.10355896683139
 20
193.8535589668314
  0
SEQEND
  8
0
  6
CONTINUOUS
 62
     7
  0
LINE
  8
0
  6
CONTINUOUS
 62
     7
 10
71.4570988951949
 20
194.0
 11
82.04290110480505
 21
194.0
  0
LINE
  8
0
  6
CONTINUOUS
 62
     7
 10
71.4570988951949
 20
169.0
 11
82.04290110480505
 21
169.0
  0
POLYLINE
  8
0
  6
CONTINUOUS
 62
     7
 66
     1
  0
VERTEX
  8
0
  6
CONTINUOUS
 62
     7
 10
84.4570988951949
 20
171.0
  0
VERTEX
  8
0
  6
CONTINUOUS
 62
     7
 10
84.35955726722517
 20
170.9903930436207
  0
VERTEX
  8
0
  6
CONTINUOUS
 62
     7
 10
84.26576441526295
 20
170.9619413348693
  0
VERTEX
  8
0
  6
CONTINUOUS
 62
     7
 10
84.17932445741916
 20
170.9157381694145
  0
VERTEX
  8
0
  6
CONTINUOUS
 62
     7
 10
84.10355896683143
 20
170.8535589668314
  0
SEQEND
  8
0
  6
CONTINUOUS
 62
     7
  0
LINE
  8
0
  6
CONTINUOUS
 62
     7
 10
82.39644103316857
 20
193.8535589668314
 11
84.24999999999999
 21
192.0
  0
LINE
  8
0
  6
CONTINUOUS
 62
     7
 10
82.39644103316857
 20
169.1464410331686
 11
84.10355896683141
 21
170.8535589668314
  0
POLYLINE
  8
0
  6
CONTINUOUS
 62
     7
 66
     1
  0
VERTEX
  8
0
  6
CONTINUOUS
 62
     7
 10
82.04290110480507
 20
169.0
  0
VERTEX
  8
0
  6
CONTINUOUS
 62
     7
 10
82.14044273277482
 20
169.0096069563793
  0
VERTEX
  8
0
  6
CONTINUOUS
 62
     7
 10
82.23423558473705
 20
169.0380586651307
  0
VERTEX
  8
0
  6
CONTINUOUS
 62
     7
 10
82.32067554258084
 20
169.0842618305856
  0
VERTEX
  8
0
  6
CONTINUOUS
 62
     7
 10
82.39644103316859
 20
169.1464410331686
  0
SEQEND
  8
0
  6
CONTINUOUS
 62
     7
  0
POLYLINE
  8
0
  6
CONTINUOUS
 62
     7
 66
     1
  0
VERTEX
  8
0
  6
CONTINUOUS
 62
     7
 10
82.39644103316859
 20
193.8535589668314
  0
VERTEX
  8
0
  6
CONTINUOUS
 62
     7
 10
82.32067554258084
 20
193.9157381694145
  0
VERTEX
  8
0
  6
CONTINUOUS
 62
     7
 10
82.23423558473705
 20
193.9619413348693
  0
VERTEX
  8
0
  6
CONTINUOUS
 62
     7
 10
82.14044273277482
 20
193.9903930436207
  0
VERTEX
  8
0
  6
CONTINUOUS
 62
     7
 10
82.04290110480507
 20
194.0
  0
SEQEND
  8
0
  6
CONTINUOUS
 62
     7
  0
ARC
  8
0
  6
CONTINUOUS
 62
     7
 10
75.91387693715443
 20
179.6831625764044
 40
2.095995545698354
 50
285.5424212839729
 51
343.9242205568318
  0
CIRCLE
  8
0
  6
CONTINUOUS
 62
     7
 10
76.74999999999999
 20
181.5
 40
2.000000000000002
  0
ARC
  8
0
  6
CONTINUOUS
 62
     7
 10
76.74999999999999
 20
181.5
 40
2.670995545698334
 50
224.1677565069253
 51
276.0379829668
  0
LINE
  8
0
  6
CONTINUOUS
 62
     7
 10
79.60205163430126
 20
179.4986458371692
 11
79.62270164064958
 21
180.0947589909165
  0
ARC
  8
0
  6
CONTINUOUS
 62
     7
 10
79.79792968793836
 20
179.4918604088899
 40
0.1959955456983602
 50
178.0160053866607
 51
326.6209646607256
  0
ARC
  8
0
  6
CONTINUOUS
 62
     7
 10
75.91387693715443
 20
179.6831625764044
 40
1.404004454301647
 50
286.016005386661
 51
322.9599334811435
  0
ARC
  8
0
  6
CONTINUOUS
 62
     7
 10
76.74999999999999
 20
181.5
 40
2.670995545698341
 50
296.1677565069253
 51
348.0379829668
  0
ARC
  8
0
  6
CONTINUOUS
 62
     7
 10
76.74999999999999
 20
181.5
 40
3.845995545698335
 50
254.6209646607257
 51
265.9071914951129
  0
ARC
  8
0
  6
CONTINUOUS
 62
     7
 10
77.03137719511861
 20
178.839839878115
 40
0.0040044543016542
 50
322.9599334811444
 51
96.0379829667794
  0
ARC
  8
0
  6
CONTINUOUS
 62
     7
 10
74.7637086934323
 20
181.7337666474365
 40
2.095995545698337
 50
213.542421283973
 51
271.9242205568319
  0
ARC
  8
0
  6
CONTINUOUS
 62
     7
 10
76.74999999999999
 20
181.5
 40
3.84599554569834
 50
326.6209646607257
 51
337.9071914951129
  0
ARC
  8
0
  6
CONTINUOUS
 62
     7
 10
75.78200782747732
 20
177.9806973483466
 40
0.1959955456983378
 50
106.016005386661
 51
254.6209646607268
  0
LINE
  8
0
  6
CONTINUOUS
 62
     7
 10
75.72793150585926
 20
178.1690852603098
 11
76.30125000807548
 21
178.3336550322891
  0
ARC
  8
0
  6
CONTINUOUS
 62
     7
 10
73.10381824859876
 20
181.3330909356906
 40
0.1959955456983501
 50
34.01600538666047
 51
182.620964660726
  0
ARC
  8
0
  6
CONTINUOUS
 62
     7
 10
76.74999999999999
 20
181.5
 40
3.845995545698341
 50
182.6209646607257
 51
193.9071914951129
  0
ARC
  8
0
  6
CONTINUOUS
 62
     7
 10
79.36691295342843
 20
180.9455709295335
 40
0.0040044543016609
 50
34.95993348114298
 51
168.037982966794
  0
ARC
  8
0
  6
CONTINUOUS
 62
     7
 10
74.7637086934323
 20
181.7337666474365
 40
1.404004454301646
 50
214.016005386661
 51
250.9599334811435
  0
ARC
  8
0
  6
CONTINUOUS
 62
     7
 10
76.74999999999999
 20
181.5
 40
2.670995545698359
 50
8.167756506925457
 51
60.03798296679997
  0
ARC
  8
0
  6
CONTINUOUS
 62
     7
 10
78.21953883495145
 20
180.1433660727486
 40
1.404004454301655
 50
358.016005386661
 51
34.95993348114354
  0
LINE
  8
0
  6
CONTINUOUS
 62
     7
 10
73.26627529748932
 20
181.4427356400743
 11
73.59995561188981
 21
180.9483321989309
  0
ARC
  8
0
  6
CONTINUOUS
 62
     7
 10
76.35852752382829
 20
183.4613131571475
 40
2.095995545698345
 50
141.5424212839729
 51
199.9242205568319
  0
ARC
  8
0
  6
CONTINUOUS
 62
     7
 10
76.74999999999999
 20
181.5
 40
2.670995545698347
 50
152.1677565069255
 51
204.0379829667999
  0
ARC
  8
0
  6
CONTINUOUS
 62
     7
 10
78.21953883495145
 20
180.1433660727486
 40
2.095995545698345
 50
357.5424212839729
 51
55.92422055683187
  0
ARC
  8
0
  6
CONTINUOUS
 62
     7
 10
74.30698771681398
 20
180.4103596996246
 40
0.00400445430165
 50
250.9599334811311
 51
24.03798296679832
  0
ARC
  8
0
  6
CONTINUOUS
 62
     7
 10
79.60171631498842
 20
183.7782041301931
 40
0.195995545698354
 50
250.0160053866607
 51
38.62096466072472
  0
ARC
  8
0
  6
CONTINUOUS
 62
     7
 10
74.95875817893891
 20
183.4867253807413
 40
0.0040044543016539
 50
178.9599334811448
 51
312.0379829668264
  0
ARC
  8
0
  6
CONTINUOUS
 62
     7
 10
76.74999999999999
 20
181.5
 40
3.845995545698346
 50
38.62096466072558
 51
49.9071914951129
  0
ARC
  8
0
  6
CONTINUOUS
 62
     7
 10
78.49434801063346
 20
182.4783915462631
 40
2.095995545698341
 50
69.54242128397287
 51
127.9242205568319
  0
ARC
  8
0
  6
CONTINUOUS
 62
     7
 10
76.35852752382829
 20
183.4613131571475
 40
1.404004454301647
 50
142.016005386661
 51
178.9599334811435
  0
ARC
  8
0
  6
CONTINUOUS
 62
     7
 10
78.0859639557
 20
183.8175041119857
 40
0.0040044543016488
 50
106.959933481145
 51
240.0379829667898
  0
ARC
  8
0
  6
CONTINUOUS
 62
     7
 10
76.74999999999999
 20
181.5
 40
3.845995545698338
 50
110.6209646607257
 51
121.9071914951129
  0
LINE
  8
0
  6
CONTINUOUS
 62
     7
 10
75.6190082205415
 20
184.7955234189121
 11
75.25191549400154
 21
184.3253955161514
  0
ARC
  8
0
  6
CONTINUOUS
 62
     7
 10
75.46452792099706
 20
184.9161471768798
 40
0.1959955456983243
 50
322.0160053866608
 51
110.6209646607261
  0
ARC
  8
0
  6
CONTINUOUS
 62
     7
 10
78.49434801063346
 20
182.4783915462631
 40
1.404004454301652
 50
70.01600538666098
 51
106.9599334811435
  0
LINE
  8
0
  6
CONTINUOUS
 62
     7
 10
79.53473334180859
 20
183.5940098435347
 11
78.97417724538352
 21
183.7978582617122
  0
ARC
  8
0
  6
CONTINUOUS
 62
     7
 10
76.74999999999999
 20
181.5
 40
2.670995545698339
 50
80.16775650692546
 51
132.0379829668
  0
CIRCLE
  8
0
  6
CONTINUOUS
 62
     7
 10
76.74999999999999
 20
181.5
 40
5.500000000000004
  0
CIRCLE
  8
0
  6
CONTINUOUS
 62
     7
 10
76.74999999999999
 20
181.5
 40
6.499999999999992
  0
ENDBLK
  8
0
  0
ENDSEC
  0
SECTION
  2
ENTITIES
  0
INSERT
  8
0
  6
DOT
 62
     7
  2
D_FRAME_VIEW_9807
 10
0.0
 20
0.0
 30
0.0
  0
ARC
  8
0
  6
CONTINUOUS
 62
     7
 10
78.24999999999999
 20
133.9027030812165
 40
15.5
 50
181.8485716452285
 51
308.6821874534894
  0
LINE
  8
0
  6
CONTINUOUS
 62
     9
 10
116.0221088778031
 20
144.4027030812165
 11
116.0221088778031
 21
142.4027030812165
  0
LINE
  8
0
  6
CONTINUOUS
 62
     7
 10
88.75
 20
121.4127070844197
 11
88.75
 21
119.4027030812165
  0
LINE
  8
0
  6
CONTINUOUS
 62
     7
 10
171.9499999999999
 20
143.6027030812165
 11
169.3765916953885
 21
142.4027030812165
  0
ARC
  8
0
  6
CONTINUOUS
 62
     7
 10
114.75
 20
119.4027030812165
 40
25.00000000000001
 50
90.0
 51
180.0
  0
LINE
  8
0
  6
CONTINUOUS
 62
     7
 10
88.75
 20
119.4027030812165
 11
89.74999999999999
 21
119.4027030812165
  0
ARC
  8
0
  6
CONTINUOUS
 62
     7
 10
164.6499999999999
 20
140.6027030812165
 40
3.000000000000005
 50
90.0
 51
143.1301023541562
  0
LINE
  8
0
  6
CONTINUOUS
 62
     7
 10
65.74999999999999
 20
127.5979429747573
 11
65.74999999999999
 21
124.7375516913048
  0
LINE
  8
0
  6
CONTINUOUS
 62
     7
 10
169.3765916953885
 20
142.4027030812165
 11
115.25
 21
142.4027030812165
  0
ARC
  8
0
  6
CONTINUOUS
 62
     7
 10
78.24999999999999
 20
133.9027030812165
 40
14.0
 50
184.3323284874258
 51
206.7655005767562
  0
LINE
  8
0
  6
CONTINUOUS
 62
     7
 10
114.75
 20
144.4027030812165
 11
162.2325396152541
 21
144.4027030812165
  0
LINE
  8
0
  6
CONTINUOUS
 62
     7
 10
93.57770294213174
 20
132.6968310064842
 11
93.57770294213174
 21
135.3395734544543
  0
LINE
  8
0
  6
CENTER
 62
     1
 10
64.49999999999999
 20
181.5
 11
88.99999999999999
 21
181.5
  0
LINE
  8
0
  6
CENTER
 62
     1
 10
76.74999999999999
 20
169.25
 11
76.74999999999999
 21
193.75
  0
TEXT
  8
0
  6
CONTINUOUS
 62
     7
 10
99.48074903088657
 20
89.49318181818185
 40
3.0
  1
ＧＧＪＴ－Ｍ
  0
LINE
  8
0
  6
CENTER
 62
     1
 10
60.74999999999999
 20
133.9027030812165
 11
95.74999999999999
 21
133.9027030812165
  0
LINE
  8
0
  6
CENTER
 62
     1
 10
78.24999999999999
 20
116.4027030812165
 11
78.24999999999999
 21
151.4027030812165
  0
INSERT
  8
0
  6
DOT
 62
     7
  2
D_FRAME_VIEW_15295
 10
0.0
 20
0.0
 30
0.0
  0
LINE
  8
0
  6
CONTINUOUS
 62
     7
 10
61.74999999999999
 20
130.5748738132047
 11
61.74999999999999
 21
117.9027030812165
  0
LINE
  8
0
  6
CONTINUOUS
 62
     7
 10
59.18454849156929
 20
126.222978512559
 11
59.18454849156929
 21
120.4027030812165
  0
LINE
  8
0
  6
CONTINUOUS
 62
     7
 10
60.74999999999999
 20
124.4027030812165
 11
59.18454849156929
 21
125.4463374201703
  0
LINE
  8
0
  6
CONTINUOUS
 62
     7
 10
59.2107290949418
 20
171.0
 11
59.18454849156929
 21
168.0
  0
LINE
  8
0
  6
CONTINUOUS
 62
     7
 10
59.42017392191978
 20
195.0
 11
59.39399331854755
 21
192.0
  0
LINE
  8
0
  6
CONTINUOUS
 62
     9
 10
111.8128235735638
 20
182.0416364101453
 11
108.6784894332191
 21
182.0416364101453
  0
LINE
  8
0
  6
CONTINUOUS
 62
     9
 10
105.7804839121492
 20
180.9583635898548
 11
105.7804839121491
 21
182.0416364101453
  0
LINE
  8
0
  6
CONTINUOUS
 62
     9
 10
105.7804839121491
 20
182.0416364101453
 11
102.918441746778
 21
182.0416364101453
  0
LINE
  8
0
  6
CONTINUOUS
 62
     7
 10
56.69955158643128
 20
135.607822215532
 11
64.2900026353309
 21
132.8451239690778
  0
LINE
  8
0
  6
CONTINUOUS
 62
     7
 10
115.4037647284847
 20
171.1396298846522
 11
90.25471017979936
 21
171.1396298846522
  0
LINE
  8
0
  6
CONTINUOUS
 62
     7
 10
90.74999999999997
 20
191.8603701153479
 11
115.4037647284847
 21
191.8603701153479
  0
ARC
  8
0
  6
CONTINUOUS
 62
     7
 10
114.75
 20
119.4027030812165
 40
26.50000000000001
 50
124.7551083282549
 51
130.1045551633365
  0
LINE
  8
0
  6
CONTINUOUS
 62
     7
 10
97.67911231444177
 20
137.6670068902057
 11
97.67911231444177
 21
139.6717630896889
  0
LINE
  8
0
  6
CONTINUOUS
 62
     7
 10
59.18454849156929
 20
126.222978512559
 11
58.75343435025395
 21
131.6259454831322
  0
LINE
  8
0
  6
CONTINUOUS
 62
     7
 10
52.96696049012741
 20
173.5
 11
61.74999999999999
 21
173.5
  0
LINE
  8
0
  6
CONTINUOUS
 62
     7
 10
54.51238513640324
 20
133.208936710674
 11
54.38602215169231
 21
118.8544473671124
  0
LINE
  8
0
  6
CONTINUOUS
 62
     7
 10
61.74999999999999
 20
173.5
 11
61.74999999999999
 21
189.5
  0
LINE
  8
0
  6
CONTINUOUS
 62
     7
 10
52.96696049012741
 20
189.5
 11
61.74999999999999
 21
189.5
  0
LINE
  8
0
  6
CONTINUOUS
 62
     7
 10
94.82468736810873
 20
136.8735907667749
 11
96.00871582874382
 21
135.9485263491057
  0
LINE
  8
0
  6
CONTINUOUS
 62
     7
 10
93.57770294213174
 20
180.9583635898557
 11
93.57770294213174
 21
182.0416364101453
  0
LINE
  8
0
  6
CONTINUOUS
 62
     7
 10
171.95
 20
143.6027030812165
 11
164.6499999999999
 21
143.6027030812165
  0
LINE
  8
0
  6
CONTINUOUS
 62
     7
 10
52.24998096153206
 20
192.0
 11
69.24999999999997
 21
192.0
  0
LINE
  8
0
  6
CONTINUOUS
 62
     7
 10
54.30706281650514
 20
117.3545705728943
 11
54.25067277981854
 21
110.9488166841852
  0
LINE
  8
0
  6
CONTINUOUS
 62
     7
 10
61.74999999999999
 20
119.4027030812165
 11
54.39084846259483
 21
119.4027030812165
  0
LINE
  8
0
  6
CONTINUOUS
 62
     9
 10
108.6784894332191
 20
180.9583635898548
 11
111.8128235735639
 21
180.9583635898548
  0
LINE
  8
0
  6
CONTINUOUS
 62
     7
 10
57.63240184144274
 20
116.1443442328398
 11
54.30706281650514
 21
117.3545705728943
  0
LINE
  8
0
  6
CONTINUOUS
 62
     7
 10
54.51238513640324
 20
133.208936710674
 11
61.74999999999999
 21
130.5748738132047
  0
LINE
  8
0
  6
CONTINUOUS
 62
     7
 10
57.30909482926374
 20
168.0
 11
57.28291422589145
 21
171.0
  0
ARC
  8
0
  6
CONTINUOUS
 62
     7
 10
49.24999999999999
 20
117.9020508084219
 40
8.564706243489457
 50
305.7231821675134
 51
348.1572286222835
  0
LINE
  8
0
  6
CONTINUOUS
 62
     7
 10
52.24998096153206
 20
171.0
 11
69.04290121138204
 21
171.0
  0
LINE
  8
0
  6
CONTINUOUS
 62
     7
 10
57.09965000228554
 20
192.0
 11
57.07346939891325
 21
195.0
  0
ARC
  8
0
  6
CONTINUOUS
 62
     7
 10
114.75
 20
119.4027030812165
 40
26.50000000000002
 50
138.7551083282552
 51
143.0303902125397
  0
LINE
  8
0
  6
CONTINUOUS
 62
     7
 10
51.74999999999998
 20
191.5000190384679
 11
51.74999999999998
 21
171.4999807134755
  0
LINE
  8
0
  6
CONTINUOUS
 62
     7
 10
108.6784894332191
 20
180.9583635898548
 11
108.6784894332191
 21
182.0416364101453
  0
LINE
  8
0
  6
CONTINUOUS
 62
     7
 10
57.30909482926374
 20
125.3991407013887
 11
57.17210548010652
 21
126.9027030812165
  0
LINE
  8
0
  6
CONTINUOUS
 62
     7
 10
57.30909482926375
 20
120.4027030812165
 11
57.30909482926374
 21
125.3991407013887
  0
LINE
  8
0
  6
CONTINUOUS
 62
     7
 10
102.918441746778
 20
180.9583635898548
 11
102.918441746778
 21
182.0416364101453
  0
LINE
  8
0
  6
CONTINUOUS
 62
     7
 10
97.67911231444177
 20
180.9583635898548
 11
97.67911231444177
 21
182.0416364101453
  0
LINE
  8
0
  6
CONTINUOUS
 62
     9
 10
111.8128235735639
 20
180.9583635898548
 11
111.8128235735638
 21
182.0416364101453
  0
ARC
  8
0
  6
CONTINUOUS
 62
     7
 10
114.75
 20
119.4027030812165
 40
26.50000000000002
 50
96.75510832825603
 51
103.2448916717446
  0
LINE
  8
0
  6
CONTINUOUS
 62
     9
 10
100.2810101728253
 20
180.9583635898548
 11
100.2810101728252
 21
182.0416364101453
  0
ARC
  8
0
  6
CONTINUOUS
 62
     7
 10
114.75
 20
119.4027030812165
 40
26.50000000000002
 50
110.7551083282557
 51
116.5176768509238
  0
LINE
  8
0
  6
CONTINUOUS
 62
     7
 10
111.6329126922554
 20
145.7187393845031
 11
111.8938284012789
 21
144.2390128674681
  0
LINE
  8
0
  6
CONTINUOUS
 62
     9
 10
93.57770294213174
 20
180.9583635898557
 11
95.64111810217379
 21
180.9583635898557
  0
LINE
  8
0
  6
CONTINUOUS
 62
     9
 10
100.2810101728252
 20
182.0416364101453
 11
97.67911231444177
 21
182.0416364101453
  0
LINE
  8
0
  6
CONTINUOUS
 62
     9
 10
102.918441746778
 20
180.9583635898548
 11
105.7804839121492
 21
180.9583635898548
  0
LINE
  8
0
  6
CONTINUOUS
 62
     9
 10
97.67911231444177
 20
180.9583635898548
 11
100.2810101728253
 21
180.9583635898548
  0
LINE
  8
0
  6
CONTINUOUS
 62
     7
 10
108.6784894332191
 20
143.6542341553047
 11
108.6784894332191
 21
145.1977948515024
  0
LINE
  8
0
  6
CONTINUOUS
 62
     7
 10
105.3590781197056
 20
144.1829489685803
 11
105.9702217610594
 21
142.8102978759626
  0
LINE
  8
0
  6
CONTINUOUS
 62
     7
 10
102.918441746778
 20
141.425741684021
 11
102.918441746778
 21
143.1148145287577
  0
LINE
  8
0
  6
CONTINUOUS
 62
     9
 10
95.64111810217379
 20
180.9583635898557
 11
95.64111810217369
 21
182.0416364101453
  0
LINE
  8
0
  6
CONTINUOUS
 62
     7
 10
99.64314457526204
 20
141.1750001390849
 11
100.5682089929309
 21
139.9909716784496
  0
LINE
  8
0
  6
CONTINUOUS
 62
     9
 10
95.64111810217369
 20
182.0416364101453
 11
93.57770294213174
 21
182.0416364101453
  0
ENDSEC
  0
EOF
