  0
SECTION
  2
HEADER
  9
$ACADVER
  1
AC1006
  9
$DWGCODEPAGE
  3
ansi_932
  9
$INSBASE
 10
0.0
 20
0.0
 30
0.0
  9
$EXTMIN
 10
47.54441859897229
 20
50.81519852025443
  9
$EXTMAX
 10
173.3959734802922
 20
153.1340001712794
  9
$LIMMIN
 10
0.0
 20
0.0
  9
$LIMMAX
 10
12.0
 20
9.0
  9
$ORTHOMODE
 70
     0
  9
$REGENMODE
 70
     1
  9
$FILLMODE
 70
     1
  9
$QTEXTMODE
 70
     0
  9
$MIRRTEXT
 70
     1
  9
$DRAGMODE
 70
     2
  9
$LTSCALE
 40
1.0
  9
$OSMODE
 70
    37
  9
$ATTMODE
 70
     1
  9
$TEXTSIZE
 40
0.2
  9
$TRACEWID
 40
0.05
  9
$TEXTSTYLE
  7
STANDARD
  9
$CLAYER
  8
0
  9
$CELTYPE
  6
BYLAYER
  9
$CECOLOR
 62
   256
  9
$DIMSCALE
 40
1.0
  9
$DIMASZ
 40
3.0
  9
$DIMEXO
 40
0.0625
  9
$DIMDLI
 40
0.38
  9
$DIMRND
 40
0.0
  9
$DIMDLE
 40
0.0
  9
$DIMEXE
 40
1.5
  9
$DIMTP
 40
0.0
  9
$DIMTM
 40
0.0
  9
$DIMTXT
 40
3.0
  9
$DIMCEN
 40
0.09
  9
$DIMTSZ
 40
0.0
  9
$DIMTOL
 70
     0
  9
$DIMLIM
 70
     0
  9
$DIMTIH
 70
     1
  9
$DIMTOH
 70
     1
  9
$DIMSE1
 70
     0
  9
$DIMSE2
 70
     0
  9
$DIMTAD
 70
     1
  9
$DIMZIN
 70
     0
  9
$DIMBLK
  1

  9
$DIMASO
 70
     1
  9
$DIMSHO
 70
     1
  9
$DIMPOST
  1

  9
$DIMAPOST
  1

  9
$DIMALT
 70
     0
  9
$DIMALTD
 70
     2
  9
$DIMALTF
 40
25.4
  9
$DIMLFAC
 40
1.0
  9
$DIMTOFL
 70
     0
  9
$DIMTVP
 40
0.0
  9
$DIMTIX
 70
     0
  9
$DIMSOXD
 70
     0
  9
$DIMSAH
 70
     0
  9
$DIMBLK1
  1

  9
$DIMBLK2
  1

  9
$LUNITS
 70
     2
  9
$LUPREC
 70
     4
  9
$SKETCHINC
 40
0.1
  9
$FILLETRAD
 40
0.5
  9
$AUNITS
 70
     0
  9
$AUPREC
 70
     0
  9
$MENU
  1
.
  9
$ELEVATION
 40
0.0
  9
$THICKNESS
 40
0.0
  9
$LIMCHECK
 70
     0
  9
$CHAMFERA
 40
0.0
  9
$CHAMFERB
 40
0.0
  9
$SKPOLY
 70
     0
  9
$TDCREATE
 40
2458915.387485139
  9
$TDUPDATE
 40
2458915.387485312
  9
$TDINDWG
 40
0.0000000116
  9
$TDUSRTIMER
 40
0.0000000116
  9
$USRTIMER
 70
     1
  9
$ANGBASE
 50
0.0
  9
$ANGDIR
 70
     0
  9
$PDMODE
 70
     0
  9
$PDSIZE
 40
0.0
  9
$PLINEWID
 40
0.0
  9
$COORDS
 70
     1
  9
$SPLFRAME
 70
     0
  9
$SPLINETYPE
 70
     6
  9
$SPLINESEGS
 70
     8
  9
$ATTDIA
 70
     0
  9
$ATTREQ
 70
     1
  9
$HANDLING
 70
     1
  9
$HANDSEED
  5
676
  9
$SURFTAB1
 70
     6
  9
$SURFTAB2
 70
     6
  9
$SURFTYPE
 70
     6
  9
$SURFU
 70
     6
  9
$SURFV
 70
     6
  9
$UCSNAME
  2

  9
$UCSORG
 10
0.0
 20
0.0
 30
0.0
  9
$UCSXDIR
 10
1.0
 20
0.0
 30
0.0
  9
$UCSYDIR
 10
0.0
 20
1.0
 30
0.0
  9
$USERI1
 70
     0
  9
$USERI2
 70
     0
  9
$USERI3
 70
     0
  9
$USERI4
 70
     0
  9
$USERI5
 70
     0
  9
$USERR1
 40
0.0
  9
$USERR2
 40
0.0
  9
$USERR3
 40
0.0
  9
$USERR4
 40
0.0
  9
$USERR5
 40
0.0
  9
$WORLDVIEW
 70
     1
  0
ENDSEC
  0
SECTION
  2
TABLES
  0
TABLE
  2
VPORT
 70
     1
  0
VPORT
  2
*ACTIVE
 70
     0
 10
0.0
 20
0.0
 11
1.0
 21
1.0
 12
110.4701960396322
 22
101.9745993457669
 13
0.0
 23
0.0
 14
0.5
 24
0.5
 15
0.5
 25
0.5
 16
0.0
 26
0.0
 36
1.0
 17
0.0
 27
0.0
 37
0.0
 40
102.318801651025
 41
1.6
 42
50.0
 43
0.0
 44
0.0
 50
0.0
 51
0.0
 71
     0
 72
   100
 73
     1
 74
     3
 75
     0
 76
     0
 77
     0
 78
     0
  0
ENDTAB
  0
TABLE
  2
LTYPE
 70
     3
  0
LTYPE
  2
CONTINUOUS
 70
     0
  3
Solid line
 72
    65
 73
     0
 40
0.0
  0
LTYPE
  2
CENTER
 70
     0
  3

 72
    65
 73
     0
 40
0.0
  0
LTYPE
  2
DOT
 70
     0
  3

 72
    65
 73
     0
 40
0.0
  0
ENDTAB
  0
TABLE
  2
LAYER
 70
     1
  0
LAYER
  2
0
 70
     0
 62
     7
  6
CONTINUOUS
  0
ENDTAB
  0
TABLE
  2
STYLE
 70
     2
  0
STYLE
  2
STANDARD
 70
     0
 40
0.0
 41
1.0
 50
0.0
 71
     0
 42
0.2
  3
txt
  4

  0
STYLE
  2
ＭＳ_ゴシック
 70
     0
 40
0.0
 41
1.0
 50
0.0
 71
     0
 42
0.2
  3
ＭＳ ゴシック.shx
  4

  0
ENDTAB
  0
TABLE
  2
VIEW
 70
     0
  0
ENDTAB
  0
TABLE
  2
UCS
 70
     0
  0
ENDTAB
  0
ENDSEC
  0
SECTION
  2
BLOCKS
  0
BLOCK
  8
0
  2
D_FRAME_VIEW_20132
 70
     0
 10
0.0
 20
0.0
 30
0.0
  0
LINE
  5
77
  8
0
  6
CONTINUOUS
 62
     7
 10
116.9876576771281
 20
142.4468439695956
 30
0.0
 11
116.9876576771281
 21
132.3715524639306
 31
0.0
  0
LINE
  5
78
  8
0
  6
CONTINUOUS
 62
     7
 10
116.9876576773296
 20
132.3715524641299
 30
0.0
 11
115.2735148344355
 21
130.6574096212359
 31
0.0
  0
LINE
  5
79
  8
0
  6
CONTINUOUS
 62
     7
 10
106.5490810786853
 20
130.6574096210761
 30
0.0
 11
106.5524974803286
 21
140.2390103564871
 31
0.0
  0
ARC
  5
7A
  8
0
  6
CONTINUOUS
 62
     7
 10
111.7134713048979
 20
140.2556330731757
 30
0.0
 40
5.161000594128939
 50
153.6584863700167
 51
180.1845404083059
  0
LINE
  5
7B
  8
0
  6
CONTINUOUS
 62
     7
 10
117.1550231362969
 20
142.5456754735869
 30
0.0
 11
116.9876576772369
 21
142.446843969597
 31
0.0
  0
LINE
  5
7C
  8
0
  6
CONTINUOUS
 62
     7
 10
106.5368634636884
 20
132.0856953067828
 30
0.0
 11
106.5429722711868
 21
130.3715524639291
 31
0.0
  0
LINE
  5
7D
  8
0
  6
CONTINUOUS
 62
     7
 10
106.5237726591943
 20
140.2390103564881
 30
0.0
 11
106.5368634636884
 21
132.0856953067838
 31
0.0
  0
LINE
  5
7E
  8
0
  6
CONTINUOUS
 62
     7
 10
132.8876576771239
 20
126.8659750725117
 30
0.0
 11
132.8876576771239
 21
136.9412665781768
 31
0.0
  0
LINE
  5
7F
  8
0
  6
CONTINUOUS
 62
     7
 10
132.887657677319
 20
136.9412665783739
 30
0.0
 11
134.6018005201308
 21
138.6554094211857
 31
0.0
  0
LINE
  5
80
  8
0
  6
CONTINUOUS
 62
     7
 10
143.3262342761954
 20
138.6554094210313
 30
0.0
 11
143.3228178746022
 21
129.0738086856203
 31
0.0
  0
ARC
  5
81
  8
0
  6
CONTINUOUS
 62
     7
 10
138.1618440529741
 20
129.0571859692905
 30
0.0
 40
5.161000591186637
 50
333.6584863493983
 51
0.1845404044275369
  0
LINE
  5
82
  8
0
  6
CONTINUOUS
 62
     7
 10
132.7202922181142
 20
126.7671435685204
 30
0.0
 11
132.8876576772332
 21
126.8659750725104
 31
0.0
  0
LINE
  5
83
  8
0
  6
CONTINUOUS
 62
     7
 10
143.3384518910126
 20
137.2271237353246
 30
0.0
 11
143.332343083604
 21
138.9412665781782
 31
0.0
  0
LINE
  5
84
  8
0
  6
CONTINUOUS
 62
     7
 10
143.3515426953143
 20
129.0738086856192
 30
0.0
 11
143.3384518910126
 21
137.2271237353234
 31
0.0
  0
LINE
  5
85
  8
0
  6
CONTINUOUS
 62
     7
 10
107.9445898799328
 20
143.75448750333
 30
0.0
 11
107.7757301681338
 21
143.5726842769229
 31
0.0
  0
LINE
  5
86
  8
0
  6
CONTINUOUS
 62
     7
 10
107.0883623400284
 20
142.5456754735875
 30
0.0
 11
107.7757301681327
 21
143.5726842769221
 31
0.0
  0
LINE
  5
87
  8
0
  6
CONTINUOUS
 62
     7
 10
106.5239356237767
 20
140.6564095210521
 30
0.0
 11
106.5237726591943
 21
140.2390103564885
 31
0.0
  0
LINE
  5
88
  8
0
  6
CONTINUOUS
 62
     7
 10
106.5169292490025
 20
140.6564095210521
 30
0.0
 11
106.5239356237767
 21
140.6564095210521
 31
0.0
  0
LINE
  5
89
  8
0
  6
CONTINUOUS
 62
     7
 10
106.4886662370486
 20
140.2390103564885
 30
0.0
 11
106.5169292490025
 21
140.6564095210521
 31
0.0
  0
ARC
  5
8A
  8
0
  6
CONTINUOUS
 62
     7
 10
111.4600670265639
 20
140.2390103564885
 30
0.0
 40
4.99999999999999
 50
134.9999999999998
 51
180.0000000000003
  0
LINE
  5
8B
  8
0
  6
CONTINUOUS
 62
     7
 10
141.9307254740562
 20
125.5583315387774
 30
0.0
 11
142.0995851858987
 21
125.7401347651845
 31
0.0
  0
LINE
  5
8C
  8
0
  6
CONTINUOUS
 62
     7
 10
142.7869530143826
 20
126.7671435685199
 30
0.0
 11
142.0995851858999
 21
125.7401347651853
 31
0.0
  0
LINE
  5
8D
  8
0
  6
CONTINUOUS
 62
     7
 10
143.3513797304753
 20
128.6564095210553
 30
0.0
 11
143.3515426953143
 21
129.0738086856188
 31
0.0
  0
LINE
  5
8E
  8
0
  6
CONTINUOUS
 62
     7
 10
143.3583861051468
 20
128.6564095210553
 30
0.0
 11
143.3513797304753
 21
128.6564095210553
 31
0.0
  0
LINE
  5
8F
  8
0
  6
CONTINUOUS
 62
     7
 10
143.3866491169438
 20
129.0738086856188
 30
0.0
 11
143.3583861051468
 21
128.6564095210553
 31
0.0
  0
ARC
  5
90
  8
0
  6
CONTINUOUS
 62
     7
 10
138.4152483270081
 20
129.0738086856189
 30
0.0
 40
4.999999999999977
 50
315.0000000000002
 51
359.9999999999997
  0
POLYLINE
  5
91
  8
0
  6
CONTINUOUS
 62
     7
 66
     1
 10
0.0
 20
0.0
 30
0.0
  0
VERTEX
  5
312
  8
0
  6
CONTINUOUS
 62
     7
 10
117.6064070753805
 20
140.6564095210517
 30
0.0
  0
VERTEX
  5
313
  8
0
  6
CONTINUOUS
 62
     7
 10
117.2923190984326
 20
140.5813783479082
 30
0.0
  0
VERTEX
  5
314
  8
0
  6
CONTINUOUS
 62
     7
 10
116.9876576772369
 20
140.3585366992551
 30
0.0
  0
SEQEND
  5
650
  8
0
  6
CONTINUOUS
 62
     7
  0
POLYLINE
  5
92
  8
0
  6
CONTINUOUS
 62
     7
 66
     1
 10
0.0
 20
0.0
 30
0.0
  0
VERTEX
  5
315
  8
0
  6
CONTINUOUS
 62
     7
 10
132.2689082788715
 20
128.6564095210556
 30
0.0
  0
VERTEX
  5
316
  8
0
  6
CONTINUOUS
 62
     7
 10
132.5829962559301
 20
128.7314406941991
 30
0.0
  0
VERTEX
  5
317
  8
0
  6
CONTINUOUS
 62
     7
 10
132.8876576772332
 20
128.9542823428523
 30
0.0
  0
SEQEND
  5
651
  8
0
  6
CONTINUOUS
 62
     7
  0
LINE
  5
93
  8
0
  6
CONTINUOUS
 62
     7
 10
106.5429722711868
 20
130.3715524639291
 30
0.0
 11
106.5490810786852
 21
130.6574096210749
 31
0.0
  0
LINE
  5
94
  8
0
  6
CONTINUOUS
 62
     7
 10
115.2735148345668
 20
130.6574096210978
 30
0.0
 11
114.9876576773987
 21
130.3715524639297
 31
0.0
  0
LINE
  5
95
  8
0
  6
CONTINUOUS
 62
     7
 10
143.332343083604
 20
138.9412665781782
 30
0.0
 11
143.3262342761954
 21
138.6554094210324
 31
0.0
  0
LINE
  5
96
  8
0
  6
CONTINUOUS
 62
     7
 10
134.601800520269
 20
138.6554094210545
 30
0.0
 11
134.8876576773922
 21
138.9412665781777
 31
0.0
  0
POLYLINE
  5
97
  8
0
  6
CONTINUOUS
 62
     7
 66
     1
 10
0.0
 20
0.0
 30
0.0
  0
VERTEX
  5
318
  8
0
  6
CONTINUOUS
 62
     7
 10
117.1550231362974
 20
142.5456754735882
 30
0.0
  0
VERTEX
  5
319
  8
0
  6
CONTINUOUS
 62
     7
 10
117.706666616506
 20
142.943242932419
 30
0.0
  0
VERTEX
  5
31A
  8
0
  6
CONTINUOUS
 62
     7
 10
118.2289343186914
 20
143.5726842769236
 30
0.0
  0
SEQEND
  5
652
  8
0
  6
CONTINUOUS
 62
     7
  0
LINE
  5
98
  8
0
  6
CONTINUOUS
 62
     7
 10
118.625523731146
 20
144.1564095210511
 30
0.0
 11
118.2289343186908
 21
143.5726842769221
 31
0.0
  0
LINE
  5
99
  8
0
  6
CONTINUOUS
 62
     7
 10
118.625523731146
 20
144.1564095210511
 30
0.0
 11
118.625523731146
 21
138.6564095210526
 31
0.0
  0
POLYLINE
  5
9A
  8
0
  6
CONTINUOUS
 62
     7
 66
     1
 10
0.0
 20
0.0
 30
0.0
  0
VERTEX
  5
31B
  8
0
  6
CONTINUOUS
 62
     7
 10
118.625523731146
 20
138.6564095210526
 30
0.0
  0
VERTEX
  5
31C
  8
0
  6
CONTINUOUS
 62
     7
 10
118.6115365591625
 20
139.0465901650847
 30
0.0
  0
VERTEX
  5
31D
  8
0
  6
CONTINUOUS
 62
     7
 10
118.5701125623872
 20
139.4217763857825
 30
0.0
  0
VERTEX
  5
31E
  8
0
  6
CONTINUOUS
 62
     7
 10
118.5028436417852
 20
139.7675499870915
 30
0.0
  0
VERTEX
  5
31F
  8
0
  6
CONTINUOUS
 62
     7
 10
118.4123149042506
 20
140.0706230834252
 30
0.0
  0
VERTEX
  5
320
  8
0
  6
CONTINUOUS
 62
     7
 10
118.3020053183976
 20
140.3193487456572
 30
0.0
  0
VERTEX
  5
321
  8
0
  6
CONTINUOUS
 62
     7
 10
118.1761540197484
 20
140.5041685860746
 30
0.0
  0
VERTEX
  5
322
  8
0
  6
CONTINUOUS
 62
     7
 10
118.0395974031316
 20
140.6179800818584
 30
0.0
  0
VERTEX
  5
323
  8
0
  6
CONTINUOUS
 62
     7
 10
117.8975832627421
 20
140.656409521052
 30
0.0
  0
SEQEND
  5
653
  8
0
  6
CONTINUOUS
 62
     7
  0
LINE
  5
9B
  8
0
  6
CONTINUOUS
 62
     7
 10
117.6064070753805
 20
140.6564095210521
 30
0.0
 11
117.8975832627421
 21
140.656409521052
 31
0.0
  0
POLYLINE
  5
9C
  8
0
  6
CONTINUOUS
 62
     7
 66
     1
 10
0.0
 20
0.0
 30
0.0
  0
VERTEX
  5
324
  8
0
  6
CONTINUOUS
 62
     7
 10
132.7202922181137
 20
126.7671435685191
 30
0.0
  0
VERTEX
  5
325
  8
0
  6
CONTINUOUS
 62
     7
 10
132.1686487377107
 20
126.3695761096884
 30
0.0
  0
VERTEX
  5
326
  8
0
  6
CONTINUOUS
 62
     7
 10
131.6463810353412
 20
125.7401347651838
 30
0.0
  0
SEQEND
  5
654
  8
0
  6
CONTINUOUS
 62
     7
  0
LINE
  5
9D
  8
0
  6
CONTINUOUS
 62
     7
 10
131.2497916227468
 20
125.1564095210562
 30
0.0
 11
131.6463810353418
 21
125.7401347651853
 31
0.0
  0
LINE
  5
9E
  8
0
  6
CONTINUOUS
 62
     7
 10
131.2497916227468
 20
125.1564095210562
 30
0.0
 11
131.2497916227468
 21
130.6564095210547
 31
0.0
  0
POLYLINE
  5
9F
  8
0
  6
CONTINUOUS
 62
     7
 66
     1
 10
0.0
 20
0.0
 30
0.0
  0
VERTEX
  5
327
  8
0
  6
CONTINUOUS
 62
     7
 10
131.2497916227468
 20
130.6564095210547
 30
0.0
  0
VERTEX
  5
328
  8
0
  6
CONTINUOUS
 62
     7
 10
131.2637787947353
 20
130.2662288770226
 30
0.0
  0
VERTEX
  5
329
  8
0
  6
CONTINUOUS
 62
     7
 10
131.3052027915252
 20
129.8910426563248
 30
0.0
  0
VERTEX
  5
32A
  8
0
  6
CONTINUOUS
 62
     7
 10
131.3724717121509
 20
129.5452690550159
 30
0.0
  0
VERTEX
  5
32B
  8
0
  6
CONTINUOUS
 62
     7
 10
131.4630004497174
 20
129.2421959586821
 30
0.0
  0
VERTEX
  5
32C
  8
0
  6
CONTINUOUS
 62
     7
 10
131.5733100356092
 20
128.9934702964502
 30
0.0
  0
VERTEX
  5
32D
  8
0
  6
CONTINUOUS
 62
     7
 10
131.6991613343029
 20
128.8086504560328
 30
0.0
  0
VERTEX
  5
32E
  8
0
  6
CONTINUOUS
 62
     7
 10
131.8357179509678
 20
128.6948389602489
 30
0.0
  0
VERTEX
  5
32F
  8
0
  6
CONTINUOUS
 62
     7
 10
131.9777320914073
 20
128.6564095210554
 30
0.0
  0
SEQEND
  5
655
  8
0
  6
CONTINUOUS
 62
     7
  0
LINE
  5
A0
  8
0
  6
CONTINUOUS
 62
     7
 10
132.2689082788715
 20
128.6564095210553
 30
0.0
 11
131.9777320914073
 21
128.6564095210553
 31
0.0
  0
LINE
  5
A1
  8
0
  6
CONTINUOUS
 62
     7
 10
106.4818841962025
 20
138.6564095210526
 30
0.0
 11
106.4886662370486
 21
140.2390103564882
 31
0.0
  0
LINE
  5
A2
  8
0
  6
CONTINUOUS
 62
     7
 10
143.3934311576903
 20
130.6564095210547
 30
0.0
 11
143.3866491169438
 21
129.0738086856192
 31
0.0
  0
LINE
  5
A3
  8
0
  6
CONTINUOUS
 62
     7
 10
106.4818841962025
 20
138.6564095210526
 30
0.0
 11
106.4818841962025
 21
137.4848366457991
 31
0.0
  0
LINE
  5
A4
  8
0
  6
CONTINUOUS
 62
     7
 10
106.4923564376284
 20
130.7885935998925
 30
0.0
 11
106.4818841962025
 21
137.4848366457981
 31
0.0
  0
LINE
  5
A5
  8
0
  6
CONTINUOUS
 62
     7
 10
106.4923564376285
 20
130.788593599892
 30
0.0
 11
106.4923564376285
 21
129.1564095210552
 31
0.0
  0
LINE
  5
A6
  8
0
  6
CONTINUOUS
 62
     7
 10
106.4919239296831
 20
129.0738086856188
 30
0.0
 11
106.4923564376285
 21
129.1564095210552
 31
0.0
  0
LINE
  5
A7
  8
0
  6
CONTINUOUS
 62
     7
 10
106.4600670265653
 20
140.2390103564885
 30
0.0
 11
106.4600670265653
 21
129.0738086856188
 31
0.0
  0
POLYLINE
  5
A8
  8
0
  6
CONTINUOUS
 62
     7
 66
     1
 10
0.0
 20
0.0
 30
0.0
  0
VERTEX
  5
330
  8
0
  6
CONTINUOUS
 62
     7
 10
116.8189123753621
 20
130.7885935998908
 30
0.0
  0
VERTEX
  5
331
  8
0
  6
CONTINUOUS
 62
     7
 10
118.0468216878806
 20
131.2549513436727
 30
0.0
  0
VERTEX
  5
332
  8
0
  6
CONTINUOUS
 62
     7
 10
119.2725147340743
 20
131.8279823963073
 30
0.0
  0
SEQEND
  5
656
  8
0
  6
CONTINUOUS
 62
     7
  0
LINE
  5
A9
  8
0
  6
CONTINUOUS
 62
     7
 10
106.4923564376285
 20
130.788593599892
 30
0.0
 11
106.5358816764822
 21
130.788593599892
 31
0.0
  0
LINE
  5
AA
  8
0
  6
CONTINUOUS
 62
     7
 10
115.4046988134059
 20
130.788593599892
 30
0.0
 11
116.8189123753617
 21
130.788593599892
 31
0.0
  0
LINE
  5
AB
  8
0
  6
CONTINUOUS
 62
     7
 10
106.4818841962025
 20
137.4848366457991
 30
0.0
 11
106.5469315860527
 21
137.4848366457991
 31
0.0
  0
LINE
  5
AC
  8
0
  6
CONTINUOUS
 62
     7
 10
116.9876576775853
 20
137.4848366457991
 30
0.0
 11
119.8221866375834
 21
137.4848366457994
 31
0.0
  0
LINE
  5
AD
  8
0
  6
CONTINUOUS
 62
     7
 10
119.4787157719131
 20
131.8279823963082
 30
0.0
 11
119.8221866375835
 21
137.4848366457991
 31
0.0
  0
LINE
  5
AE
  8
0
  6
CONTINUOUS
 62
     7
 10
119.4787157719131
 20
131.8279823963082
 30
0.0
 11
119.2725147340737
 21
131.8279823963082
 31
0.0
  0
LINE
  5
AF
  8
0
  6
CONTINUOUS
 62
     7
 10
106.4923564376285
 20
129.1564095210552
 30
0.0
 11
115.1867282965248
 21
129.1564095210552
 31
0.0
  0
LINE
  5
B0
  8
0
  6
CONTINUOUS
 62
     7
 10
115.1867282965248
 20
129.1564095210552
 30
0.0
 11
114.6009418588211
 21
127.1564095210557
 31
0.0
  0
LINE
  5
B1
  8
0
  6
CONTINUOUS
 62
     7
 10
114.6009418588211
 20
127.1564095210557
 30
0.0
 11
107.4083228629585
 21
127.1564095210557
 31
0.0
  0
POLYLINE
  5
B2
  8
0
  6
CONTINUOUS
 62
     7
 66
     1
 10
0.0
 20
0.0
 30
0.0
  0
VERTEX
  5
333
  8
0
  6
CONTINUOUS
 62
     7
 10
107.3008828582367
 20
126.3303483006379
 30
0.0
  0
VERTEX
  5
334
  8
0
  6
CONTINUOUS
 62
     7
 10
107.2707968881023
 20
126.3784615014872
 30
0.0
  0
VERTEX
  5
335
  8
0
  6
CONTINUOUS
 62
     7
 10
107.2427733563714
 20
126.4277536404168
 30
0.0
  0
VERTEX
  5
336
  8
0
  6
CONTINUOUS
 62
     7
 10
107.2170948055388
 20
126.4781041349942
 30
0.0
  0
VERTEX
  5
337
  8
0
  6
CONTINUOUS
 62
     7
 10
107.1940437780993
 20
126.5293924027872
 30
0.0
  0
VERTEX
  5
338
  8
0
  6
CONTINUOUS
 62
     7
 10
107.1739028165477
 20
126.5814978613633
 30
0.0
  0
VERTEX
  5
339
  8
0
  6
CONTINUOUS
 62
     7
 10
107.1569544633787
 20
126.63429992829
 30
0.0
  0
VERTEX
  5
33A
  8
0
  6
CONTINUOUS
 62
     7
 10
107.1434812610872
 20
126.6876780211349
 30
0.0
  0
VERTEX
  5
33B
  8
0
  6
CONTINUOUS
 62
     7
 10
107.1337657521678
 20
126.7415115574657
 30
0.0
  0
VERTEX
  5
33C
  8
0
  6
CONTINUOUS
 62
     7
 10
107.129946136944
 20
126.7734829494828
 30
0.0
  0
VERTEX
  5
33D
  8
0
  6
CONTINUOUS
 62
     7
 10
107.1277251642983
 20
126.8055990217871
 30
0.0
  0
VERTEX
  5
33E
  8
0
  6
CONTINUOUS
 62
     7
 10
107.1272586168599
 20
126.8377578177909
 30
0.0
  0
VERTEX
  5
33F
  8
0
  6
CONTINUOUS
 62
     7
 10
107.1287022772579
 20
126.8698573809068
 30
0.0
  0
VERTEX
  5
340
  8
0
  6
CONTINUOUS
 62
     7
 10
107.1308264094143
 20
126.8913314798909
 30
0.0
  0
VERTEX
  5
341
  8
0
  6
CONTINUOUS
 62
     7
 10
107.1339677940419
 20
126.9127709997441
 30
0.0
  0
VERTEX
  5
342
  8
0
  6
CONTINUOUS
 62
     7
 10
107.1382051917809
 20
126.9340860534599
 30
0.0
  0
VERTEX
  5
343
  8
0
  6
CONTINUOUS
 62
     7
 10
107.1436173632716
 20
126.9551867540315
 30
0.0
  0
VERTEX
  5
344
  8
0
  6
CONTINUOUS
 62
     7
 10
107.1502830691543
 20
126.9759832144522
 30
0.0
  0
VERTEX
  5
345
  8
0
  6
CONTINUOUS
 62
     7
 10
107.1582810700693
 20
126.9963855477155
 30
0.0
  0
VERTEX
  5
346
  8
0
  6
CONTINUOUS
 62
     7
 10
107.1643429311225
 20
127.0096024038422
 30
0.0
  0
VERTEX
  5
347
  8
0
  6
CONTINUOUS
 62
     7
 10
107.1710832723859
 20
127.0226164965567
 30
0.0
  0
VERTEX
  5
348
  8
0
  6
CONTINUOUS
 62
     7
 10
107.178516656192
 20
127.0353631784157
 30
0.0
  0
VERTEX
  5
349
  8
0
  6
CONTINUOUS
 62
     7
 10
107.1866576448731
 20
127.0477778019757
 30
0.0
  0
VERTEX
  5
34A
  8
0
  6
CONTINUOUS
 62
     7
 10
107.1955208007618
 20
127.0597957197934
 30
0.0
  0
VERTEX
  5
34B
  8
0
  6
CONTINUOUS
 62
     7
 10
107.2051206861904
 20
127.0713522844254
 30
0.0
  0
VERTEX
  5
34C
  8
0
  6
CONTINUOUS
 62
     7
 10
107.2126103588628
 20
127.0794623880712
 30
0.0
  0
VERTEX
  5
34D
  8
0
  6
CONTINUOUS
 62
     7
 10
107.2205379520375
 20
127.0873018371293
 30
0.0
  0
VERTEX
  5
34E
  8
0
  6
CONTINUOUS
 62
     7
 10
107.2288847625395
 20
127.0948368142489
 30
0.0
  0
VERTEX
  5
34F
  8
0
  6
CONTINUOUS
 62
     7
 10
107.2376320871937
 20
127.1020335020792
 30
0.0
  0
VERTEX
  5
350
  8
0
  6
CONTINUOUS
 62
     7
 10
107.2467612228252
 20
127.1088580832693
 30
0.0
  0
VERTEX
  5
351
  8
0
  6
CONTINUOUS
 62
     7
 10
107.2562534662589
 20
127.1152767404684
 30
0.0
  0
VERTEX
  5
352
  8
0
  6
CONTINUOUS
 62
     7
 10
107.2660901143198
 20
127.1212556563258
 30
0.0
  0
VERTEX
  5
353
  8
0
  6
CONTINUOUS
 62
     7
 10
107.276321504923
 20
127.1267997987461
 30
0.0
  0
VERTEX
  5
354
  8
0
  6
CONTINUOUS
 62
     7
 10
107.2869122461616
 20
127.1318902875305
 30
0.0
  0
VERTEX
  5
355
  8
0
  6
CONTINUOUS
 62
     7
 10
107.2978167382216
 20
127.1365159716385
 30
0.0
  0
VERTEX
  5
356
  8
0
  6
CONTINUOUS
 62
     7
 10
107.308989381289
 20
127.1406657000295
 30
0.0
  0
VERTEX
  5
357
  8
0
  6
CONTINUOUS
 62
     7
 10
107.3203845755497
 20
127.144328321663
 30
0.0
  0
VERTEX
  5
358
  8
0
  6
CONTINUOUS
 62
     7
 10
107.3319567211896
 20
127.1474926854985
 30
0.0
  0
VERTEX
  5
359
  8
0
  6
CONTINUOUS
 62
     7
 10
107.3436602183947
 20
127.1501476404953
 30
0.0
  0
VERTEX
  5
35A
  8
0
  6
CONTINUOUS
 62
     7
 10
107.3564062808783
 20
127.1524511108276
 30
0.0
  0
VERTEX
  5
35B
  8
0
  6
CONTINUOUS
 62
     7
 10
107.3692908389304
 20
127.1542105865509
 30
0.0
  0
VERTEX
  5
35C
  8
0
  6
CONTINUOUS
 62
     7
 10
107.3822686301969
 20
127.1554445151641
 30
0.0
  0
VERTEX
  5
35D
  8
0
  6
CONTINUOUS
 62
     7
 10
107.3952943923242
 20
127.1561713441662
 30
0.0
  0
VERTEX
  5
35E
  8
0
  6
CONTINUOUS
 62
     7
 10
107.4083228629585
 20
127.1564095210559
 30
0.0
  0
SEQEND
  5
657
  8
0
  6
CONTINUOUS
 62
     7
  0
POLYLINE
  5
B3
  8
0
  6
CONTINUOUS
 62
     7
 66
     1
 10
0.0
 20
0.0
 30
0.0
  0
VERTEX
  5
35F
  8
0
  6
CONTINUOUS
 62
     7
 10
106.4919239296818
 20
129.0738086856188
 30
0.0
  0
VERTEX
  5
360
  8
0
  6
CONTINUOUS
 62
     7
 10
106.580717725859
 20
128.1123280020298
 30
0.0
  0
VERTEX
  5
361
  8
0
  6
CONTINUOUS
 62
     7
 10
106.8538090044349
 20
127.1861807307512
 30
0.0
  0
VERTEX
  5
362
  8
0
  6
CONTINUOUS
 62
     7
 10
107.3008828582357
 20
126.3303483006376
 30
0.0
  0
SEQEND
  5
658
  8
0
  6
CONTINUOUS
 62
     7
  0
LINE
  5
B4
  8
0
  6
CONTINUOUS
 62
     7
 10
115.1867282965248
 20
129.1564095210552
 30
0.0
 11
116.8189123753617
 21
130.788593599892
 31
0.0
  0
LINE
  5
B5
  8
0
  6
CONTINUOUS
 62
     7
 10
119.2725147340737
 20
131.8279823963082
 30
0.0
 11
114.6009418588211
 21
127.1564095210557
 31
0.0
  0
POLYLINE
  5
B6
  8
0
  6
CONTINUOUS
 62
     7
 66
     1
 10
0.0
 20
0.0
 30
0.0
  0
VERTEX
  5
363
  8
0
  6
CONTINUOUS
 62
     7
 10
133.0564029786847
 20
138.5242254422165
 30
0.0
  0
VERTEX
  5
364
  8
0
  6
CONTINUOUS
 62
     7
 10
131.8284936660833
 20
138.0578676984346
 30
0.0
  0
VERTEX
  5
365
  8
0
  6
CONTINUOUS
 62
     7
 10
130.6028006198185
 20
137.4848366458001
 30
0.0
  0
SEQEND
  5
659
  8
0
  6
CONTINUOUS
 62
     7
  0
LINE
  5
B7
  8
0
  6
CONTINUOUS
 62
     7
 10
143.3829589164183
 20
138.5242254422154
 30
0.0
 11
143.3394336782044
 21
138.5242254422154
 31
0.0
  0
LINE
  5
B8
  8
0
  6
CONTINUOUS
 62
     7
 10
134.4706165414914
 20
138.5242254422154
 30
0.0
 11
133.0564029786851
 21
138.5242254422154
 31
0.0
  0
LINE
  5
B9
  8
0
  6
CONTINUOUS
 62
     7
 10
143.3829589164183
 20
138.5242254422148
 30
0.0
 11
143.3934311576903
 21
131.8279823963092
 31
0.0
  0
LINE
  5
BA
  8
0
  6
CONTINUOUS
 62
     7
 10
143.3934311576903
 20
131.8279823963082
 30
0.0
 11
143.3283837688353
 21
131.8279823963082
 31
0.0
  0
LINE
  5
BB
  8
0
  6
CONTINUOUS
 62
     7
 10
132.8876576775725
 20
131.8279823963082
 30
0.0
 11
130.0531287163094
 21
131.8279823963079
 31
0.0
  0
LINE
  5
BC
  8
0
  6
CONTINUOUS
 62
     7
 10
130.3965995819797
 20
137.4848366457991
 30
0.0
 11
130.0531287163093
 21
131.8279823963082
 31
0.0
  0
LINE
  5
BD
  8
0
  6
CONTINUOUS
 62
     7
 10
130.3965995819797
 20
137.4848366457991
 30
0.0
 11
130.6028006198192
 21
137.4848366457991
 31
0.0
  0
LINE
  5
BE
  8
0
  6
CONTINUOUS
 62
     7
 10
130.6028006198192
 20
137.4848366457991
 30
0.0
 11
135.2743734950717
 21
142.1564095210516
 31
0.0
  0
LINE
  5
BF
  8
0
  6
CONTINUOUS
 62
     7
 10
134.6885870575219
 20
140.1564095210522
 30
0.0
 11
135.2743734950717
 21
142.1564095210516
 31
0.0
  0
LINE
  5
C0
  8
0
  6
CONTINUOUS
 62
     7
 10
134.6885870575219
 20
140.1564095210522
 30
0.0
 11
133.0564029786851
 21
138.5242254422154
 31
0.0
  0
LINE
  5
C1
  8
0
  6
CONTINUOUS
 62
     7
 10
143.3829589164183
 20
140.1564095210522
 30
0.0
 11
134.6885870575219
 21
140.1564095210522
 31
0.0
  0
LINE
  5
C2
  8
0
  6
CONTINUOUS
 62
     7
 10
143.3829589164183
 20
138.5242254422154
 30
0.0
 11
143.3829589164183
 21
140.1564095210522
 31
0.0
  0
LINE
  5
C3
  8
0
  6
CONTINUOUS
 62
     7
 10
143.3833914243573
 20
140.2390103564885
 30
0.0
 11
143.3829589164183
 21
140.1564095210522
 31
0.0
  0
LINE
  5
C4
  8
0
  6
CONTINUOUS
 62
     7
 10
135.2743734950717
 20
142.1564095210516
 30
0.0
 11
142.4669924909344
 21
142.1564095210516
 31
0.0
  0
POLYLINE
  5
C5
  8
0
  6
CONTINUOUS
 62
     7
 66
     1
 10
0.0
 20
0.0
 30
0.0
  0
VERTEX
  5
366
  8
0
  6
CONTINUOUS
 62
     7
 10
142.5744324955927
 20
142.9824707414694
 30
0.0
  0
VERTEX
  5
367
  8
0
  6
CONTINUOUS
 62
     7
 10
142.6045184657307
 20
142.9343575406202
 30
0.0
  0
VERTEX
  5
368
  8
0
  6
CONTINUOUS
 62
     7
 10
142.6325419974654
 20
142.8850654016906
 30
0.0
  0
VERTEX
  5
369
  8
0
  6
CONTINUOUS
 62
     7
 10
142.6582205483019
 20
142.8347149071131
 30
0.0
  0
VERTEX
  5
36A
  8
0
  6
CONTINUOUS
 62
     7
 10
142.6812715757453
 20
142.7834266393201
 30
0.0
  0
VERTEX
  5
36B
  8
0
  6
CONTINUOUS
 62
     7
 10
142.7014125373009
 20
142.7313211807441
 30
0.0
  0
VERTEX
  5
36C
  8
0
  6
CONTINUOUS
 62
     7
 10
142.718360890474
 20
142.6785191138173
 30
0.0
  0
VERTEX
  5
36D
  8
0
  6
CONTINUOUS
 62
     7
 10
142.7318340927696
 20
142.6251410209724
 30
0.0
  0
VERTEX
  5
36E
  8
0
  6
CONTINUOUS
 62
     7
 10
142.7415496016931
 20
142.5713074846417
 30
0.0
  0
VERTEX
  5
36F
  8
0
  6
CONTINUOUS
 62
     7
 10
142.7453692169194
 20
142.5393360926246
 30
0.0
  0
VERTEX
  5
370
  8
0
  6
CONTINUOUS
 62
     7
 10
142.7475901895676
 20
142.5072200203203
 30
0.0
  0
VERTEX
  5
371
  8
0
  6
CONTINUOUS
 62
     7
 10
142.7480567370084
 20
142.4750612243164
 30
0.0
  0
VERTEX
  5
372
  8
0
  6
CONTINUOUS
 62
     7
 10
142.7466130766129
 20
142.4429616612006
 30
0.0
  0
VERTEX
  5
373
  8
0
  6
CONTINUOUS
 62
     7
 10
142.7444889444581
 20
142.4214875622165
 30
0.0
  0
VERTEX
  5
374
  8
0
  6
CONTINUOUS
 62
     7
 10
142.7413475598323
 20
142.4000480423632
 30
0.0
  0
VERTEX
  5
375
  8
0
  6
CONTINUOUS
 62
     7
 10
142.7371101620949
 20
142.3787329886474
 30
0.0
  0
VERTEX
  5
376
  8
0
  6
CONTINUOUS
 62
     7
 10
142.7316979906058
 20
142.3576322880759
 30
0.0
  0
VERTEX
  5
377
  8
0
  6
CONTINUOUS
 62
     7
 10
142.7250322847247
 20
142.3368358276551
 30
0.0
  0
VERTEX
  5
378
  8
0
  6
CONTINUOUS
 62
     7
 10
142.7170342838113
 20
142.3164334943918
 30
0.0
  0
VERTEX
  5
379
  8
0
  6
CONTINUOUS
 62
     7
 10
142.7109724227591
 20
142.3032166382652
 30
0.0
  0
VERTEX
  5
37A
  8
0
  6
CONTINUOUS
 62
     7
 10
142.7042320814967
 20
142.2902025455506
 30
0.0
  0
VERTEX
  5
37B
  8
0
  6
CONTINUOUS
 62
     7
 10
142.6967986976916
 20
142.2774558636917
 30
0.0
  0
VERTEX
  5
37C
  8
0
  6
CONTINUOUS
 62
     7
 10
142.6886577090114
 20
142.2650412401316
 30
0.0
  0
VERTEX
  5
37D
  8
0
  6
CONTINUOUS
 62
     7
 10
142.6797945531237
 20
142.253023322314
 30
0.0
  0
VERTEX
  5
37E
  8
0
  6
CONTINUOUS
 62
     7
 10
142.670194667696
 20
142.241466757682
 30
0.0
  0
VERTEX
  5
37F
  8
0
  6
CONTINUOUS
 62
     7
 10
142.6627049950242
 20
142.2333566540362
 30
0.0
  0
VERTEX
  5
380
  8
0
  6
CONTINUOUS
 62
     7
 10
142.6547774018501
 20
142.225517204978
 30
0.0
  0
VERTEX
  5
381
  8
0
  6
CONTINUOUS
 62
     7
 10
142.6464305913487
 20
142.2179822278584
 30
0.0
  0
VERTEX
  5
382
  8
0
  6
CONTINUOUS
 62
     7
 10
142.637683266695
 20
142.2107855400282
 30
0.0
  0
VERTEX
  5
383
  8
0
  6
CONTINUOUS
 62
     7
 10
142.628554131064
 20
142.2039609588381
 30
0.0
  0
VERTEX
  5
384
  8
0
  6
CONTINUOUS
 62
     7
 10
142.6190618876308
 20
142.1975423016389
 30
0.0
  0
VERTEX
  5
385
  8
0
  6
CONTINUOUS
 62
     7
 10
142.6092252395704
 20
142.1915633857816
 30
0.0
  0
VERTEX
  5
386
  8
0
  6
CONTINUOUS
 62
     7
 10
142.5989938489676
 20
142.1860192433613
 30
0.0
  0
VERTEX
  5
387
  8
0
  6
CONTINUOUS
 62
     7
 10
142.5884031077294
 20
142.1809287545768
 30
0.0
  0
VERTEX
  5
388
  8
0
  6
CONTINUOUS
 62
     7
 10
142.5774986156698
 20
142.1763030704689
 30
0.0
  0
VERTEX
  5
389
  8
0
  6
CONTINUOUS
 62
     7
 10
142.5663259726027
 20
142.1721533420778
 30
0.0
  0
VERTEX
  5
38A
  8
0
  6
CONTINUOUS
 62
     7
 10
142.5549307783423
 20
142.1684907204443
 30
0.0
  0
VERTEX
  5
38B
  8
0
  6
CONTINUOUS
 62
     7
 10
142.5433586327026
 20
142.1653263566089
 30
0.0
  0
VERTEX
  5
38C
  8
0
  6
CONTINUOUS
 62
     7
 10
142.5316551354977
 20
142.1626714016121
 30
0.0
  0
VERTEX
  5
38D
  8
0
  6
CONTINUOUS
 62
     7
 10
142.5189090730143
 20
142.1603679312798
 30
0.0
  0
VERTEX
  5
38E
  8
0
  6
CONTINUOUS
 62
     7
 10
142.5060245149624
 20
142.1586084555565
 30
0.0
  0
VERTEX
  5
38F
  8
0
  6
CONTINUOUS
 62
     7
 10
142.4930467236959
 20
142.1573745269433
 30
0.0
  0
VERTEX
  5
390
  8
0
  6
CONTINUOUS
 62
     7
 10
142.4800209615686
 20
142.1566476979412
 30
0.0
  0
VERTEX
  5
391
  8
0
  6
CONTINUOUS
 62
     7
 10
142.4669924909344
 20
142.1564095210514
 30
0.0
  0
SEQEND
  5
65A
  8
0
  6
CONTINUOUS
 62
     7
  0
POLYLINE
  5
C6
  8
0
  6
CONTINUOUS
 62
     7
 66
     1
 10
0.0
 20
0.0
 30
0.0
  0
VERTEX
  5
392
  8
0
  6
CONTINUOUS
 62
     7
 10
143.3833914243587
 20
140.2390103564884
 30
0.0
  0
VERTEX
  5
393
  8
0
  6
CONTINUOUS
 62
     7
 10
143.2945976281074
 20
141.2004910400776
 30
0.0
  0
VERTEX
  5
394
  8
0
  6
CONTINUOUS
 62
     7
 10
143.0215063494603
 20
142.1266383113562
 30
0.0
  0
VERTEX
  5
395
  8
0
  6
CONTINUOUS
 62
     7
 10
142.5744324955936
 20
142.9824707414697
 30
0.0
  0
SEQEND
  5
65B
  8
0
  6
CONTINUOUS
 62
     7
  0
LINE
  5
C7
  8
0
  6
CONTINUOUS
 62
     7
 10
143.4152483270068
 20
129.0738086856188
 30
0.0
 11
143.4152483270068
 21
140.2390103564885
 31
0.0
  0
LINE
  5
C8
  8
0
  6
CONTINUOUS
 62
     7
 10
143.3934311576903
 20
130.6564095210547
 30
0.0
 11
143.3934311576903
 21
131.8279823963082
 31
0.0
  0
ARC
  5
C9
  8
0
  6
CONTINUOUS
 62
     7
 10
111.460067026564
 20
129.0738086856189
 30
0.0
 40
4.999999999999992
 50
180.0000000000002
 51
224.9999999999998
  0
ARC
  5
CA
  8
0
  6
CONTINUOUS
 62
     7
 10
138.4152483270082
 20
140.2390103564885
 30
0.0
 40
4.999999999999981
 50
359.9999999999997
 51
45.00000000000028
  0
LINE
  5
CB
  8
0
  6
CONTINUOUS
 62
     7
 10
107.9445898799317
 20
143.7544875033292
 30
0.0
 11
108.5966552169007
 21
144.4219291990426
 31
0.0
  0
POLYLINE
  5
CC
  8
0
  6
CONTINUOUS
 62
     7
 66
     1
 10
0.0
 20
0.0
 30
0.0
  0
VERTEX
  5
396
  8
0
  6
CONTINUOUS
 62
     7
 10
109.0382153956679
 20
144.156409521051
 30
0.0
  0
VERTEX
  5
397
  8
0
  6
CONTINUOUS
 62
     7
 10
109.0040309842619
 20
144.1567285924267
 30
0.0
  0
VERTEX
  5
398
  8
0
  6
CONTINUOUS
 62
     7
 10
108.9705661565354
 20
144.1576850463983
 30
0.0
  0
VERTEX
  5
399
  8
0
  6
CONTINUOUS
 62
     7
 10
108.9379006390808
 20
144.1592766043101
 30
0.0
  0
VERTEX
  5
39A
  8
0
  6
CONTINUOUS
 62
     7
 10
108.9061122542139
 20
144.1614994744352
 30
0.0
  0
VERTEX
  5
39B
  8
0
  6
CONTINUOUS
 62
     7
 10
108.8752767345704
 20
144.1643483610088
 30
0.0
  0
VERTEX
  5
39C
  8
0
  6
CONTINUOUS
 62
     7
 10
108.84546754268
 20
144.1678164768446
 30
0.0
  0
VERTEX
  5
39D
  8
0
  6
CONTINUOUS
 62
     7
 10
108.8167556959497
 20
144.1718955595048
 30
0.0
  0
VERTEX
  5
39E
  8
0
  6
CONTINUOUS
 62
     7
 10
108.7892095974719
 20
144.1765758909844
 30
0.0
  0
VERTEX
  5
39F
  8
0
  6
CONTINUOUS
 62
     7
 10
108.7628948730607
 20
144.1818463208636
 30
0.0
  0
VERTEX
  5
3A0
  8
0
  6
CONTINUOUS
 62
     7
 10
108.7378742149051
 20
144.1876942928724
 30
0.0
  0
VERTEX
  5
3A1
  8
0
  6
CONTINUOUS
 62
     7
 10
108.7142072322112
 20
144.1941058748045
 30
0.0
  0
VERTEX
  5
3A2
  8
0
  6
CONTINUOUS
 62
     7
 10
108.6919503091893
 20
144.2010657917097
 30
0.0
  0
VERTEX
  5
3A3
  8
0
  6
CONTINUOUS
 62
     7
 10
108.671156470724
 20
144.2085574622847
 30
0.0
  0
VERTEX
  5
3A4
  8
0
  6
CONTINUOUS
 62
     7
 10
108.6518752560478
 20
144.2165630383764
 30
0.0
  0
VERTEX
  5
3A5
  8
0
  6
CONTINUOUS
 62
     7
 10
108.6341526007189
 20
144.2250634475036
 30
0.0
  0
VERTEX
  5
3A6
  8
0
  6
CONTINUOUS
 62
     7
 10
108.6180307271845
 20
144.2340384382948
 30
0.0
  0
VERTEX
  5
3A7
  8
0
  6
CONTINUOUS
 62
     7
 10
108.6035480441896
 20
144.2434666287357
 30
0.0
  0
VERTEX
  5
3A8
  8
0
  6
CONTINUOUS
 62
     7
 10
108.5907390552725
 20
144.253325557109
 30
0.0
  0
VERTEX
  5
3A9
  8
0
  6
CONTINUOUS
 62
     7
 10
108.5796342765634
 20
144.2635917355075
 30
0.0
  0
VERTEX
  5
3AA
  8
0
  6
CONTINUOUS
 62
     7
 10
108.5702601640826
 20
144.2742407057921
 30
0.0
  0
VERTEX
  5
3AB
  8
0
  6
CONTINUOUS
 62
     7
 10
108.562639050712
 20
144.28524709786
 30
0.0
  0
VERTEX
  5
3AC
  8
0
  6
CONTINUOUS
 62
     7
 10
108.5567890929892
 20
144.2965846900872
 30
0.0
  0
VERTEX
  5
3AD
  8
0
  6
CONTINUOUS
 62
     7
 10
108.552724227851
 20
144.3082264717984
 30
0.0
  0
VERTEX
  5
3AE
  8
0
  6
CONTINUOUS
 62
     7
 10
108.5504541394306
 20
144.3201447076174
 30
0.0
  0
VERTEX
  5
3AF
  8
0
  6
CONTINUOUS
 62
     7
 10
108.5499842359857
 20
144.332311003544
 30
0.0
  0
VERTEX
  5
3B0
  8
0
  6
CONTINUOUS
 62
     7
 10
108.5513156370141
 20
144.3446963745996
 30
0.0
  0
VERTEX
  5
3B1
  8
0
  6
CONTINUOUS
 62
     7
 10
108.5544451705866
 20
144.3572713138809
 30
0.0
  0
VERTEX
  5
3B2
  8
0
  6
CONTINUOUS
 62
     7
 10
108.5593653809036
 20
144.3700058628577
 30
0.0
  0
VERTEX
  5
3B3
  8
0
  6
CONTINUOUS
 62
     7
 10
108.5660645460579
 20
144.3828696827455
 30
0.0
  0
VERTEX
  5
3B4
  8
0
  6
CONTINUOUS
 62
     7
 10
108.5745267059611
 20
144.3958321267849
 30
0.0
  0
VERTEX
  5
3B5
  8
0
  6
CONTINUOUS
 62
     7
 10
108.584731700367
 20
144.4088623132543
 30
0.0
  0
VERTEX
  5
3B6
  8
0
  6
CONTINUOUS
 62
     7
 10
108.5966552169007
 20
144.4219291990426
 30
0.0
  0
SEQEND
  5
65C
  8
0
  6
CONTINUOUS
 62
     7
  0
LINE
  5
CD
  8
0
  6
CONTINUOUS
 62
     7
 10
109.0382153956679
 20
144.1564095210511
 30
0.0
 11
118.625523731146
 21
144.1564095210511
 31
0.0
  0
LINE
  5
CE
  8
0
  6
CONTINUOUS
 62
     7
 10
141.9307254740573
 20
125.5583315387781
 30
0.0
 11
141.2786601369284
 21
124.8908898430648
 31
0.0
  0
POLYLINE
  5
CF
  8
0
  6
CONTINUOUS
 62
     7
 66
     1
 10
0.0
 20
0.0
 30
0.0
  0
VERTEX
  5
3B7
  8
0
  6
CONTINUOUS
 62
     7
 10
140.8370999582249
 20
125.1564095210563
 30
0.0
  0
VERTEX
  5
3B8
  8
0
  6
CONTINUOUS
 62
     7
 10
140.8712843696308
 20
125.1560904496806
 30
0.0
  0
VERTEX
  5
3B9
  8
0
  6
CONTINUOUS
 62
     7
 10
140.9047491973571
 20
125.1551339957091
 30
0.0
  0
VERTEX
  5
3BA
  8
0
  6
CONTINUOUS
 62
     7
 10
140.9374147148113
 20
125.1535424377973
 30
0.0
  0
VERTEX
  5
3BB
  8
0
  6
CONTINUOUS
 62
     7
 10
140.9692030996776
 20
125.1513195676721
 30
0.0
  0
VERTEX
  5
3BC
  8
0
  6
CONTINUOUS
 62
     7
 10
141.0000386193205
 20
125.1484706810985
 30
0.0
  0
VERTEX
  5
3BD
  8
0
  6
CONTINUOUS
 62
     7
 10
141.02984781121
 20
125.1450025652627
 30
0.0
  0
VERTEX
  5
3BE
  8
0
  6
CONTINUOUS
 62
     7
 10
141.0585596579393
 20
125.1409234826026
 30
0.0
  0
VERTEX
  5
3BF
  8
0
  6
CONTINUOUS
 62
     7
 10
141.086105756416
 20
125.1362431511229
 30
0.0
  0
VERTEX
  5
3C0
  8
0
  6
CONTINUOUS
 62
     7
 10
141.112420480826
 20
125.1309727212437
 30
0.0
  0
VERTEX
  5
3C1
  8
0
  6
CONTINUOUS
 62
     7
 10
141.1374411389802
 20
125.1251247492349
 30
0.0
  0
VERTEX
  5
3C2
  8
0
  6
CONTINUOUS
 62
     7
 10
141.1611081216725
 20
125.1187131673028
 30
0.0
  0
VERTEX
  5
3C3
  8
0
  6
CONTINUOUS
 62
     7
 10
141.1833650446927
 20
125.1117532503976
 30
0.0
  0
VERTEX
  5
3C4
  8
0
  6
CONTINUOUS
 62
     7
 10
141.2041588831563
 20
125.1042615798226
 30
0.0
  0
VERTEX
  5
3C5
  8
0
  6
CONTINUOUS
 62
     7
 10
141.2234400978305
 20
125.0962560037309
 30
0.0
  0
VERTEX
  5
3C6
  8
0
  6
CONTINUOUS
 62
     7
 10
141.2411627531574
 20
125.0877555946038
 30
0.0
  0
VERTEX
  5
3C7
  8
0
  6
CONTINUOUS
 62
     7
 10
141.2572846266897
 20
125.0787806038125
 30
0.0
  0
VERTEX
  5
3C8
  8
0
  6
CONTINUOUS
 62
     7
 10
141.2717673096823
 20
125.0693524133716
 30
0.0
  0
VERTEX
  5
3C9
  8
0
  6
CONTINUOUS
 62
     7
 10
141.284576298597
 20
125.0594934849984
 30
0.0
  0
VERTEX
  5
3CA
  8
0
  6
CONTINUOUS
 62
     7
 10
141.2956810773037
 20
125.0492273065998
 30
0.0
  0
VERTEX
  5
3CB
  8
0
  6
CONTINUOUS
 62
     7
 10
141.3050551897819
 20
125.0385783363153
 30
0.0
  0
VERTEX
  5
3CC
  8
0
  6
CONTINUOUS
 62
     7
 10
141.3126763031499
 20
125.0275719442473
 30
0.0
  0
VERTEX
  5
3CD
  8
0
  6
CONTINUOUS
 62
     7
 10
141.31852626087
 20
125.0162343520202
 30
0.0
  0
VERTEX
  5
3CE
  8
0
  6
CONTINUOUS
 62
     7
 10
141.3225911260054
 20
125.004592570309
 30
0.0
  0
VERTEX
  5
3CF
  8
0
  6
CONTINUOUS
 62
     7
 10
141.324861214423
 20
124.9926743344899
 30
0.0
  0
VERTEX
  5
3D0
  8
0
  6
CONTINUOUS
 62
     7
 10
141.3253311178649
 20
124.9805080385633
 30
0.0
  0
VERTEX
  5
3D1
  8
0
  6
CONTINUOUS
 62
     7
 10
141.3239997168335
 20
124.9681226675078
 30
0.0
  0
VERTEX
  5
3D2
  8
0
  6
CONTINUOUS
 62
     7
 10
141.320870183258
 20
124.9555477282264
 30
0.0
  0
VERTEX
  5
3D3
  8
0
  6
CONTINUOUS
 62
     7
 10
141.315949972938
 20
124.9428131792496
 30
0.0
  0
VERTEX
  5
3D4
  8
0
  6
CONTINUOUS
 62
     7
 10
141.3092508077806
 20
124.9299493593618
 30
0.0
  0
VERTEX
  5
3D5
  8
0
  6
CONTINUOUS
 62
     7
 10
141.3007886478743
 20
124.9169869153224
 30
0.0
  0
VERTEX
  5
3D6
  8
0
  6
CONTINUOUS
 62
     7
 10
141.2905836534653
 20
124.9039567288531
 30
0.0
  0
VERTEX
  5
3D7
  8
0
  6
CONTINUOUS
 62
     7
 10
141.2786601369285
 20
124.8908898430647
 30
0.0
  0
SEQEND
  5
65D
  8
0
  6
CONTINUOUS
 62
     7
  0
LINE
  5
D0
  8
0
  6
CONTINUOUS
 62
     7
 10
140.8370999582249
 20
125.1564095210562
 30
0.0
 11
131.2497916227468
 21
125.1564095210562
 31
0.0
  0
LINE
  5
D1
  8
0
  6
CONTINUOUS
 62
     7
 10
110.1042610750599
 20
145.9542722168481
 30
0.0
 11
107.9245331206321
 21
143.7745442624203
 31
0.0
  0
LINE
  5
D2
  8
0
  6
CONTINUOUS
 62
     7
 10
110.1042610751885
 20
145.9295350573303
 30
0.0
 11
110.1042610750599
 21
145.9542722168481
 31
0.0
  0
LINE
  5
D3
  8
0
  6
CONTINUOUS
 62
     7
 10
139.7710542785122
 20
123.3585468252593
 30
0.0
 11
141.9507822329399
 21
125.5382747796871
 31
0.0
  0
LINE
  5
D4
  8
0
  6
CONTINUOUS
 62
     7
 10
139.7710542786407
 20
123.3832839847771
 30
0.0
 11
139.7710542785122
 21
123.3585468252593
 31
0.0
  0
LINE
  5
D5
  8
0
  6
CONTINUOUS
 62
     7
 10
125.2906673154799
 20
131.8279823963079
 30
0.0
 11
125.0203860591167
 21
133.020025550141
 31
0.0
  0
LINE
  5
D6
  8
0
  6
CONTINUOUS
 62
     7
 10
125.1308898755928
 20
134.6564095210537
 30
0.0
 11
125.0203860469617
 21
133.0200256351465
 31
0.0
  0
LINE
  5
D7
  8
0
  6
CONTINUOUS
 62
     7
 10
125.462128980313
 20
134.6564095210537
 30
0.0
 11
125.2906673154798
 21
131.8279823963082
 31
0.0
  0
LINE
  5
D8
  8
0
  6
CONTINUOUS
 62
     7
 10
125.634113232007
 20
137.4848366457991
 30
0.0
 11
125.462128980313
 21
134.6564095210537
 31
0.0
  0
LINE
  5
D9
  8
0
  6
CONTINUOUS
 62
     7
 10
125.634113232007
 20
137.4848366457991
 30
0.0
 11
126.172302062445
 21
137.4848366457994
 31
0.0
  0
LINE
  5
DA
  8
0
  6
CONTINUOUS
 62
     7
 10
125.8288228201065
 20
131.8279823963082
 30
0.0
 11
126.172302062445
 21
137.4848366457994
 31
0.0
  0
LINE
  5
DB
  8
0
  6
CONTINUOUS
 62
     7
 10
125.8288228201065
 20
131.8279823963082
 30
0.0
 11
125.2906673154799
 21
131.8279823963079
 31
0.0
  0
LINE
  5
DC
  8
0
  6
CONTINUOUS
 62
     7
 10
124.0464925337855
 20
137.4848366457986
 30
0.0
 11
123.7030132914478
 21
131.8279823963083
 31
0.0
  0
LINE
  5
DD
  8
0
  6
CONTINUOUS
 62
     7
 10
124.0464925337855
 20
137.4848366457986
 30
0.0
 11
124.5846480384129
 21
137.4848366457994
 31
0.0
  0
LINE
  5
DE
  8
0
  6
CONTINUOUS
 62
     7
 10
124.4131863734515
 20
134.6564095210537
 30
0.0
 11
124.5846480384129
 21
137.4848366457994
 31
0.0
  0
LINE
  5
DF
  8
0
  6
CONTINUOUS
 62
     7
 10
124.2412021218859
 20
131.8279823963082
 30
0.0
 11
124.4131863734515
 21
134.6564095210537
 31
0.0
  0
LINE
  5
E0
  8
0
  6
CONTINUOUS
 62
     7
 10
124.2412021218858
 20
131.8279823963082
 30
0.0
 11
123.7030132914478
 21
131.8279823963083
 31
0.0
  0
LINE
  5
E1
  8
0
  6
CONTINUOUS
 62
     7
 10
124.7444254782533
 20
134.6564095210537
 30
0.0
 11
124.6339212280975
 21
133.0200255618701
 31
0.0
  0
LINE
  5
E2
  8
0
  6
CONTINUOUS
 62
     7
 10
124.6339212280975
 20
133.0200255618701
 30
0.0
 11
124.2412021218858
 21
131.8279823963082
 31
0.0
  0
LINE
  5
E3
  8
0
  6
CONTINUOUS
 62
     7
 10
123.7030132914478
 20
131.8279823963083
 30
0.0
 11
123.4329394731882
 21
133.0207710811053
 31
0.0
  0
LINE
  5
E4
  8
0
  6
CONTINUOUS
 62
     7
 10
123.6538650898997
 20
136.2923284195122
 30
0.0
 11
123.4329394945888
 21
133.0207709423254
 31
0.0
  0
LINE
  5
E5
  8
0
  6
CONTINUOUS
 62
     7
 10
123.6538650801438
 20
136.2923282844177
 30
0.0
 11
124.0464925337855
 21
137.4848366457986
 31
0.0
  0
LINE
  5
E6
  8
0
  6
CONTINUOUS
 62
     7
 10
126.172302062445
 20
137.4848366457994
 30
0.0
 11
126.4423758807046
 21
136.292047961002
 31
0.0
  0
LINE
  5
E7
  8
0
  6
CONTINUOUS
 62
     7
 10
126.2214502639931
 20
133.0204906225951
 30
0.0
 11
126.442375859304
 21
136.292048099782
 31
0.0
  0
LINE
  5
E8
  8
0
  6
CONTINUOUS
 62
     7
 10
126.221450273749
 20
133.0204907576897
 30
0.0
 11
125.8288228201065
 21
131.8279823963082
 31
0.0
  0
LINE
  5
E9
  8
0
  6
CONTINUOUS
 62
     7
 10
119.8221866375834
 20
137.4848366457994
 30
0.0
 11
120.0924024148795
 21
136.2925028559442
 31
0.0
  0
LINE
  5
EA
  8
0
  6
CONTINUOUS
 62
     7
 10
120.0924023783223
 20
136.2925028623989
 30
0.0
 11
119.871425319954
 21
133.0200410874802
 31
0.0
  0
LINE
  5
EB
  8
0
  6
CONTINUOUS
 62
     7
 10
119.871425319954
 20
133.0200410874802
 30
0.0
 11
119.4787157719131
 21
131.8279823963082
 31
0.0
  0
LINE
  5
EC
  8
0
  6
CONTINUOUS
 62
     7
 10
130.0531287163094
 20
131.8279823963079
 30
0.0
 11
129.7829129390134
 21
133.0203161861631
 31
0.0
  0
LINE
  5
ED
  8
0
  6
CONTINUOUS
 62
     7
 10
129.7829129755705
 20
133.0203161797085
 30
0.0
 11
130.0038900339389
 21
136.2927779546272
 31
0.0
  0
LINE
  5
EE
  8
0
  6
CONTINUOUS
 62
     7
 10
130.0038900339389
 20
136.2927779546272
 30
0.0
 11
130.3965995819797
 21
137.4848366457991
 31
0.0
  0
LINE
  5
EF
  8
0
  6
CONTINUOUS
 62
     7
 10
122.1154352064444
 20
131.8279823963079
 30
0.0
 11
121.845440155129
 21
133.020889963128
 31
0.0
  0
LINE
  5
F0
  8
0
  6
CONTINUOUS
 62
     7
 10
122.0663298069977
 20
136.2918159323798
 30
0.0
 11
121.8454401660206
 21
133.0208898995699
 31
0.0
  0
LINE
  5
F1
  8
0
  6
CONTINUOUS
 62
     7
 10
122.0663298085388
 20
136.2918159537346
 30
0.0
 11
122.4588683319032
 21
137.4848366457991
 31
0.0
  0
LINE
  5
F2
  8
0
  6
CONTINUOUS
 62
     7
 10
122.4588683319031
 20
137.4848366457991
 30
0.0
 11
122.1154352064444
 21
131.8279823963079
 31
0.0
  0
LINE
  5
F3
  8
0
  6
CONTINUOUS
 62
     7
 10
122.6538431235007
 20
131.8279823963082
 30
0.0
 11
122.9972649870047
 21
137.4848366457983
 31
0.0
  0
LINE
  5
F4
  8
0
  6
CONTINUOUS
 62
     7
 10
122.6538431235007
 20
131.8279823963082
 30
0.0
 11
122.1154352064444
 21
131.8279823963079
 31
0.0
  0
LINE
  5
F5
  8
0
  6
CONTINUOUS
 62
     7
 10
122.4588683319032
 20
137.4848366457991
 30
0.0
 11
122.9972649870047
 21
137.4848366457983
 31
0.0
  0
LINE
  5
F6
  8
0
  6
CONTINUOUS
 62
     7
 10
127.2214722303925
 20
137.4848366457991
 30
0.0
 11
126.8780503668883
 21
131.8279823963082
 31
0.0
  0
LINE
  5
F7
  8
0
  6
CONTINUOUS
 62
     7
 10
127.2214722303925
 20
137.4848366457991
 30
0.0
 11
127.7598801474484
 21
137.4848366457995
 31
0.0
  0
LINE
  5
F8
  8
0
  6
CONTINUOUS
 62
     7
 10
127.4164470219897
 20
131.8279823963082
 30
0.0
 11
127.7598801474484
 21
137.4848366457995
 31
0.0
  0
LINE
  5
F9
  8
0
  6
CONTINUOUS
 62
     7
 10
127.4164470219896
 20
131.8279823963082
 30
0.0
 11
126.8780503668884
 21
131.8279823963079
 31
0.0
  0
LINE
  5
FA
  8
0
  6
CONTINUOUS
 62
     7
 10
127.7598801474484
 20
137.4848366457995
 30
0.0
 11
128.0298751987638
 21
136.2919290789794
 31
0.0
  0
LINE
  5
FB
  8
0
  6
CONTINUOUS
 62
     7
 10
127.8089855468952
 20
133.0210031097275
 30
0.0
 11
128.0298751878722
 21
136.2919291425374
 31
0.0
  0
LINE
  5
FC
  8
0
  6
CONTINUOUS
 62
     7
 10
127.808985545354
 20
133.0210030883728
 30
0.0
 11
127.4164470219896
 21
131.8279823963082
 31
0.0
  0
LINE
  5
FD
  8
0
  6
CONTINUOUS
 62
     7
 10
121.0664342199128
 20
131.8279823963081
 30
0.0
 11
121.4099008273136
 21
137.4848366457991
 31
0.0
  0
LINE
  5
FE
  8
0
  6
CONTINUOUS
 62
     7
 10
121.0664342199128
 20
131.8279823963081
 30
0.0
 11
120.5281548017436
 21
131.8279823963079
 31
0.0
  0
LINE
  5
FF
  8
0
  6
CONTINUOUS
 62
     7
 10
120.8715863941453
 20
137.4848366457991
 30
0.0
 11
120.5281548017436
 21
131.8279823963079
 31
0.0
  0
LINE
  5
100
  8
0
  6
CONTINUOUS
 62
     7
 10
120.8715863941453
 20
137.4848366457991
 30
0.0
 11
121.4099008273135
 21
137.4848366457995
 31
0.0
  0
LINE
  5
101
  8
0
  6
CONTINUOUS
 62
     7
 10
121.4099008273135
 20
137.4848366457995
 30
0.0
 11
121.67986508666
 21
136.2918159548899
 31
0.0
  0
LINE
  5
102
  8
0
  6
CONTINUOUS
 62
     7
 10
121.6798650759381
 20
136.291815956794
 30
0.0
 11
121.4589754383464
 21
133.0208899723525
 31
0.0
  0
LINE
  5
103
  8
0
  6
CONTINUOUS
 62
     7
 10
121.4589754383464
 20
133.0208899723525
 30
0.0
 11
121.0664342199128
 21
131.8279823963081
 31
0.0
  0
LINE
  5
104
  8
0
  6
CONTINUOUS
 62
     7
 10
128.4654145265793
 20
131.8279823963079
 30
0.0
 11
128.1954502672328
 21
133.0210030872174
 31
0.0
  0
LINE
  5
105
  8
0
  6
CONTINUOUS
 62
     7
 10
128.1954502779547
 20
133.0210030853133
 30
0.0
 11
128.4163399155464
 21
136.2919290697549
 31
0.0
  0
LINE
  5
106
  8
0
  6
CONTINUOUS
 62
     7
 10
128.4163399155464
 20
136.2919290697549
 30
0.0
 11
128.8088811339801
 21
137.4848366457991
 31
0.0
  0
LINE
  5
107
  8
0
  6
CONTINUOUS
 62
     7
 10
128.8088811339801
 20
137.4848366457991
 30
0.0
 11
128.4654145265792
 21
131.8279823963082
 31
0.0
  0
LINE
  5
108
  8
0
  6
CONTINUOUS
 62
     7
 10
128.8088811339801
 20
137.4848366457991
 30
0.0
 11
129.3471605521492
 21
137.4848366457994
 31
0.0
  0
LINE
  5
109
  8
0
  6
CONTINUOUS
 62
     7
 10
129.0037289597476
 20
131.8279823963082
 30
0.0
 11
129.3471605521492
 21
137.4848366457994
 31
0.0
  0
LINE
  5
10A
  8
0
  6
CONTINUOUS
 62
     7
 10
129.0037289597475
 20
131.8279823963082
 30
0.0
 11
128.4654145265793
 21
131.8279823963079
 31
0.0
  0
LINE
  5
10B
  8
0
  6
CONTINUOUS
 62
     7
 10
120.5281548017436
 20
131.8279823963079
 30
0.0
 11
120.2578900193026
 21
133.0200410743288
 31
0.0
  0
LINE
  5
10C
  8
0
  6
CONTINUOUS
 62
     7
 10
120.4788671225577
 20
136.2925030209457
 30
0.0
 11
120.257890042145
 21
133.020040936272
 31
0.0
  0
LINE
  5
10D
  8
0
  6
CONTINUOUS
 62
     7
 10
120.478867110768
 20
136.2925028575768
 30
0.0
 11
120.8715863941453
 21
137.4848366457991
 31
0.0
  0
LINE
  5
10E
  8
0
  6
CONTINUOUS
 62
     7
 10
129.3471605521492
 20
137.4848366457994
 30
0.0
 11
129.6174253345902
 21
136.2927779677785
 31
0.0
  0
LINE
  5
10F
  8
0
  6
CONTINUOUS
 62
     7
 10
129.3964482313351
 20
133.0203160211616
 30
0.0
 11
129.6174253117478
 21
136.2927781058354
 31
0.0
  0
LINE
  5
110
  8
0
  6
CONTINUOUS
 62
     7
 10
129.3964482431248
 20
133.0203161845305
 30
0.0
 11
129.0037289597475
 21
131.8279823963082
 31
0.0
  0
LINE
  5
111
  8
0
  6
CONTINUOUS
 62
     7
 10
122.9972649870047
 20
137.4848366457983
 30
0.0
 11
123.2674003774795
 21
136.2923283007624
 31
0.0
  0
LINE
  5
112
  8
0
  6
CONTINUOUS
 62
     7
 10
123.2674003486575
 20
136.2923283058969
 30
0.0
 11
123.0464747717915
 21
133.0207710805621
 31
0.0
  0
LINE
  5
113
  8
0
  6
CONTINUOUS
 62
     7
 10
123.0464747717915
 20
133.0207710805621
 30
0.0
 11
122.6538431235007
 21
131.8279823963082
 31
0.0
  0
LINE
  5
114
  8
0
  6
CONTINUOUS
 62
     7
 10
126.8780503668884
 20
131.8279823963079
 30
0.0
 11
126.6079149764133
 21
133.020490741345
 31
0.0
  0
LINE
  5
115
  8
0
  6
CONTINUOUS
 62
     7
 10
126.6079150052354
 20
133.0204907362105
 30
0.0
 11
126.8288405821013
 21
136.2920479615453
 31
0.0
  0
LINE
  5
116
  8
0
  6
CONTINUOUS
 62
     7
 10
126.8288405821013
 20
136.2920479615453
 30
0.0
 11
127.2214722303925
 21
137.4848366457991
 31
0.0
  0
LINE
  5
117
  8
0
  6
CONTINUOUS
 62
     7
 10
125.1308898755928
 20
134.6564095210537
 30
0.0
 11
125.2413941257954
 21
136.2927934802373
 31
0.0
  0
LINE
  5
118
  8
0
  6
CONTINUOUS
 62
     7
 10
125.2413941257954
 20
136.2927934802373
 30
0.0
 11
125.634113232007
 21
137.4848366457991
 31
0.0
  0
LINE
  5
119
  8
0
  6
CONTINUOUS
 62
     7
 10
124.5846480384129
 20
137.4848366457994
 30
0.0
 11
124.8549292947761
 21
136.2927934919664
 31
0.0
  0
LINE
  5
11A
  8
0
  6
CONTINUOUS
 62
     7
 10
124.7444254782534
 20
134.6564095210537
 30
0.0
 11
124.8549293069311
 21
136.2927934069608
 31
0.0
  0
LINE
  5
11B
  8
0
  6
CONTINUOUS
 62
     7
 10
129.6174253117478
 20
136.2927781058354
 30
0.0
 11
130.0038900339389
 21
136.2927779546272
 31
0.0
  0
LINE
  5
11C
  8
0
  6
CONTINUOUS
 62
     7
 10
128.0298751878722
 20
136.2919291425374
 30
0.0
 11
128.4163399155464
 21
136.2919290697549
 31
0.0
  0
LINE
  5
11D
  8
0
  6
CONTINUOUS
 62
     7
 10
126.442375859304
 20
136.292048099782
 30
0.0
 11
126.8288405821013
 21
136.2920479615453
 31
0.0
  0
LINE
  5
11E
  8
0
  6
CONTINUOUS
 62
     7
 10
124.8549293069311
 20
136.2927934069608
 30
0.0
 11
125.2413941257954
 21
136.2927934802373
 31
0.0
  0
LINE
  5
11F
  8
0
  6
CONTINUOUS
 62
     7
 10
123.2674003478068
 20
136.2923282941167
 30
0.0
 11
123.6538650898997
 21
136.2923284195122
 31
0.0
  0
LINE
  5
120
  8
0
  6
CONTINUOUS
 62
     7
 10
121.6798650756227
 20
136.2918159524225
 30
0.0
 11
122.0663298069977
 21
136.2918159323798
 31
0.0
  0
LINE
  5
121
  8
0
  6
CONTINUOUS
 62
     7
 10
120.0924023772478
 20
136.2925028475103
 30
0.0
 11
120.4788671225577
 21
136.2925030209457
 31
0.0
  0
LINE
  5
122
  8
0
  6
CONTINUOUS
 62
     7
 10
110.7955220532193
 20
145.2321571018822
 30
0.0
 11
110.4547425148591
 21
145.5729366402424
 31
0.0
  0
LINE
  5
123
  8
0
  6
CONTINUOUS
 62
     7
 10
114.3619100961179
 20
148.7985451447808
 30
0.0
 11
110.7955220532193
 21
145.2321571018822
 31
0.0
  0
LINE
  5
124
  8
0
  6
CONTINUOUS
 62
     7
 10
114.0211305577578
 20
149.139324683141
 30
0.0
 11
114.3619100961179
 21
148.7985451447808
 31
0.0
  0
LINE
  5
125
  8
0
  6
CONTINUOUS
 62
     7
 10
122.4158405074702
 20
152.1345923515721
 30
0.0
 11
122.4158405074702
 21
152.6165273965002
 31
0.0
  0
LINE
  5
126
  8
0
  6
CONTINUOUS
 62
     7
 10
127.4594748464226
 20
152.1345923515721
 30
0.0
 11
122.4158405074702
 21
152.1345923515721
 31
0.0
  0
LINE
  5
127
  8
0
  6
CONTINUOUS
 62
     7
 10
127.4594748464226
 20
152.6165273965002
 30
0.0
 11
127.4594748464226
 21
152.1345923515721
 31
0.0
  0
LINE
  5
128
  8
0
  6
CONTINUOUS
 62
     7
 10
135.513405257775
 20
148.7985451447808
 30
0.0
 11
135.8541847961351
 21
149.1393246831409
 31
0.0
  0
LINE
  5
129
  8
0
  6
CONTINUOUS
 62
     7
 10
139.0797933006735
 20
145.2321571018822
 30
0.0
 11
135.513405257775
 21
148.7985451447808
 31
0.0
  0
LINE
  5
12A
  8
0
  6
CONTINUOUS
 62
     7
 10
139.4205728390337
 20
145.5729366402423
 30
0.0
 11
139.0797933006735
 21
145.2321571018822
 31
0.0
  0
LINE
  5
12B
  8
0
  6
CONTINUOUS
 62
     7
 10
120.257890042145
 20
133.020040936272
 30
0.0
 11
119.871425319954
 21
133.0200410874802
 31
0.0
  0
LINE
  5
12C
  8
0
  6
CONTINUOUS
 62
     7
 10
121.8454401660206
 20
133.0208898995699
 30
0.0
 11
121.4589754383464
 21
133.0208899723525
 31
0.0
  0
LINE
  5
12D
  8
0
  6
CONTINUOUS
 62
     7
 10
123.4329394945888
 20
133.0207709423254
 30
0.0
 11
123.0464747717915
 21
133.0207710805621
 31
0.0
  0
LINE
  5
12E
  8
0
  6
CONTINUOUS
 62
     7
 10
125.0203860469617
 20
133.0200256351465
 30
0.0
 11
124.6339212280975
 21
133.0200255618701
 31
0.0
  0
LINE
  5
12F
  8
0
  6
CONTINUOUS
 62
     7
 10
126.6079150060861
 20
133.0204907479907
 30
0.0
 11
126.2214502639931
 21
133.0204906225951
 31
0.0
  0
LINE
  5
130
  8
0
  6
CONTINUOUS
 62
     7
 10
128.1954502782702
 20
133.0210030896848
 30
0.0
 11
127.8089855468952
 21
133.0210031097275
 31
0.0
  0
LINE
  5
131
  8
0
  6
CONTINUOUS
 62
     7
 10
129.782912976645
 20
133.0203161945971
 30
0.0
 11
129.3964482313351
 21
133.0203160211616
 31
0.0
  0
LINE
  5
132
  8
0
  6
CONTINUOUS
 62
     7
 10
139.0797933006735
 20
124.0806619402251
 30
0.0
 11
139.4205728390336
 21
123.739882401865
 31
0.0
  0
LINE
  5
133
  8
0
  6
CONTINUOUS
 62
     7
 10
135.5134052577749
 20
120.5142738973265
 30
0.0
 11
139.0797933006735
 21
124.0806619402251
 31
0.0
  0
LINE
  5
134
  8
0
  6
CONTINUOUS
 62
     7
 10
135.8541847961351
 20
120.1734943589664
 30
0.0
 11
135.5134052577749
 21
120.5142738973265
 31
0.0
  0
LINE
  5
135
  8
0
  6
CONTINUOUS
 62
     7
 10
127.4594748464226
 20
117.1782266905353
 30
0.0
 11
127.4594748464226
 21
116.6962916456072
 31
0.0
  0
LINE
  5
136
  8
0
  6
CONTINUOUS
 62
     7
 10
122.4158405074702
 20
117.1782266905353
 30
0.0
 11
127.4594748464226
 21
117.1782266905353
 31
0.0
  0
LINE
  5
137
  8
0
  6
CONTINUOUS
 62
     7
 10
122.4158405074702
 20
116.6962916456072
 30
0.0
 11
122.4158405074702
 21
117.1782266905353
 31
0.0
  0
LINE
  5
138
  8
0
  6
CONTINUOUS
 62
     7
 10
114.3619100961178
 20
120.5142738973265
 30
0.0
 11
114.0211305577578
 21
120.1734943589664
 31
0.0
  0
LINE
  5
139
  8
0
  6
CONTINUOUS
 62
     7
 10
110.7955220532192
 20
124.0806619402251
 30
0.0
 11
114.3619100961178
 21
120.5142738973265
 31
0.0
  0
LINE
  5
13A
  8
0
  6
CONTINUOUS
 62
     7
 10
110.4547425148592
 20
123.739882401865
 30
0.0
 11
110.7955220532192
 21
124.0806619402251
 31
0.0
  0
LINE
  5
13B
  8
0
  6
CONTINUOUS
 62
     7
 10
110.4547425148592
 20
123.739882401865
 30
0.0
 11
110.1042610751885
 21
123.3832839847771
 31
0.0
  0
LINE
  5
13C
  8
0
  6
CONTINUOUS
 62
     7
 10
110.1042610751885
 20
145.9295350573303
 30
0.0
 11
110.4547425148592
 21
145.5729366402423
 31
0.0
  0
LINE
  5
13D
  8
0
  6
CONTINUOUS
 62
     7
 10
110.7955220532192
 20
124.0806619402251
 30
0.0
 11
110.7955220530589
 21
124.0498078032583
 31
0.0
  0
LINE
  5
13E
  8
0
  6
CONTINUOUS
 62
     7
 10
110.1042610750599
 20
123.3585468252593
 30
0.0
 11
110.7955220530589
 21
124.0498078032583
 31
0.0
  0
LINE
  5
13F
  8
0
  6
CONTINUOUS
 62
     7
 10
110.1042610750599
 20
123.3585468252593
 30
0.0
 11
110.1042610751885
 21
123.3832839847771
 31
0.0
  0
LINE
  5
140
  8
0
  6
CONTINUOUS
 62
     7
 10
110.7955220530589
 20
145.2630112388491
 30
0.0
 11
110.1042610750599
 21
145.9542722168481
 31
0.0
  0
LINE
  5
141
  8
0
  6
CONTINUOUS
 62
     7
 10
110.7955220532193
 20
145.2321571018822
 30
0.0
 11
110.7955220530589
 21
145.2630112388491
 31
0.0
  0
LINE
  5
142
  8
0
  6
CONTINUOUS
 62
     7
 10
114.3619100961178
 20
120.5142738973265
 30
0.0
 11
114.3310559589907
 21
120.5142738973265
 31
0.0
  0
LINE
  5
143
  8
0
  6
CONTINUOUS
 62
     7
 10
110.7955220530589
 20
124.0498078032583
 30
0.0
 11
114.3310559589907
 21
120.5142738973265
 31
0.0
  0
LINE
  5
144
  8
0
  6
CONTINUOUS
 62
     7
 10
114.3310559589907
 20
148.7985451447808
 30
0.0
 11
110.7955220530589
 21
145.2630112388491
 31
0.0
  0
LINE
  5
145
  8
0
  6
CONTINUOUS
 62
     7
 10
114.3619100961179
 20
148.7985451447808
 30
0.0
 11
114.3310559589907
 21
148.7985451447808
 31
0.0
  0
LINE
  5
146
  8
0
  6
CONTINUOUS
 62
     7
 10
114.3310559589907
 20
120.5142738973265
 30
0.0
 11
113.6397949809917
 21
119.8230129193275
 31
0.0
  0
LINE
  5
147
  8
0
  6
CONTINUOUS
 62
     7
 10
113.664532140638
 20
119.8230129193275
 30
0.0
 11
114.0211305577578
 21
120.1734943589664
 31
0.0
  0
LINE
  5
148
  8
0
  6
CONTINUOUS
 62
     7
 10
113.664532140638
 20
119.8230129193275
 30
0.0
 11
113.6397949809917
 21
119.8230129193275
 31
0.0
  0
LINE
  5
149
  8
0
  6
CONTINUOUS
 62
     7
 10
113.6397949809917
 20
149.4898061227798
 30
0.0
 11
114.3310559589907
 21
148.7985451447808
 31
0.0
  0
LINE
  5
14A
  8
0
  6
CONTINUOUS
 62
     7
 10
113.6397949809917
 20
149.4898061227798
 30
0.0
 11
113.664532140638
 21
149.4898061227798
 31
0.0
  0
LINE
  5
14B
  8
0
  6
CONTINUOUS
 62
     7
 10
114.0211305577578
 20
149.139324683141
 30
0.0
 11
113.664532140638
 21
149.4898061227798
 31
0.0
  0
LINE
  5
14C
  8
0
  6
CONTINUOUS
 62
     7
 10
122.4158405074702
 20
116.6962916456072
 30
0.0
 11
122.420165863673
 21
116.1963106840752
 31
0.0
  0
LINE
  5
14D
  8
0
  6
CONTINUOUS
 62
     7
 10
122.420165863673
 20
153.1165083580321
 30
0.0
 11
122.4158405074702
 21
152.6165273965002
 31
0.0
  0
LINE
  5
14E
  8
0
  6
CONTINUOUS
 62
     7
 10
122.4158405074702
 20
117.1782266905353
 30
0.0
 11
122.4376576767867
 21
117.1564095210584
 31
0.0
  0
LINE
  5
14F
  8
0
  6
CONTINUOUS
 62
     7
 10
122.4376576767867
 20
116.1788188708329
 30
0.0
 11
122.4376576767867
 21
117.1564095210584
 31
0.0
  0
LINE
  5
150
  8
0
  6
CONTINUOUS
 62
     7
 10
122.4376576767867
 20
116.1788188708329
 30
0.0
 11
122.420165863673
 21
116.1963106840752
 31
0.0
  0
LINE
  5
151
  8
0
  6
CONTINUOUS
 62
     7
 10
127.4594748464226
 20
117.1782266905353
 30
0.0
 11
127.4376576767854
 21
117.1564095210584
 31
0.0
  0
LINE
  5
152
  8
0
  6
CONTINUOUS
 62
     7
 10
122.4376576767867
 20
117.1564095210584
 30
0.0
 11
127.4376576767854
 21
117.1564095210584
 31
0.0
  0
LINE
  5
153
  8
0
  6
CONTINUOUS
 62
     7
 10
122.4158405074702
 20
152.1345923515721
 30
0.0
 11
122.4376576767867
 21
152.156409521049
 31
0.0
  0
LINE
  5
154
  8
0
  6
CONTINUOUS
 62
     7
 10
127.4376576767854
 20
152.156409521049
 30
0.0
 11
122.4376576767867
 21
152.156409521049
 31
0.0
  0
LINE
  5
155
  8
0
  6
CONTINUOUS
 62
     7
 10
127.4594748464226
 20
152.1345923515721
 30
0.0
 11
127.4376576767854
 21
152.156409521049
 31
0.0
  0
LINE
  5
156
  8
0
  6
CONTINUOUS
 62
     7
 10
122.4376576767867
 20
152.156409521049
 30
0.0
 11
122.4376576767867
 21
153.1340001712744
 31
0.0
  0
LINE
  5
157
  8
0
  6
CONTINUOUS
 62
     7
 10
122.420165863673
 20
153.1165083580321
 30
0.0
 11
122.4376576767867
 21
153.1340001712744
 31
0.0
  0
LINE
  5
158
  8
0
  6
CONTINUOUS
 62
     7
 10
127.4376576767854
 20
117.1564095210584
 30
0.0
 11
127.4376576767854
 21
116.1788188708329
 31
0.0
  0
LINE
  5
159
  8
0
  6
CONTINUOUS
 62
     7
 10
127.4551494901562
 20
116.1963106840752
 30
0.0
 11
127.4594748464226
 21
116.6962916456072
 31
0.0
  0
LINE
  5
15A
  8
0
  6
CONTINUOUS
 62
     7
 10
127.4551494901562
 20
116.1963106840752
 30
0.0
 11
127.4376576767854
 21
116.1788188708329
 31
0.0
  0
LINE
  5
15B
  8
0
  6
CONTINUOUS
 62
     7
 10
127.4376576767854
 20
153.1340001712744
 30
0.0
 11
127.4376576767854
 21
152.156409521049
 31
0.0
  0
LINE
  5
15C
  8
0
  6
CONTINUOUS
 62
     7
 10
127.4376576767854
 20
153.1340001712744
 30
0.0
 11
127.4551494901562
 21
153.1165083580321
 31
0.0
  0
LINE
  5
15D
  8
0
  6
CONTINUOUS
 62
     7
 10
127.4594748464226
 20
152.6165273965002
 30
0.0
 11
127.4551494901562
 21
153.1165083580321
 31
0.0
  0
LINE
  5
15E
  8
0
  6
CONTINUOUS
 62
     7
 10
135.8541847961351
 20
120.1734943589664
 30
0.0
 11
136.2107832131912
 21
119.8230129193275
 31
0.0
  0
LINE
  5
15F
  8
0
  6
CONTINUOUS
 62
     7
 10
136.2107832131912
 20
149.4898061227798
 30
0.0
 11
135.8541847961351
 21
149.1393246831409
 31
0.0
  0
LINE
  5
160
  8
0
  6
CONTINUOUS
 62
     7
 10
135.5442593945814
 20
148.7985451447808
 30
0.0
 11
136.2355203725804
 21
149.4898061227798
 31
0.0
  0
LINE
  5
161
  8
0
  6
CONTINUOUS
 62
     7
 10
135.513405257775
 20
148.7985451447808
 30
0.0
 11
135.5442593945814
 21
148.7985451447808
 31
0.0
  0
LINE
  5
162
  8
0
  6
CONTINUOUS
 62
     7
 10
136.2107832131912
 20
149.4898061227798
 30
0.0
 11
136.2355203725804
 21
149.4898061227798
 31
0.0
  0
LINE
  5
163
  8
0
  6
CONTINUOUS
 62
     7
 10
135.5134052577749
 20
120.5142738973265
 30
0.0
 11
135.5442593945814
 21
120.5142738973265
 31
0.0
  0
LINE
  5
164
  8
0
  6
CONTINUOUS
 62
     7
 10
136.2355203725804
 20
119.8230129193275
 30
0.0
 11
135.5442593945814
 21
120.5142738973265
 31
0.0
  0
LINE
  5
165
  8
0
  6
CONTINUOUS
 62
     7
 10
136.2355203725804
 20
119.8230129193275
 30
0.0
 11
136.2107832131912
 21
119.8230129193275
 31
0.0
  0
LINE
  5
166
  8
0
  6
CONTINUOUS
 62
     7
 10
139.0797933005132
 20
145.263011238849
 30
0.0
 11
135.5442593945814
 21
148.7985451447808
 31
0.0
  0
LINE
  5
167
  8
0
  6
CONTINUOUS
 62
     7
 10
139.0797933006735
 20
145.2321571018822
 30
0.0
 11
139.0797933005132
 21
145.263011238849
 31
0.0
  0
LINE
  5
168
  8
0
  6
CONTINUOUS
 62
     7
 10
139.0797933006735
 20
124.0806619402251
 30
0.0
 11
139.0797933005132
 21
124.0498078032583
 31
0.0
  0
LINE
  5
169
  8
0
  6
CONTINUOUS
 62
     7
 10
135.5442593945814
 20
120.5142738973265
 30
0.0
 11
139.0797933005132
 21
124.0498078032583
 31
0.0
  0
LINE
  5
16A
  8
0
  6
CONTINUOUS
 62
     7
 10
139.0797933005132
 20
124.0498078032583
 30
0.0
 11
139.7710542785122
 21
123.3585468252593
 31
0.0
  0
LINE
  5
16B
  8
0
  6
CONTINUOUS
 62
     7
 10
139.7710542786407
 20
123.3832839847771
 30
0.0
 11
139.4205728390336
 21
123.739882401865
 31
0.0
  0
LINE
  5
16C
  8
0
  6
CONTINUOUS
 62
     7
 10
139.7710542785122
 20
145.954272216848
 30
0.0
 11
139.0797933005132
 21
145.263011238849
 31
0.0
  0
LINE
  5
16D
  8
0
  6
CONTINUOUS
 62
     7
 10
139.7710542785122
 20
145.954272216848
 30
0.0
 11
139.7710542786408
 21
145.9295350573303
 31
0.0
  0
LINE
  5
16E
  8
0
  6
CONTINUOUS
 62
     7
 10
139.4205728390337
 20
145.5729366402423
 30
0.0
 11
139.7710542786408
 21
145.9295350573303
 31
0.0
  0
LINE
  5
16F
  8
0
  6
CONTINUOUS
 62
     7
 10
107.9245331206322
 20
125.5382747796871
 30
0.0
 11
110.1042610750599
 21
123.3585468252593
 31
0.0
  0
LINE
  5
170
  8
0
  6
CONTINUOUS
 62
     7
 10
113.6397949809917
 20
119.8230129193275
 30
0.0
 11
115.8195229354194
 21
117.6432849648998
 31
0.0
  0
LINE
  5
171
  8
0
  6
CONTINUOUS
 62
     7
 10
115.8195229354195
 20
151.6695340772076
 30
0.0
 11
113.6397949809917
 21
149.4898061227798
 31
0.0
  0
ARC
  5
172
  8
0
  6
CONTINUOUS
 62
     7
 10
119.3550568413512
 20
121.1788188708316
 30
0.0
 40
5.000000000000004
 50
224.9999999999998
 51
270.0
  0
ARC
  5
173
  8
0
  6
CONTINUOUS
 62
     7
 10
119.3550568413512
 20
148.1340001712757
 30
0.0
 40
5.000000000000002
 50
90.0
 51
134.9999999999999
  0
LINE
  5
174
  8
0
  6
CONTINUOUS
 62
     7
 10
119.3550568413512
 20
116.1788188708329
 30
0.0
 11
122.4376576767867
 21
116.1788188708329
 31
0.0
  0
LINE
  5
175
  8
0
  6
CONTINUOUS
 62
     7
 10
122.4376576767867
 20
153.1340001712744
 30
0.0
 11
119.3550568413512
 21
153.1340001712744
 31
0.0
  0
LINE
  5
176
  8
0
  6
CONTINUOUS
 62
     7
 10
127.4376576767854
 20
116.1788188708329
 30
0.0
 11
130.5202585122209
 21
116.1788188708329
 31
0.0
  0
LINE
  5
177
  8
0
  6
CONTINUOUS
 62
     7
 10
130.5202585122209
 20
153.1340001712744
 30
0.0
 11
127.4376576767854
 21
153.1340001712744
 31
0.0
  0
ARC
  5
178
  8
0
  6
CONTINUOUS
 62
     7
 10
130.5202585122209
 20
121.1788188708316
 30
0.0
 40
5.000000000000002
 50
270.0
 51
315.0000000000002
  0
ARC
  5
179
  8
0
  6
CONTINUOUS
 62
     7
 10
130.5202585122209
 20
148.1340001712757
 30
0.0
 40
5.000000000000004
 50
45.00000000000017
 51
90.0
  0
LINE
  5
17A
  8
0
  6
CONTINUOUS
 62
     7
 10
134.0557924181527
 20
117.6432849648998
 30
0.0
 11
136.2355203725804
 21
119.8230129193275
 31
0.0
  0
LINE
  5
17B
  8
0
  6
CONTINUOUS
 62
     7
 10
136.2355203725804
 20
149.4898061227798
 30
0.0
 11
134.0557924181526
 21
151.6695340772076
 31
0.0
  0
LINE
  5
17C
  8
0
  6
CONTINUOUS
 62
     7
 10
141.9507822329399
 20
143.7745442624203
 30
0.0
 11
139.7710542785122
 21
145.954272216848
 31
0.0
  0
LINE
  5
17D
  8
0
  6
CONTINUOUS
 62
     7
 10
160.6516214190486
 20
122.5216886738972
 30
0.0
 11
156.6226931057148
 21
121.620607758981
 31
0.0
  0
LINE
  5
17E
  8
0
  6
CONTINUOUS
 62
     7
 10
133.1302993619258
 20
116.2993616753716
 30
0.0
 11
160.665915215607
 21
122.4577780076013
 31
0.0
  0
LINE
  5
17F
  8
0
  6
CONTINUOUS
 62
     7
 10
133.1302993619258
 20
153.0134573667358
 30
0.0
 11
160.665915215607
 21
146.855041034506
 31
0.0
  0
LINE
  5
180
  8
0
  6
CONTINUOUS
 62
     7
 10
156.6226931057148
 20
147.6922112831264
 30
0.0
 11
160.6516214190486
 21
146.7911303682101
 31
0.0
  0
LINE
  5
181
  8
0
  6
CONTINUOUS
 62
     7
 10
137.7217085552
 20
119.937189316757
 30
0.0
 11
151.7258857588977
 21
123.0692621227176
 31
0.0
  0
LINE
  5
182
  8
0
  6
CONTINUOUS
 62
     7
 10
151.7258857588977
 20
146.2435569193897
 30
0.0
 11
137.7217085552001
 21
149.3756297253503
 31
0.0
  0
LINE
  5
183
  8
0
  6
CONTINUOUS
 62
     7
 10
130.5202585122208
 20
116.1788188708279
 30
0.0
 11
132.0390378998081
 21
116.1788188708279
 31
0.0
  0
LINE
  5
184
  8
0
  6
CONTINUOUS
 62
     7
 10
132.026189033334
 20
116.2951383215666
 30
0.0
 11
131.5958170436299
 21
116.2958716209116
 31
0.0
  0
LINE
  5
185
  8
0
  6
CONTINUOUS
 62
     7
 10
133.1177633336669
 20
116.4128490343122
 30
0.0
 11
132.026189033334
 21
116.2951383215666
 31
0.0
  0
LINE
  5
186
  8
0
  6
CONTINUOUS
 62
     7
 10
110.1875672447866
 20
123.441852994986
 30
0.0
 11
113.7231011507184
 21
119.9063190890542
 31
0.0
  0
LINE
  5
187
  8
0
  6
CONTINUOUS
 62
     7
 10
110.1042610749762
 20
123.3585468251756
 30
0.0
 11
113.639794980908
 21
119.8230129192438
 31
0.0
  0
LINE
  5
188
  8
0
  6
CONTINUOUS
 62
     7
 10
113.7231011507184
 20
149.4064999530532
 30
0.0
 11
110.1875672447865
 21
145.8709660471214
 31
0.0
  0
LINE
  5
189
  8
0
  6
CONTINUOUS
 62
     7
 10
113.639794980908
 20
149.4898061228636
 30
0.0
 11
110.1042610749761
 21
145.9542722169318
 31
0.0
  0
LINE
  5
18A
  8
0
  6
CONTINUOUS
 62
     7
 10
132.0390378998081
 20
153.1340001712794
 30
0.0
 11
130.5202585122209
 21
153.1340001712794
 31
0.0
  0
LINE
  5
18B
  8
0
  6
CONTINUOUS
 62
     7
 10
131.595817043629
 20
153.0169474211958
 30
0.0
 11
132.0261890333341
 21
153.0176807205407
 31
0.0
  0
LINE
  5
18C
  8
0
  6
CONTINUOUS
 62
     7
 10
132.0261890333341
 20
153.0176807205407
 30
0.0
 11
133.1177633336669
 21
152.8999700077951
 31
0.0
  0
LINE
  5
18D
  8
0
  6
CONTINUOUS
 62
     7
 10
156.6226931057148
 20
121.620607758981
 30
0.0
 11
156.557095487178
 21
122.118269715172
 31
0.0
  0
LINE
  5
18E
  8
0
  6
CONTINUOUS
 62
     7
 10
156.2207763374841
 20
122.2748781752424
 30
0.0
 11
156.5570954872309
 21
122.1182697152037
 31
0.0
  0
LINE
  5
18F
  8
0
  6
CONTINUOUS
 62
     7
 10
133.1302993619258
 20
153.0134573667358
 30
0.0
 11
132.0390378998082
 21
153.1340001712794
 31
0.0
  0
LINE
  5
190
  8
0
  6
CONTINUOUS
 62
     7
 10
132.0390378998081
 20
116.1788188708279
 30
0.0
 11
133.1302993619258
 21
116.2993616753716
 31
0.0
  0
POLYLINE
  5
191
  8
0
  6
CONTINUOUS
 62
     7
 66
     1
 10
0.0
 20
0.0
 30
0.0
  0
VERTEX
  5
3D8
  8
0
  6
CONTINUOUS
 62
     7
 10
137.2590424806247
 20
120.7786559261983
 30
0.0
  0
VERTEX
  5
3D9
  8
0
  6
CONTINUOUS
 62
     7
 10
137.1963319710663
 20
120.7021083834105
 30
0.0
  0
VERTEX
  5
3DA
  8
0
  6
CONTINUOUS
 62
     7
 10
137.1499163327673
 20
120.614723165328
 30
0.0
  0
VERTEX
  5
3DB
  8
0
  6
CONTINUOUS
 62
     7
 10
137.1216120672564
 20
120.519920140513
 30
0.0
  0
VERTEX
  5
3DC
  8
0
  6
CONTINUOUS
 62
     7
 10
137.1125268775286
 20
120.421409477473
 30
0.0
  0
VERTEX
  5
3DD
  8
0
  6
CONTINUOUS
 62
     7
 10
137.1230163174799
 20
120.3230464451766
 30
0.0
  0
VERTEX
  5
3DE
  8
0
  6
CONTINUOUS
 62
     7
 10
137.1526698771095
 20
120.2286805349818
 30
0.0
  0
VERTEX
  5
3DF
  8
0
  6
CONTINUOUS
 62
     7
 10
137.2003270480551
 20
120.1420048086753
 30
0.0
  0
VERTEX
  5
3E0
  8
0
  6
CONTINUOUS
 62
     7
 10
137.2641227407255
 20
120.0664113684684
 30
0.0
  0
VERTEX
  5
3E1
  8
0
  6
CONTINUOUS
 62
     7
 10
137.3415602756071
 20
120.004858605212
 30
0.0
  0
VERTEX
  5
3E2
  8
0
  6
CONTINUOUS
 62
     7
 10
137.42960909219
 20
119.9597554201437
 30
0.0
  0
VERTEX
  5
3E3
  8
0
  6
CONTINUOUS
 62
     7
 10
137.5248233516197
 20
119.9328669512128
 30
0.0
  0
VERTEX
  5
3E4
  8
0
  6
CONTINUOUS
 62
     7
 10
137.6234767914958
 20
119.9252454934369
 30
0.0
  0
VERTEX
  5
3E5
  8
0
  6
CONTINUOUS
 62
     7
 10
137.7217085552
 20
119.937189316757
 30
0.0
  0
SEQEND
  5
65E
  8
0
  6
CONTINUOUS
 62
     7
  0
POLYLINE
  5
192
  8
0
  6
CONTINUOUS
 62
     7
 66
     1
 10
0.0
 20
0.0
 30
0.0
  0
VERTEX
  5
3E6
  8
0
  6
CONTINUOUS
 62
     7
 10
137.7217085552001
 20
149.3756297253503
 30
0.0
  0
VERTEX
  5
3E7
  8
0
  6
CONTINUOUS
 62
     7
 10
137.623476791496
 20
149.3875735486704
 30
0.0
  0
VERTEX
  5
3E8
  8
0
  6
CONTINUOUS
 62
     7
 10
137.5248233516198
 20
149.3799520908945
 30
0.0
  0
VERTEX
  5
3E9
  8
0
  6
CONTINUOUS
 62
     7
 10
137.4296090921901
 20
149.3530636219636
 30
0.0
  0
VERTEX
  5
3EA
  8
0
  6
CONTINUOUS
 62
     7
 10
137.3415602756072
 20
149.3079604368953
 30
0.0
  0
VERTEX
  5
3EB
  8
0
  6
CONTINUOUS
 62
     7
 10
137.2641227407256
 20
149.2464076736389
 30
0.0
  0
VERTEX
  5
3EC
  8
0
  6
CONTINUOUS
 62
     7
 10
137.2003270480552
 20
149.1708142334321
 30
0.0
  0
VERTEX
  5
3ED
  8
0
  6
CONTINUOUS
 62
     7
 10
137.1526698771096
 20
149.0841385071255
 30
0.0
  0
VERTEX
  5
3EE
  8
0
  6
CONTINUOUS
 62
     7
 10
137.12301631748
 20
148.9897725969307
 30
0.0
  0
VERTEX
  5
3EF
  8
0
  6
CONTINUOUS
 62
     7
 10
137.1125268775288
 20
148.8914095646343
 30
0.0
  0
VERTEX
  5
3F0
  8
0
  6
CONTINUOUS
 62
     7
 10
137.1216120672566
 20
148.7928989015944
 30
0.0
  0
VERTEX
  5
3F1
  8
0
  6
CONTINUOUS
 62
     7
 10
137.1499163327675
 20
148.6980958767793
 30
0.0
  0
VERTEX
  5
3F2
  8
0
  6
CONTINUOUS
 62
     7
 10
137.1963319710664
 20
148.6107106586968
 30
0.0
  0
VERTEX
  5
3F3
  8
0
  6
CONTINUOUS
 62
     7
 10
137.2590424806248
 20
148.5341631159091
 30
0.0
  0
SEQEND
  5
65F
  8
0
  6
CONTINUOUS
 62
     7
  0
POLYLINE
  5
193
  8
0
  6
CONTINUOUS
 62
     7
 66
     1
 10
0.0
 20
0.0
 30
0.0
  0
VERTEX
  5
3F4
  8
0
  6
CONTINUOUS
 62
     7
 10
143.4632460997005
 20
140.258970544884
 30
0.0
  0
VERTEX
  5
3F5
  8
0
  6
CONTINUOUS
 62
     7
 10
143.3671765359077
 20
141.2343868245814
 30
0.0
  0
VERTEX
  5
3F6
  8
0
  6
CONTINUOUS
 62
     7
 10
143.0826594483937
 20
142.1723153442038
 30
0.0
  0
VERTEX
  5
3F7
  8
0
  6
CONTINUOUS
 62
     7
 10
142.620627793845
 20
143.0367149226417
 30
0.0
  0
VERTEX
  5
3F8
  8
0
  6
CONTINUOUS
 62
     7
 10
141.9988357680148
 20
143.794369828519
 30
0.0
  0
SEQEND
  5
660
  8
0
  6
CONTINUOUS
 62
     7
  0
POLYLINE
  5
194
  8
0
  6
CONTINUOUS
 62
     7
 66
     1
 10
0.0
 20
0.0
 30
0.0
  0
VERTEX
  5
3F9
  8
0
  6
CONTINUOUS
 62
     7
 10
141.9988357680147
 20
125.5184492135882
 30
0.0
  0
VERTEX
  5
3FA
  8
0
  6
CONTINUOUS
 62
     7
 10
142.6206277938449
 20
126.2761041194656
 30
0.0
  0
VERTEX
  5
3FB
  8
0
  6
CONTINUOUS
 62
     7
 10
143.0826594483937
 20
127.1405036979034
 30
0.0
  0
VERTEX
  5
3FC
  8
0
  6
CONTINUOUS
 62
     7
 10
143.3671765359076
 20
128.0784322175258
 30
0.0
  0
VERTEX
  5
3FD
  8
0
  6
CONTINUOUS
 62
     7
 10
143.4632460997005
 20
129.0538484972233
 30
0.0
  0
SEQEND
  5
661
  8
0
  6
CONTINUOUS
 62
     7
  0
LINE
  5
195
  8
0
  6
CONTINUOUS
 62
     7
 10
141.9988357680147
 20
125.5184492135882
 30
0.0
 11
137.2590424806247
 21
120.7786559261983
 31
0.0
  0
LINE
  5
196
  8
0
  6
CONTINUOUS
 62
     7
 10
143.4632460997005
 20
140.2589705448839
 30
0.0
 11
143.4632460997005
 21
129.0538484972233
 31
0.0
  0
LINE
  5
197
  8
0
  6
CONTINUOUS
 62
     7
 10
137.2590424806248
 20
148.5341631159091
 30
0.0
 11
141.9988357680148
 21
143.794369828519
 31
0.0
  0
LINE
  5
198
  8
0
  6
CONTINUOUS
 62
     7
 10
157.4815477518026
 20
132.0246456749576
 30
0.0
 11
157.4582006670688
 21
132.1175583038025
 31
0.0
  0
ARC
  5
199
  8
0
  6
CONTINUOUS
 62
     7
 10
156.1933096659922
 20
133.6780179747906
 30
0.0
 40
2.095995545698349
 50
249.5424212839729
 51
307.9242205568319
  0
LINE
  5
19A
  8
0
  6
CONTINUOUS
 62
     7
 10
155.4607303365932
 20
131.7142143049385
 30
0.0
 11
155.5053384573933
 21
131.7907768016695
 31
0.0
  0
ARC
  5
19B
  8
0
  6
CONTINUOUS
 62
     7
 10
156.1933096659922
 20
133.6780179747906
 30
0.0
 40
2.008726867790776
 50
249.9712777176922
 51
309.0278343847341
  0
LINE
  5
19C
  8
0
  6
CONTINUOUS
 62
     7
 10
159.8535703333625
 20
136.5174565104917
 30
0.0
 11
159.8178458486944
 21
136.4285655426736
 31
0.0
  0
ARC
  5
19D
  8
0
  6
CONTINUOUS
 62
     7
 10
159.9239489831934
 20
134.4226428736172
 30
0.0
 40
2.095995545698337
 50
33.542421283973
 51
91.924220556832
  0
LINE
  5
19E
  8
0
  6
CONTINUOUS
 62
     7
 10
161.6709129459419
 20
135.5807940901884
 30
0.0
 11
161.5898219116703
 21
135.54507372474
 31
0.0
  0
ARC
  5
19F
  8
0
  6
CONTINUOUS
 62
     7
 10
159.9239489831934
 20
134.4226428736172
 30
0.0
 40
2.008726867790758
 50
33.97127771769252
 51
93.02783438473415
  0
LINE
  5
1A0
  8
0
  6
CONTINUOUS
 62
     7
 10
155.2937558033726
 20
134.2769360835784
 30
0.0
 11
155.3749063185298
 21
134.327852061956
 31
0.0
  0
ARC
  5
1A1
  8
0
  6
CONTINUOUS
 62
     7
 10
156.4681188416743
 20
136.0130434483051
 30
0.0
 40
2.095995545698353
 50
177.5424212839729
 51
235.9242205568319
  0
LINE
  5
1A2
  8
0
  6
CONTINUOUS
 62
     7
 10
154.374051102225
 20
136.1029190856329
 30
0.0
 11
154.4606510310592
 21
136.0841533542879
 31
0.0
  0
ARC
  5
1A3
  8
0
  6
CONTINUOUS
 62
     7
 10
156.4681188416743
 20
136.0130434483051
 30
0.0
 40
2.00872686779077
 50
177.9712777176924
 51
237.027834384734
  0
ARC
  5
1A4
  8
0
  6
CONTINUOUS
 62
     7
 10
157.9376576766257
 20
134.6564095210537
 30
0.0
 40
2.670995545698347
 50
332.1677565069254
 51
24.03798296680003
  0
LINE
  5
1A5
  8
0
  6
CONTINUOUS
 62
     7
 10
160.2996681137319
 20
133.4093634512785
 30
0.0
 11
160.2040883066711
 21
133.4158706355111
 31
0.0
  0
ARC
  5
1A6
  8
0
  6
CONTINUOUS
 62
     7
 10
157.9376576766257
 20
134.6564095210537
 30
0.0
 40
2.583726867790732
 50
331.3057505739549
 51
24.03798296679997
  0
ARC
  5
1A7
  8
0
  6
CONTINUOUS
 62
     7
 10
157.9376576766257
 20
134.6564095210537
 30
0.0
 40
2.670995545698359
 50
188.1677565069254
 51
240.0379829668
  0
ARC
  5
1A8
  8
0
  6
CONTINUOUS
 62
     7
 10
157.9376576766257
 20
134.6564095210537
 30
0.0
 40
2.583726867790785
 50
187.3057505739548
 51
240.0379829668
  0
ARC
  5
1A9
  8
0
  6
CONTINUOUS
 62
     7
 10
158.3291301527974
 20
132.6950963639061
 30
0.0
 40
2.095995545698359
 50
321.5424212839729
 51
19.92422055683187
  0
LINE
  5
1AA
  8
0
  6
CONTINUOUS
 62
     7
 10
159.9704389672225
 20
131.3915233113779
 30
0.0
 11
159.911408373217
 21
131.4576072679662
 31
0.0
  0
ARC
  5
1AB
  8
0
  6
CONTINUOUS
 62
     7
 10
158.3291301527974
 20
132.6950963639061
 30
0.0
 40
2.008726867790745
 50
321.9712777176925
 51
21.02783438473409
  0
ARC
  5
1AC
  8
0
  6
CONTINUOUS
 62
     7
 10
157.9376576766257
 20
134.6564095210537
 30
0.0
 40
2.670995545698335
 50
44.16775650692546
 51
96.03798296679996
  0
ARC
  5
1AD
  8
0
  6
CONTINUOUS
 62
     7
 10
157.9376576766257
 20
134.6564095210537
 30
0.0
 40
2.583726867790747
 50
43.30575057395483
 51
96.03798296679996
  0
ARC
  5
1AE
  8
0
  6
CONTINUOUS
 62
     7
 10
157.9376576766257
 20
134.6564095210537
 30
0.0
 40
2.670995545698341
 50
260.1677565069255
 51
312.0379829668
  0
ARC
  5
1AF
  8
0
  6
CONTINUOUS
 62
     7
 10
157.9376576766257
 20
134.6564095210537
 30
0.0
 40
2.583726867790749
 50
259.3057505739549
 51
312.0379829668
  0
LINE
  5
1B0
  8
0
  6
CONTINUOUS
 62
     7
 10
156.7597463808589
 20
137.0536458849622
 30
0.0
 11
156.8332472421644
 21
136.9922010613252
 31
0.0
  0
ARC
  5
1B1
  8
0
  6
CONTINUOUS
 62
     7
 10
158.7737807394712
 20
136.4732469446494
 30
0.0
 40
2.095995545698341
 50
105.542421283973
 51
163.9242205568319
  0
LINE
  5
1B2
  8
0
  6
CONTINUOUS
 62
     7
 10
158.212155031146
 20
138.4925968131306
 30
0.0
 11
158.2210686097887
 21
138.4044364566047
 31
0.0
  0
ARC
  5
1B3
  8
0
  6
CONTINUOUS
 62
     7
 10
158.7737807394712
 20
136.4732469446494
 30
0.0
 40
2.008726867790745
 50
105.9712777176925
 51
165.0278343847342
  0
ARC
  5
1B4
  8
0
  6
CONTINUOUS
 62
     7
 10
157.9376576766257
 20
134.6564095210537
 30
0.0
 40
2.670995545698355
 50
116.1677565069255
 51
168.0379829668001
  0
ARC
  5
1B5
  8
0
  6
CONTINUOUS
 62
     7
 10
157.9376576766257
 20
134.6564095210537
 30
0.0
 40
2.583726867790769
 50
115.3057505739549
 51
168.0379829668
  0
CIRCLE
  5
1B6
  8
0
  6
CONTINUOUS
 62
     7
 10
157.9376576766257
 20
134.6564095210537
 30
0.0
 40
2.000000000000002
  0
ARC
  5
1B7
  8
0
  6
CONTINUOUS
 62
     7
 10
157.9376576766257
 20
134.6564095210537
 30
0.0
 40
3.758726867790747
 50
74.62096466072566
 51
85.67574955536199
  0
ARC
  5
1B8
  8
0
  6
CONTINUOUS
 62
     7
 10
158.9056498491483
 20
138.1757121727071
 30
0.0
 40
0.1087268677907755
 50
286.01600538666
 51
74.62096466072661
  0
LINE
  5
1B9
  8
0
  6
CONTINUOUS
 62
     7
 10
158.3623297280189
 20
137.9066358032722
 30
0.0
 11
158.9356482302352
 21
138.0712055752514
 31
0.0
  0
ARC
  5
1BA
  8
0
  6
CONTINUOUS
 62
     7
 10
158.7737807394712
 20
136.4732469446494
 30
0.0
 40
1.491273132209241
 50
106.016005386661
 51
142.9599334811435
  0
ARC
  5
1BB
  8
0
  6
CONTINUOUS
 62
     7
 10
157.6562804815071
 20
137.3165696429387
 30
0.0
 40
0.0912731322092524
 50
142.9599334811419
 51
276.0379829668022
  0
ARC
  5
1BC
  8
0
  6
CONTINUOUS
 62
     7
 10
157.9376576766257
 20
134.6564095210537
 30
0.0
 40
3.758726867790745
 50
2.620964660725546
 51
13.67574955536186
  0
ARC
  5
1BD
  8
0
  6
CONTINUOUS
 62
     7
 10
161.5838394280269
 20
134.823318585363
 30
0.0
 40
0.1087268677907505
 50
214.0160053866618
 51
2.620964660725861
  0
LINE
  5
1BE
  8
0
  6
CONTINUOUS
 62
     7
 10
161.16003744268
 20
135.2568975560573
 30
0.0
 11
161.4937177570804
 21
134.762494114914
 31
0.0
  0
ARC
  5
1BF
  8
0
  6
CONTINUOUS
 62
     7
 10
159.9239489831934
 20
134.4226428736172
 30
0.0
 40
1.491273132209242
 50
34.01600538666094
 51
70.95993348114365
  0
ARC
  5
1C0
  8
0
  6
CONTINUOUS
 62
     7
 10
160.3806699598117
 20
135.7460498214291
 30
0.0
 40
0.0912731322092404
 50
70.95993348114462
 51
204.0379829668002
  0
ARC
  5
1C1
  8
0
  6
CONTINUOUS
 62
     7
 10
157.9376576766257
 20
134.6564095210537
 30
0.0
 40
3.758726867790746
 50
290.6209646607257
 51
301.675749555362
  0
ARC
  5
1C2
  8
0
  6
CONTINUOUS
 62
     7
 10
159.2231297556286
 20
131.2402623441739
 30
0.0
 40
0.108726867790771
 50
142.0160053866591
 51
290.6209646607277
  0
LINE
  5
1C3
  8
0
  6
CONTINUOUS
 62
     7
 10
159.5045258453139
 20
131.777305254305
 30
0.0
 11
159.1374331187739
 21
131.3071773515443
 31
0.0
  0
ARC
  5
1C4
  8
0
  6
CONTINUOUS
 62
     7
 10
158.3291301527974
 20
132.6950963639061
 30
0.0
 40
1.49127313220925
 50
322.0160053866609
 51
358.9599334811434
  0
ARC
  5
1C5
  8
0
  6
CONTINUOUS
 62
     7
 10
159.7288994976868
 20
132.6696841403123
 30
0.0
 40
0.091273132209232
 50
358.9599334811433
 51
132.0379829668008
  0
ARC
  5
1C6
  8
0
  6
CONTINUOUS
 62
     7
 10
157.9376576766257
 20
134.6564095210537
 30
0.0
 40
3.758726867790766
 50
218.6209646607256
 51
229.675749555362
  0
ARC
  5
1C7
  8
0
  6
CONTINUOUS
 62
     7
 10
155.0859413616373
 20
132.3782053908606
 30
0.0
 40
0.1087268677907485
 50
70.0160053866597
 51
218.6209646607243
  0
LINE
  5
1C8
  8
0
  6
CONTINUOUS
 62
     7
 10
155.683655694711
 20
132.2765371920445
 30
0.0
 11
155.123099598286
 21
132.480385610222
 31
0.0
  0
ARC
  5
1C9
  8
0
  6
CONTINUOUS
 62
     7
 10
156.1933096659922
 20
133.6780179747906
 30
0.0
 40
1.491273132209246
 50
250.0160053866607
 51
286.9599334811433
  0
ARC
  5
1CA
  8
0
  6
CONTINUOUS
 62
     7
 10
156.6016937209257
 20
132.338905409068
 30
0.0
 40
0.0912731322092442
 50
286.9599334811429
 51
60.03798296680258
  0
ARC
  5
1CB
  8
0
  6
CONTINUOUS
 62
     7
 10
157.9376576766257
 20
134.6564095210537
 30
0.0
 40
3.758726867790764
 50
146.6209646607256
 51
157.675749555362
  0
ARC
  5
1CC
  8
0
  6
CONTINUOUS
 62
     7
 10
154.8897279886873
 20
136.6645491121638
 30
0.0
 40
0.1087268677907543
 50
358.0160053866607
 51
146.620964660725
  0
LINE
  5
1CD
  8
0
  6
CONTINUOUS
 62
     7
 10
154.9777396724046
 20
136.0646717995893
 30
0.0
 11
154.9983896787529
 21
136.6607849533366
 31
0.0
  0
ARC
  5
1CE
  8
0
  6
CONTINUOUS
 62
     7
 10
156.4681188416743
 20
136.0130434483051
 30
0.0
 40
1.491273132209258
 50
178.0160053866609
 51
214.9599334811435
  0
ARC
  5
1CF
  8
0
  6
CONTINUOUS
 62
     7
 10
155.3207447231972
 20
135.2108385915203
 30
0.0
 40
0.0912731322092596
 50
214.959933481144
 51
348.0379829668
  0
ARC
  5
1D0
  8
0
  6
CONTINUOUS
 62
     7
 10
157.9376576766257
 20
134.6564095210537
 30
0.0
 40
3.845995545698314
 50
2.620964660725634
 51
13.9071914951129
  0
ARC
  5
1D1
  8
0
  6
CONTINUOUS
 62
     7
 10
157.9376576766257
 20
134.6564095210537
 30
0.0
 40
3.845995545698331
 50
290.6209646607257
 51
301.9071914951128
  0
LINE
  5
1D2
  8
0
  6
CONTINUOUS
 62
     7
 10
159.0686494560842
 20
131.3608861021416
 30
0.0
 11
159.4357421826241
 21
131.8310140049023
 31
0.0
  0
ARC
  5
1D3
  8
0
  6
CONTINUOUS
 62
     7
 10
158.7737807394712
 20
136.4732469446494
 30
0.0
 40
1.404004454301643
 50
106.016005386661
 51
142.9599334811435
  0
ARC
  5
1D4
  8
0
  6
CONTINUOUS
 62
     7
 10
156.1933096659922
 20
133.6780179747906
 30
0.0
 40
1.404004454301647
 50
250.016005386661
 51
286.9599334811433
  0
ARC
  5
1D5
  8
0
  6
CONTINUOUS
 62
     7
 10
159.2231297556286
 20
131.2402623441739
 30
0.0
 40
0.1959955456983292
 50
142.0160053866604
 51
290.6209646607271
  0
ARC
  5
1D6
  8
0
  6
CONTINUOUS
 62
     7
 10
154.8897279886873
 20
136.6645491121638
 30
0.0
 40
0.1959955456983681
 50
358.0160053866608
 51
146.6209646607259
  0
LINE
  5
1D7
  8
0
  6
CONTINUOUS
 62
     7
 10
158.9597261707664
 20
137.9873242607439
 30
0.0
 11
158.3864076685502
 21
137.8227544887646
 31
0.0
  0
ARC
  5
1D8
  8
0
  6
CONTINUOUS
 62
     7
 10
157.9376576766257
 20
134.6564095210537
 30
0.0
 40
3.845995545698335
 50
74.62096466072569
 51
85.9071914951129
  0
LINE
  5
1D9
  8
0
  6
CONTINUOUS
 62
     7
 10
161.4213823791364
 20
134.7136738809794
 30
0.0
 11
161.0877020647359
 21
135.2080773221228
 31
0.0
  0
ARC
  5
1DA
  8
0
  6
CONTINUOUS
 62
     7
 10
160.3806699598117
 20
135.7460498214291
 30
0.0
 40
0.00400445430165
 50
70.95993348120156
 51
204.0379829667781
  0
ARC
  5
1DB
  8
0
  6
CONTINUOUS
 62
     7
 10
158.3291301527974
 20
132.6950963639061
 30
0.0
 40
1.404004454301637
 50
322.0160053866609
 51
358.9599334811435
  0
ARC
  5
1DC
  8
0
  6
CONTINUOUS
 62
     7
 10
161.5838394280269
 20
134.823318585363
 30
0.0
 40
0.1959955456983514
 50
214.016005386661
 51
2.620964660725974
  0
LINE
  5
1DD
  8
0
  6
CONTINUOUS
 62
     7
 10
155.0856060423244
 20
136.6577636838845
 30
0.0
 11
155.0649560359761
 21
136.0616505301371
 31
0.0
  0
ARC
  5
1DE
  8
0
  6
CONTINUOUS
 62
     7
 10
155.3207447231972
 20
135.2108385915203
 30
0.0
 40
0.0040044543016495
 50
214.9599334811678
 51
348.0379829667992
  0
LINE
  5
1DF
  8
0
  6
CONTINUOUS
 62
     7
 10
155.1529243348171
 20
132.562399677519
 30
0.0
 11
155.7134804312422
 21
132.3585512593415
 31
0.0
  0
ARC
  5
1E0
  8
0
  6
CONTINUOUS
 62
     7
 10
158.9056498491483
 20
138.1757121727071
 30
0.0
 40
0.1959955456983415
 50
286.0160053866602
 51
74.62096466072728
  0
ARC
  5
1E1
  8
0
  6
CONTINUOUS
 62
     7
 10
155.0859413616373
 20
132.3782053908606
 30
0.0
 40
0.195995545698354
 50
70.01600538666078
 51
218.6209646607247
  0
ARC
  5
1E2
  8
0
  6
CONTINUOUS
 62
     7
 10
157.9376576766257
 20
134.6564095210537
 30
0.0
 40
3.845995545698346
 50
218.6209646607256
 51
229.9071914951129
  0
ARC
  5
1E3
  8
0
  6
CONTINUOUS
 62
     7
 10
159.7288994976868
 20
132.6696841403123
 30
0.0
 40
0.0040044543016673
 50
358.9599334811434
 51
132.0379829668818
  0
ARC
  5
1E4
  8
0
  6
CONTINUOUS
 62
     7
 10
156.6016937209257
 20
132.338905409068
 30
0.0
 40
0.0040044543016488
 50
286.9599334811034
 51
60.03798296680321
  0
ARC
  5
1E5
  8
0
  6
CONTINUOUS
 62
     7
 10
156.4681188416743
 20
136.0130434483051
 30
0.0
 40
1.404004454301654
 50
178.016005386661
 51
214.9599334811435
  0
ARC
  5
1E6
  8
0
  6
CONTINUOUS
 62
     7
 10
157.9376576766257
 20
134.6564095210537
 30
0.0
 40
3.845995545698353
 50
146.6209646607257
 51
157.9071914951129
  0
ARC
  5
1E7
  8
0
  6
CONTINUOUS
 62
     7
 10
157.6562804815071
 20
137.3165696429387
 30
0.0
 40
0.0040044543016542
 50
142.9599334811107
 51
276.0379829668349
  0
ARC
  5
1E8
  8
0
  6
CONTINUOUS
 62
     7
 10
159.9239489831934
 20
134.4226428736172
 30
0.0
 40
1.404004454301634
 50
34.01600538666103
 51
70.95993348114375
  0
LINE
  5
1E9
  8
0
  6
CONTINUOUS
 62
     7
 10
156.557095487178
 20
147.1945493269353
 30
0.0
 11
156.2207763374841
 21
147.0379408668649
 31
0.0
  0
LINE
  5
1EA
  8
0
  6
CONTINUOUS
 62
     7
 10
156.557095487178
 20
147.1945493269353
 30
0.0
 11
156.6226931057126
 21
147.692211283127
 31
0.0
  0
ARC
  5
1EB
  8
0
  6
CONTINUOUS
 62
     7
 10
157.9376576766257
 20
134.6564095210537
 30
0.0
 40
12.5
 50
247.6964870528258
 51
262.1054396218622
  0
ARC
  5
1EC
  8
0
  6
CONTINUOUS
 62
     7
 10
157.9376576766257
 20
134.6564095210537
 30
0.0
 40
12.49999999999999
 50
97.89456037813778
 51
112.3035129471742
  0
ARC
  5
1ED
  8
0
  6
CONTINUOUS
 62
     7
 10
152.5675741863615
 20
119.6478522953205
 30
0.0
 40
3.523419449332727
 50
82.80664532412675
 51
103.8206807614948
  0
POLYLINE
  5
1EE
  8
0
  6
CONTINUOUS
 62
     7
 66
     1
 10
0.0
 20
0.0
 30
0.0
  0
VERTEX
  5
3FE
  8
0
  6
CONTINUOUS
 62
     7
 10
153.0087703025515
 20
123.1435397245674
 30
0.0
  0
VERTEX
  5
3FF
  8
0
  6
CONTINUOUS
 62
     7
 10
153.14874484069
 20
123.1083075419799
 30
0.0
  0
VERTEX
  5
400
  8
0
  6
CONTINUOUS
 62
     7
 10
153.1937466049802
 20
123.091578880516
 30
0.0
  0
SEQEND
  5
662
  8
0
  6
CONTINUOUS
 62
     7
  0
ARC
  5
1EF
  8
0
  6
CONTINUOUS
 62
     7
 10
152.5022718690763
 20
149.0248758978844
 30
0.0
 40
2.887647944645027
 50
254.4032889974527
 51
283.8546418803674
  0
POLYLINE
  5
1F0
  8
0
  6
CONTINUOUS
 62
     7
 66
     1
 10
0.0
 20
0.0
 30
0.0
  0
VERTEX
  5
401
  8
0
  6
CONTINUOUS
 62
     7
 10
169.9168342593502
 20
134.1568433239457
 30
0.0
  0
VERTEX
  5
402
  8
0
  6
CONTINUOUS
 62
     7
 10
169.940805804694
 20
134.1552544324323
 30
0.0
  0
VERTEX
  5
403
  8
0
  6
CONTINUOUS
 62
     7
 10
169.9647409745552
 20
134.1524970158082
 30
0.0
  0
VERTEX
  5
404
  8
0
  6
CONTINUOUS
 62
     7
 10
169.9885582413213
 20
134.1485884672049
 30
0.0
  0
VERTEX
  5
405
  8
0
  6
CONTINUOUS
 62
     7
 10
170.0121760773799
 20
134.1435461797539
 30
0.0
  0
VERTEX
  5
406
  8
0
  6
CONTINUOUS
 62
     7
 10
170.0355129551186
 20
134.1373875465867
 30
0.0
  0
VERTEX
  5
407
  8
0
  6
CONTINUOUS
 62
     7
 10
170.0584873469249
 20
134.1301299608349
 30
0.0
  0
VERTEX
  5
408
  8
0
  6
CONTINUOUS
 62
     7
 10
170.0810177251861
 20
134.1217908156298
 30
0.0
  0
VERTEX
  5
409
  8
0
  6
CONTINUOUS
 62
     7
 10
170.1031121220414
 20
134.1123568497398
 30
0.0
  0
VERTEX
  5
40A
  8
0
  6
CONTINUOUS
 62
     7
 10
170.1247853773739
 20
134.1018321818119
 30
0.0
  0
VERTEX
  5
40B
  8
0
  6
CONTINUOUS
 62
     7
 10
170.1459663101098
 20
134.0902602210594
 30
0.0
  0
VERTEX
  5
40C
  8
0
  6
CONTINUOUS
 62
     7
 10
170.1665837391756
 20
134.0776843766956
 30
0.0
  0
VERTEX
  5
40D
  8
0
  6
CONTINUOUS
 62
     7
 10
170.1865664834974
 20
134.0641480579338
 30
0.0
  0
VERTEX
  5
40E
  8
0
  6
CONTINUOUS
 62
     7
 10
170.2058433620014
 20
134.0496946739874
 30
0.0
  0
VERTEX
  5
40F
  8
0
  6
CONTINUOUS
 62
     7
 10
170.2243431936141
 20
134.0343676340695
 30
0.0
  0
VERTEX
  5
410
  8
0
  6
CONTINUOUS
 62
     7
 10
170.242068348885
 20
134.0181525631806
 30
0.0
  0
VERTEX
  5
411
  8
0
  6
CONTINUOUS
 62
     7
 10
170.2590350979981
 20
134.0010477367412
 30
0.0
  0
VERTEX
  5
412
  8
0
  6
CONTINUOUS
 62
     7
 10
170.2751906534436
 20
133.9831176780102
 30
0.0
  0
VERTEX
  5
413
  8
0
  6
CONTINUOUS
 62
     7
 10
170.2904822277116
 20
133.9644269102463
 30
0.0
  0
VERTEX
  5
414
  8
0
  6
CONTINUOUS
 62
     7
 10
170.3048570332924
 20
133.9450399567082
 30
0.0
  0
VERTEX
  5
415
  8
0
  6
CONTINUOUS
 62
     7
 10
170.318262282676
 20
133.9250213406548
 30
0.0
  0
VERTEX
  5
416
  8
0
  6
CONTINUOUS
 62
     7
 10
170.3306451883527
 20
133.9044355853448
 30
0.0
  0
VERTEX
  5
417
  8
0
  6
CONTINUOUS
 62
     7
 10
170.3420034933941
 20
133.8832678443229
 30
0.0
  0
VERTEX
  5
418
  8
0
  6
CONTINUOUS
 62
     7
 10
170.3523516840846
 20
133.8615115865798
 30
0.0
  0
VERTEX
  5
419
  8
0
  6
CONTINUOUS
 62
     7
 10
170.3616613171614
 20
133.8392451637443
 30
0.0
  0
VERTEX
  5
41A
  8
0
  6
CONTINUOUS
 62
     7
 10
170.3699039493619
 20
133.8165469274453
 30
0.0
  0
VERTEX
  5
41B
  8
0
  6
CONTINUOUS
 62
     7
 10
170.377051137423
 20
133.7934952293117
 30
0.0
  0
VERTEX
  5
41C
  8
0
  6
CONTINUOUS
 62
     7
 10
170.3830744380822
 20
133.7701684209723
 30
0.0
  0
VERTEX
  5
41D
  8
0
  6
CONTINUOUS
 62
     7
 10
170.3879454080765
 20
133.7466448540561
 30
0.0
  0
VERTEX
  5
41E
  8
0
  6
CONTINUOUS
 62
     7
 10
170.3913776056251
 20
133.725035048933
 30
0.0
  0
VERTEX
  5
41F
  8
0
  6
CONTINUOUS
 62
     7
 10
170.3938616953819
 20
133.703253609122
 30
0.0
  0
VERTEX
  5
420
  8
0
  6
CONTINUOUS
 62
     7
 10
170.39539465954
 20
133.6813633632793
 30
0.0
  0
VERTEX
  5
421
  8
0
  6
CONTINUOUS
 62
     7
 10
170.3959734802922
 20
133.6594271400607
 30
0.0
  0
VERTEX
  5
422
  8
0
  6
CONTINUOUS
 62
     7
 10
170.3955951398313
 20
133.6375077681223
 30
0.0
  0
VERTEX
  5
423
  8
0
  6
CONTINUOUS
 62
     7
 10
170.3942566203502
 20
133.6156680761202
 30
0.0
  0
SEQEND
  5
663
  8
0
  6
CONTINUOUS
 62
     7
  0
POLYLINE
  5
1F1
  8
0
  6
CONTINUOUS
 62
     7
 66
     1
 10
0.0
 20
0.0
 30
0.0
  0
VERTEX
  5
424
  8
0
  6
CONTINUOUS
 62
     7
 10
170.3942566203502
 20
135.6971509659872
 30
0.0
  0
VERTEX
  5
425
  8
0
  6
CONTINUOUS
 62
     7
 10
170.3956691243162
 20
135.6731683807394
 30
0.0
  0
VERTEX
  5
426
  8
0
  6
CONTINUOUS
 62
     7
 10
170.3959176868967
 20
135.6490761845014
 30
0.0
  0
VERTEX
  5
427
  8
0
  6
CONTINUOUS
 62
     7
 10
170.3950093998632
 20
135.6249574373681
 30
0.0
  0
VERTEX
  5
428
  8
0
  6
CONTINUOUS
 62
     7
 10
170.3929513549874
 20
135.6008951994349
 30
0.0
  0
VERTEX
  5
429
  8
0
  6
CONTINUOUS
 62
     7
 10
170.3897506440408
 20
135.5769725307971
 30
0.0
  0
VERTEX
  5
42A
  8
0
  6
CONTINUOUS
 62
     7
 10
170.3854143587951
 20
135.5532724915499
 30
0.0
  0
VERTEX
  5
42B
  8
0
  6
CONTINUOUS
 62
     7
 10
170.3799495910217
 20
135.5298781417885
 30
0.0
  0
VERTEX
  5
42C
  8
0
  6
CONTINUOUS
 62
     7
 10
170.3733441845052
 20
135.5067798585264
 30
0.0
  0
VERTEX
  5
42D
  8
0
  6
CONTINUOUS
 62
     7
 10
170.3656040761243
 20
135.4839634312418
 30
0.0
  0
VERTEX
  5
42E
  8
0
  6
CONTINUOUS
 62
     7
 10
170.3567634608005
 20
135.4615048981643
 30
0.0
  0
VERTEX
  5
42F
  8
0
  6
CONTINUOUS
 62
     7
 10
170.346856533455
 20
135.4394802975235
 30
0.0
  0
VERTEX
  5
430
  8
0
  6
CONTINUOUS
 62
     7
 10
170.3359174890092
 20
135.4179656675491
 30
0.0
  0
VERTEX
  5
431
  8
0
  6
CONTINUOUS
 62
     7
 10
170.3239805223844
 20
135.3970370464706
 30
0.0
  0
VERTEX
  5
432
  8
0
  6
CONTINUOUS
 62
     7
 10
170.3110798285018
 20
135.3767704725179
 30
0.0
  0
VERTEX
  5
433
  8
0
  6
CONTINUOUS
 62
     7
 10
170.2972014401042
 20
135.3571618011998
 30
0.0
  0
VERTEX
  5
434
  8
0
  6
CONTINUOUS
 62
     7
 10
170.2823456748094
 20
135.3381946743064
 30
0.0
  0
VERTEX
  5
435
  8
0
  6
CONTINUOUS
 62
     7
 10
170.2665699702879
 20
135.3199295127465
 30
0.0
  0
VERTEX
  5
436
  8
0
  6
CONTINUOUS
 62
     7
 10
170.24993176421
 20
135.302426737429
 30
0.0
  0
VERTEX
  5
437
  8
0
  6
CONTINUOUS
 62
     7
 10
170.2324884942459
 20
135.2857467692627
 30
0.0
  0
VERTEX
  5
438
  8
0
  6
CONTINUOUS
 62
     7
 10
170.2142975980661
 20
135.2699500291565
 30
0.0
  0
VERTEX
  5
439
  8
0
  6
CONTINUOUS
 62
     7
 10
170.1954165133407
 20
135.2550969380193
 30
0.0
  0
VERTEX
  5
43A
  8
0
  6
CONTINUOUS
 62
     7
 10
170.1758302281039
 20
135.2411878839994
 30
0.0
  0
VERTEX
  5
43B
  8
0
  6
CONTINUOUS
 62
     7
 10
170.1555340685628
 20
135.2282076794879
 30
0.0
  0
VERTEX
  5
43C
  8
0
  6
CONTINUOUS
 62
     7
 10
170.1346022283066
 20
135.2161943153823
 30
0.0
  0
VERTEX
  5
43D
  8
0
  6
CONTINUOUS
 62
     7
 10
170.1131089009245
 20
135.2051857825801
 30
0.0
  0
VERTEX
  5
43E
  8
0
  6
CONTINUOUS
 62
     7
 10
170.0911282800058
 20
135.1952200719789
 30
0.0
  0
VERTEX
  5
43F
  8
0
  6
CONTINUOUS
 62
     7
 10
170.0687345591396
 20
135.1863351744762
 30
0.0
  0
VERTEX
  5
440
  8
0
  6
CONTINUOUS
 62
     7
 10
170.0460019319154
 20
135.1785690809696
 30
0.0
  0
VERTEX
  5
441
  8
0
  6
CONTINUOUS
 62
     7
 10
170.0249887316698
 20
135.1724691571445
 30
0.0
  0
VERTEX
  5
442
  8
0
  6
CONTINUOUS
 62
     7
 10
170.0036870172954
 20
135.1672885409066
 30
0.0
  0
VERTEX
  5
443
  8
0
  6
CONTINUOUS
 62
     7
 10
169.9821587508341
 20
135.1630380605726
 30
0.0
  0
VERTEX
  5
444
  8
0
  6
CONTINUOUS
 62
     7
 10
169.9604658943281
 20
135.1597285444593
 30
0.0
  0
VERTEX
  5
445
  8
0
  6
CONTINUOUS
 62
     7
 10
169.9386704098195
 20
135.1573708208834
 30
0.0
  0
VERTEX
  5
446
  8
0
  6
CONTINUOUS
 62
     7
 10
169.9168342593502
 20
135.1559757181616
 30
0.0
  0
SEQEND
  5
664
  8
0
  6
CONTINUOUS
 62
     7
  0
CIRCLE
  5
1F2
  8
0
  6
CONTINUOUS
 62
     7
 10
157.9376576766257
 20
134.6564095210537
 30
0.0
 40
10.00000000000001
  0
ARC
  5
1F3
  8
0
  6
CONTINUOUS
 62
     7
 10
157.9376576766257
 20
134.6564095210537
 30
0.0
 40
12.49999999999999
 50
282.606890364018
 51
355.2240638461246
  0
ARC
  5
1F4
  8
0
  6
CONTINUOUS
 62
     7
 10
157.9376576766257
 20
134.6564095210537
 30
0.0
 40
12.49999999999998
 50
4.775936153875477
 51
77.393109635982
  0
ARC
  5
1F5
  8
0
  6
CONTINUOUS
 62
     7
 10
169.9376576766264
 20
134.6564095210537
 30
0.0
 40
0.5000000000000119
 50
92.38687817964113
 51
267.6131218203589
  0
CIRCLE
  5
1F6
  8
0
  6
CONTINUOUS
 62
     7
 10
157.9376576766257
 20
134.6564095210537
 30
0.0
 40
6.500000000000005
  0
CIRCLE
  5
1F7
  8
0
  6
CONTINUOUS
 62
     7
 10
157.9376576766257
 20
134.6564095210537
 30
0.0
 40
5.500000000000004
  0
LINE
  5
1F8
  8
0
  6
CONTINUOUS
 62
     7
 10
106.5429722711868
 20
130.3715524639291
 30
0.0
 11
114.9876576773981
 21
130.3715524639291
 31
0.0
  0
LINE
  5
1F9
  8
0
  6
CONTINUOUS
 62
     7
 10
143.332343083604
 20
138.9412665781782
 30
0.0
 11
134.8876576773927
 21
138.9412665781782
 31
0.0
  0
ENDBLK
  8
0
  0
BLOCK
  8
0
  2
D_FRAME_VIEW_20769
 70
     0
 10
0.0
 20
0.0
 30
0.0
  0
LINE
  5
1FF
  8
0
  6
CONTINUOUS
 62
     7
 10
134.0557924181536
 20
76.68792579180767
 30
0.0
 11
133.1654955474441
 21
76.68792579186479
 31
0.0
  0
LINE
  5
200
  8
0
  6
CONTINUOUS
 62
     7
 10
133.1654955474441
 20
76.68792579186479
 30
0.0
 11
130.5202585122209
 21
76.68792579203445
 31
0.0
  0
LINE
  5
201
  8
0
  6
CONTINUOUS
 62
     7
 10
119.3550568413512
 20
76.68792579275063
 30
0.0
 11
115.8195229354185
 21
76.68792579297742
 31
0.0
  0
LINE
  5
202
  8
0
  6
CONTINUOUS
 62
     7
 10
122.4376576767867
 20
76.6879257925529
 30
0.0
 11
122.420165863673
 21
78.69228906030322
 31
0.0
  0
LINE
  5
203
  8
0
  6
CONTINUOUS
 62
     7
 10
119.3550568413512
 20
76.68792579275063
 30
0.0
 11
122.4376576767867
 21
76.6879257925529
 31
0.0
  0
LINE
  5
204
  8
0
  6
CONTINUOUS
 62
     7
 10
127.4551494901562
 20
78.69228905998025
 30
0.0
 11
127.4376576767854
 21
76.68792579223218
 31
0.0
  0
LINE
  5
205
  8
0
  6
CONTINUOUS
 62
     7
 10
127.4376576767854
 20
76.68792579223218
 30
0.0
 11
130.5202585122209
 21
76.68792579203445
 31
0.0
  0
LINE
  5
206
  8
0
  6
CONTINUOUS
 62
     7
 10
119.3550568415116
 20
79.18792579275063
 30
0.0
 11
122.4158405074702
 21
79.18792579255431
 31
0.0
  0
LINE
  5
207
  8
0
  6
CONTINUOUS
 62
     7
 10
122.4158405074702
 20
79.18792579255404
 30
0.0
 11
122.420165863673
 21
78.69228906030322
 31
0.0
  0
LINE
  5
208
  8
0
  6
CONTINUOUS
 62
     7
 10
127.4594748464226
 20
79.18792579223079
 30
0.0
 11
130.5202585123812
 21
79.18792579203446
 31
0.0
  0
LINE
  5
209
  8
0
  6
CONTINUOUS
 62
     7
 10
127.4551494901562
 20
78.69228905998025
 30
0.0
 11
127.4594748464226
 21
79.18792579223052
 31
0.0
  0
LINE
  5
20A
  8
0
  6
CONTINUOUS
 62
     7
 10
116.1854314437012
 20
79.18792579295395
 30
0.0
 11
119.3550568415116
 21
79.18792579275063
 31
0.0
  0
LINE
  5
20B
  8
0
  6
CONTINUOUS
 62
     7
 10
130.5202585123812
 20
79.18792579203446
 30
0.0
 11
133.6898839101916
 21
79.18792579183115
 31
0.0
  0
LINE
  5
20C
  8
0
  6
CONTINUOUS
 62
     7
 10
122.4158405074702
 20
79.18792579255431
 30
0.0
 11
127.4594748464226
 21
79.18792579223079
 31
0.0
  0
LINE
  5
20D
  8
0
  6
CONTINUOUS
 62
     7
 10
122.4376576767867
 20
76.6879257925529
 30
0.0
 11
127.4376576767854
 21
76.68792579223218
 31
0.0
  0
LINE
  5
20E
  8
0
  6
CONTINUOUS
 62
     7
 10
113.664532140638
 20
78.69228906086484
 30
0.0
 11
113.6397949809917
 21
76.68792579311723
 31
0.0
  0
LINE
  5
20F
  8
0
  6
CONTINUOUS
 62
     7
 10
113.6397949809917
 20
76.68792579311723
 30
0.0
 11
115.8195229354194
 21
76.68792579297742
 31
0.0
  0
LINE
  5
210
  8
0
  6
CONTINUOUS
 62
     7
 10
136.2355203725804
 20
76.68792579166787
 30
0.0
 11
136.2107832131912
 21
78.69228905941863
 31
0.0
  0
POLYLINE
  5
211
  8
0
  6
CONTINUOUS
 62
     7
 66
     1
 10
0.0
 20
0.0
 30
0.0
  0
VERTEX
  5
447
  8
0
  6
CONTINUOUS
 62
     7
 10
113.664532140638
 20
78.69228906086484
 30
0.0
  0
VERTEX
  5
448
  8
0
  6
CONTINUOUS
 62
     7
 10
113.6652543411267
 20
78.71668058100296
 30
0.0
  0
VERTEX
  5
449
  8
0
  6
CONTINUOUS
 62
     7
 10
113.666817030285
 20
78.74100359574574
 30
0.0
  0
VERTEX
  5
44A
  8
0
  6
CONTINUOUS
 62
     7
 10
113.6692164851627
 20
78.76520015795242
 30
0.0
  0
VERTEX
  5
44B
  8
0
  6
CONTINUOUS
 62
     7
 10
113.6724469892995
 20
78.78921262174278
 30
0.0
  0
VERTEX
  5
44C
  8
0
  6
CONTINUOUS
 62
     7
 10
113.6765008463437
 20
78.81298377983256
 30
0.0
  0
VERTEX
  5
44D
  8
0
  6
CONTINUOUS
 62
     7
 10
113.6813683983879
 20
78.83645699982412
 30
0.0
  0
VERTEX
  5
44E
  8
0
  6
CONTINUOUS
 62
     7
 10
113.6870380489779
 20
78.85957635912742
 30
0.0
  0
VERTEX
  5
44F
  8
0
  6
CONTINUOUS
 62
     7
 10
113.6934962907404
 20
78.88228677819
 30
0.0
  0
VERTEX
  5
450
  8
0
  6
CONTINUOUS
 62
     7
 10
113.7007277375628
 20
78.90453415171841
 30
0.0
  0
VERTEX
  5
451
  8
0
  6
CONTINUOUS
 62
     7
 10
113.7087151612491
 20
78.92626547757878
 30
0.0
  0
VERTEX
  5
452
  8
0
  6
CONTINUOUS
 62
     7
 10
113.7174395325642
 20
78.94742898306895
 30
0.0
  0
VERTEX
  5
453
  8
0
  6
CONTINUOUS
 62
     7
 10
113.7268800665694
 20
78.9679742482618
 30
0.0
  0
VERTEX
  5
454
  8
0
  6
CONTINUOUS
 62
     7
 10
113.7370142721401
 20
78.98785232612565
 30
0.0
  0
VERTEX
  5
455
  8
0
  6
CONTINUOUS
 62
     7
 10
113.747818005549
 20
79.00701585913563
 30
0.0
  0
VERTEX
  5
456
  8
0
  6
CONTINUOUS
 62
     7
 10
113.759265527986
 20
79.0254191920983
 30
0.0
  0
VERTEX
  5
457
  8
0
  6
CONTINUOUS
 62
     7
 10
113.771329566878
 20
79.04301848092044
 30
0.0
  0
VERTEX
  5
458
  8
0
  6
CONTINUOUS
 62
     7
 10
113.7839813808636
 20
79.05977179706333
 30
0.0
  0
VERTEX
  5
459
  8
0
  6
CONTINUOUS
 62
     7
 10
113.7971908282661
 20
79.0756392274332
 30
0.0
  0
VERTEX
  5
45A
  8
0
  6
CONTINUOUS
 62
     7
 10
113.8109264389032
 20
79.0905829694702
 30
0.0
  0
VERTEX
  5
45B
  8
0
  6
CONTINUOUS
 62
     7
 10
113.8251554890617
 20
79.10456742120923
 30
0.0
  0
VERTEX
  5
45C
  8
0
  6
CONTINUOUS
 62
     7
 10
113.839844079458
 20
79.11755926609794
 30
0.0
  0
VERTEX
  5
45D
  8
0
  6
CONTINUOUS
 62
     7
 10
113.8549572160002
 20
79.12952755237023
 30
0.0
  0
VERTEX
  5
45E
  8
0
  6
CONTINUOUS
 62
     7
 10
113.8704588931576
 20
79.14044376678561
 30
0.0
  0
VERTEX
  5
45F
  8
0
  6
CONTINUOUS
 62
     7
 10
113.8863121797409
 20
79.15028190255919
 30
0.0
  0
VERTEX
  5
460
  8
0
  6
CONTINUOUS
 62
     7
 10
113.9024793068863
 20
79.15901852132012
 30
0.0
  0
VERTEX
  5
461
  8
0
  6
CONTINUOUS
 62
     7
 10
113.9189217580365
 20
79.16663280895138
 30
0.0
  0
VERTEX
  5
462
  8
0
  6
CONTINUOUS
 62
     7
 10
113.9356003607023
 20
79.17310662517708
 30
0.0
  0
VERTEX
  5
463
  8
0
  6
CONTINUOUS
 62
     7
 10
113.9524753797873
 20
79.17842454678004
 30
0.0
  0
VERTEX
  5
464
  8
0
  6
CONTINUOUS
 62
     7
 10
113.9695066122528
 20
79.18257390434592
 30
0.0
  0
VERTEX
  5
465
  8
0
  6
CONTINUOUS
 62
     7
 10
113.9866534828972
 20
79.18554481244685
 30
0.0
  0
VERTEX
  5
466
  8
0
  6
CONTINUOUS
 62
     7
 10
114.0038751410227
 20
79.1873301931926
 30
0.0
  0
VERTEX
  5
467
  8
0
  6
CONTINUOUS
 62
     7
 10
114.0211305577578
 20
79.18792579309277
 30
0.0
  0
SEQEND
  5
665
  8
0
  6
CONTINUOUS
 62
     7
  0
LINE
  5
212
  8
0
  6
CONTINUOUS
 62
     7
 10
114.0211305577578
 20
79.18792579309277
 30
0.0
 11
116.1854314437021
 21
79.18792579295395
 31
0.0
  0
POLYLINE
  5
213
  8
0
  6
CONTINUOUS
 62
     7
 66
     1
 10
0.0
 20
0.0
 30
0.0
  0
VERTEX
  5
468
  8
0
  6
CONTINUOUS
 62
     7
 10
135.8541847961351
 20
79.18792579169231
 30
0.0
  0
VERTEX
  5
469
  8
0
  6
CONTINUOUS
 62
     7
 10
135.87144021287
 20
79.18733019178993
 30
0.0
  0
VERTEX
  5
46A
  8
0
  6
CONTINUOUS
 62
     7
 10
135.8886618709953
 20
79.18554481104198
 30
0.0
  0
VERTEX
  5
46B
  8
0
  6
CONTINUOUS
 62
     7
 10
135.9058087416393
 20
79.18257390293883
 30
0.0
  0
VERTEX
  5
46C
  8
0
  6
CONTINUOUS
 62
     7
 10
135.9228399741043
 20
79.17842454537077
 30
0.0
  0
VERTEX
  5
46D
  8
0
  6
CONTINUOUS
 62
     7
 10
135.9397149931886
 20
79.17310662376566
 30
0.0
  0
VERTEX
  5
46E
  8
0
  6
CONTINUOUS
 62
     7
 10
135.9563935958536
 20
79.1666328075378
 30
0.0
  0
VERTEX
  5
46F
  8
0
  6
CONTINUOUS
 62
     7
 10
135.9728360470028
 20
79.15901851990445
 30
0.0
  0
VERTEX
  5
470
  8
0
  6
CONTINUOUS
 62
     7
 10
135.9890031741471
 20
79.15028190114143
 30
0.0
  0
VERTEX
  5
471
  8
0
  6
CONTINUOUS
 62
     7
 10
136.0048564607291
 20
79.14044376536583
 30
0.0
  0
VERTEX
  5
472
  8
0
  6
CONTINUOUS
 62
     7
 10
136.0203581378852
 20
79.12952755094845
 30
0.0
  0
VERTEX
  5
473
  8
0
  6
CONTINUOUS
 62
     7
 10
136.0354712744258
 20
79.11755926467423
 30
0.0
  0
VERTEX
  5
474
  8
0
  6
CONTINUOUS
 62
     7
 10
136.0501598648204
 20
79.10456741978362
 30
0.0
  0
VERTEX
  5
475
  8
0
  6
CONTINUOUS
 62
     7
 10
136.0643889149771
 20
79.09058296804278
 30
0.0
  0
VERTEX
  5
476
  8
0
  6
CONTINUOUS
 62
     7
 10
136.0781245256123
 20
79.07563922600403
 30
0.0
  0
VERTEX
  5
477
  8
0
  6
CONTINUOUS
 62
     7
 10
136.0913339730128
 20
79.05977179563244
 30
0.0
  0
VERTEX
  5
478
  8
0
  6
CONTINUOUS
 62
     7
 10
136.1039857869962
 20
79.04301847948794
 30
0.0
  0
VERTEX
  5
479
  8
0
  6
CONTINUOUS
 62
     7
 10
136.116049825886
 20
79.02541919066425
 30
0.0
  0
VERTEX
  5
47A
  8
0
  6
CONTINUOUS
 62
     7
 10
136.1274973483206
 20
79.00701585770011
 30
0.0
  0
VERTEX
  5
47B
  8
0
  6
CONTINUOUS
 62
     7
 10
136.138301081727
 20
78.98785232468875
 30
0.0
  0
VERTEX
  5
47C
  8
0
  6
CONTINUOUS
 62
     7
 10
136.1484352872952
 20
78.9679742468236
 30
0.0
  0
VERTEX
  5
47D
  8
0
  6
CONTINUOUS
 62
     7
 10
136.1578758212977
 20
78.94742898162954
 30
0.0
  0
VERTEX
  5
47E
  8
0
  6
CONTINUOUS
 62
     7
 10
136.1666001926101
 20
78.92626547613824
 30
0.0
  0
VERTEX
  5
47F
  8
0
  6
CONTINUOUS
 62
     7
 10
136.1745876162936
 20
78.90453415027685
 30
0.0
  0
VERTEX
  5
480
  8
0
  6
CONTINUOUS
 62
     7
 10
136.1818190631132
 20
78.88228677674749
 30
0.0
  0
VERTEX
  5
481
  8
0
  6
CONTINUOUS
 62
     7
 10
136.1882773048729
 20
78.85957635768412
 30
0.0
  0
VERTEX
  5
482
  8
0
  6
CONTINUOUS
 62
     7
 10
136.1939469554599
 20
78.83645699838009
 30
0.0
  0
VERTEX
  5
483
  8
0
  6
CONTINUOUS
 62
     7
 10
136.198814507501
 20
78.8129837783879
 30
0.0
  0
VERTEX
  5
484
  8
0
  6
CONTINUOUS
 62
     7
 10
136.2028683645421
 20
78.7892126202976
 30
0.0
  0
VERTEX
  5
485
  8
0
  6
CONTINUOUS
 62
     7
 10
136.2060988686759
 20
78.76520015650681
 30
0.0
  0
VERTEX
  5
486
  8
0
  6
CONTINUOUS
 62
     7
 10
136.2084983235505
 20
78.74100359429983
 30
0.0
  0
VERTEX
  5
487
  8
0
  6
CONTINUOUS
 62
     7
 10
136.2100610127056
 20
78.71668057955685
 30
0.0
  0
VERTEX
  5
488
  8
0
  6
CONTINUOUS
 62
     7
 10
136.2107832131912
 20
78.69228905941863
 30
0.0
  0
SEQEND
  5
666
  8
0
  6
CONTINUOUS
 62
     7
  0
LINE
  5
214
  8
0
  6
CONTINUOUS
 62
     7
 10
133.6898839101907
 20
79.18792579183115
 30
0.0
 11
135.8541847961351
 21
79.18792579169231
 31
0.0
  0
LINE
  5
215
  8
0
  6
CONTINUOUS
 62
     7
 10
110.7955220532192
 20
79.18792579329967
 30
0.0
 11
110.7955220530589
 21
76.68792579329968
 31
0.0
  0
LINE
  5
216
  8
0
  6
CONTINUOUS
 62
     7
 10
110.7955220532192
 20
79.18792579329967
 30
0.0
 11
114.02113055775
 21
79.18792579309277
 31
0.0
  0
LINE
  5
217
  8
0
  6
CONTINUOUS
 62
     7
 10
139.0797933006735
 20
79.18792579148541
 30
0.0
 11
139.0797933005132
 21
76.68792579148543
 31
0.0
  0
LINE
  5
218
  8
0
  6
CONTINUOUS
 62
     7
 10
135.8541847961288
 20
79.18792579169231
 30
0.0
 11
139.0797933006735
 21
79.18792579148541
 31
0.0
  0
LINE
  5
219
  8
0
  6
CONTINUOUS
 62
     7
 10
139.7710542786407
 20
78.69228905919026
 30
0.0
 11
139.7710542785122
 21
76.68792579144107
 31
0.0
  0
LINE
  5
21A
  8
0
  6
CONTINUOUS
 62
     7
 10
141.9307254740573
 20
79.93818022438367
 30
0.0
 11
141.2786601369284
 21
78.69228905909355
 31
0.0
  0
LINE
  5
21B
  8
0
  6
CONTINUOUS
 62
     7
 10
139.7710542785122
 20
76.68792579144107
 30
0.0
 11
141.9507822329399
 21
76.68792579130127
 31
0.0
  0
POLYLINE
  5
21C
  8
0
  6
CONTINUOUS
 62
     7
 66
     1
 10
0.0
 20
0.0
 30
0.0
  0
VERTEX
  5
489
  8
0
  6
CONTINUOUS
 62
     7
 10
139.7710542786407
 20
78.69228905919026
 30
0.0
  0
VERTEX
  5
48A
  8
0
  6
CONTINUOUS
 62
     7
 10
139.7706331098764
 20
78.71668057932847
 30
0.0
  0
VERTEX
  5
48B
  8
0
  6
CONTINUOUS
 62
     7
 10
139.7693706069726
 20
78.7410035940714
 30
0.0
  0
VERTEX
  5
48C
  8
0
  6
CONTINUOUS
 62
     7
 10
139.7672697777158
 20
78.76520015627838
 30
0.0
  0
VERTEX
  5
48D
  8
0
  6
CONTINUOUS
 62
     7
 10
139.7643356271207
 20
78.78921262006915
 30
0.0
  0
VERTEX
  5
48E
  8
0
  6
CONTINUOUS
 62
     7
 10
139.7605751455066
 20
78.81298377815942
 30
0.0
  0
VERTEX
  5
48F
  8
0
  6
CONTINUOUS
 62
     7
 10
139.7559972918434
 20
78.8364569981516
 30
0.0
  0
VERTEX
  5
490
  8
0
  6
CONTINUOUS
 62
     7
 10
139.7506129724077
 20
78.85957635745561
 30
0.0
  0
VERTEX
  5
491
  8
0
  6
CONTINUOUS
 62
     7
 10
139.7444350148003
 20
78.88228677651898
 30
0.0
  0
VERTEX
  5
492
  8
0
  6
CONTINUOUS
 62
     7
 10
139.7374781373847
 20
78.90453415004832
 30
0.0
  0
VERTEX
  5
493
  8
0
  6
CONTINUOUS
 62
     7
 10
139.729758914223
 20
78.92626547590969
 30
0.0
  0
VERTEX
  5
494
  8
0
  6
CONTINUOUS
 62
     7
 10
139.7212957355895
 20
78.94742898140096
 30
0.0
  0
VERTEX
  5
495
  8
0
  6
CONTINUOUS
 62
     7
 10
139.7121087641574
 20
78.96797424659502
 30
0.0
  0
VERTEX
  5
496
  8
0
  6
CONTINUOUS
 62
     7
 10
139.7022198869641
 20
78.98785232446014
 30
0.0
  0
VERTEX
  5
497
  8
0
  6
CONTINUOUS
 62
     7
 10
139.6916526632666
 20
79.0070158574715
 30
0.0
  0
VERTEX
  5
498
  8
0
  6
CONTINUOUS
 62
     7
 10
139.6804322684143
 20
79.02541919043561
 30
0.0
  0
VERTEX
  5
499
  8
0
  6
CONTINUOUS
 62
     7
 10
139.6685854338717
 20
79.04301847925929
 30
0.0
  0
VERTEX
  5
49A
  8
0
  6
CONTINUOUS
 62
     7
 10
139.6561403835327
 20
79.05977179540379
 30
0.0
  0
VERTEX
  5
49B
  8
0
  6
CONTINUOUS
 62
     7
 10
139.6431267664802
 20
79.07563922577535
 30
0.0
  0
VERTEX
  5
49C
  8
0
  6
CONTINUOUS
 62
     7
 10
139.6295755863504
 20
79.0905829678141
 30
0.0
  0
VERTEX
  5
49D
  8
0
  6
CONTINUOUS
 62
     7
 10
139.6155191274695
 20
79.10456741955493
 30
0.0
  0
VERTEX
  5
49E
  8
0
  6
CONTINUOUS
 62
     7
 10
139.6009908779395
 20
79.11755926444552
 30
0.0
  0
VERTEX
  5
49F
  8
0
  6
CONTINUOUS
 62
     7
 10
139.5860254498565
 20
79.12952755071976
 30
0.0
  0
VERTEX
  5
4A0
  8
0
  6
CONTINUOUS
 62
     7
 10
139.5706584968503
 20
79.1404437651371
 30
0.0
  0
VERTEX
  5
4A1
  8
0
  6
CONTINUOUS
 62
     7
 10
139.5549266291437
 20
79.15028190091269
 30
0.0
  0
VERTEX
  5
4A2
  8
0
  6
CONTINUOUS
 62
     7
 10
139.5388673263322
 20
79.1590185196757
 30
0.0
  0
VERTEX
  5
4A3
  8
0
  6
CONTINUOUS
 62
     7
 10
139.5225188480925
 20
79.16663280730907
 30
0.0
  0
VERTEX
  5
4A4
  8
0
  6
CONTINUOUS
 62
     7
 10
139.5059201430325
 20
79.17310662353691
 30
0.0
  0
VERTEX
  5
4A5
  8
0
  6
CONTINUOUS
 62
     7
 10
139.4891107559008
 20
79.17842454514202
 30
0.0
  0
VERTEX
  5
4A6
  8
0
  6
CONTINUOUS
 62
     7
 10
139.4721307333745
 20
79.18257390271006
 30
0.0
  0
VERTEX
  5
4A7
  8
0
  6
CONTINUOUS
 62
     7
 10
139.4550205286527
 20
79.18554481081321
 30
0.0
  0
VERTEX
  5
4A8
  8
0
  6
CONTINUOUS
 62
     7
 10
139.4378209050803
 20
79.18733019156117
 30
0.0
  0
VERTEX
  5
4A9
  8
0
  6
CONTINUOUS
 62
     7
 10
139.4205728390336
 20
79.18792579146356
 30
0.0
  0
SEQEND
  5
667
  8
0
  6
CONTINUOUS
 62
     7
  0
LINE
  5
21D
  8
0
  6
CONTINUOUS
 62
     7
 10
139.0797933006735
 20
79.18792579148541
 30
0.0
 11
139.4205728390336
 21
79.18792579146356
 31
0.0
  0
LINE
  5
21E
  8
0
  6
CONTINUOUS
 62
     7
 10
139.0797933005132
 20
76.68792579148543
 30
0.0
 11
139.7710542785122
 21
76.68792579144107
 31
0.0
  0
LINE
  5
21F
  8
0
  6
CONTINUOUS
 62
     7
 10
110.1042610750599
 20
76.68792579334402
 30
0.0
 11
110.1042610751885
 21
78.69228906109319
 31
0.0
  0
POLYLINE
  5
220
  8
0
  6
CONTINUOUS
 62
     7
 66
     1
 10
0.0
 20
0.0
 30
0.0
  0
VERTEX
  5
4AA
  8
0
  6
CONTINUOUS
 62
     7
 10
110.4547425148592
 20
79.18792579332154
 30
0.0
  0
VERTEX
  5
4AB
  8
0
  6
CONTINUOUS
 62
     7
 10
110.4374944488125
 20
79.18733019342136
 30
0.0
  0
VERTEX
  5
4AC
  8
0
  6
CONTINUOUS
 62
     7
 10
110.4202948252398
 20
79.18554481267562
 30
0.0
  0
VERTEX
  5
4AD
  8
0
  6
CONTINUOUS
 62
     7
 10
110.4031846205176
 20
79.18257390457465
 30
0.0
  0
VERTEX
  5
4AE
  8
0
  6
CONTINUOUS
 62
     7
 10
110.3862045979908
 20
79.17842454700879
 30
0.0
  0
VERTEX
  5
4AF
  8
0
  6
CONTINUOUS
 62
     7
 10
110.3693952108584
 20
79.17310662540584
 30
0.0
  0
VERTEX
  5
4B0
  8
0
  6
CONTINUOUS
 62
     7
 10
110.3527965057976
 20
79.16663280918013
 30
0.0
  0
VERTEX
  5
4B1
  8
0
  6
CONTINUOUS
 62
     7
 10
110.3364480275569
 20
79.15901852154886
 30
0.0
  0
VERTEX
  5
4B2
  8
0
  6
CONTINUOUS
 62
     7
 10
110.3203887247442
 20
79.1502819027879
 30
0.0
  0
VERTEX
  5
4B3
  8
0
  6
CONTINUOUS
 62
     7
 10
110.3046568570364
 20
79.14044376701435
 30
0.0
  0
VERTEX
  5
4B4
  8
0
  6
CONTINUOUS
 62
     7
 10
110.2892899040289
 20
79.12952755259896
 30
0.0
  0
VERTEX
  5
4B5
  8
0
  6
CONTINUOUS
 62
     7
 10
110.2743244759443
 20
79.11755926632664
 30
0.0
  0
VERTEX
  5
4B6
  8
0
  6
CONTINUOUS
 62
     7
 10
110.2597962264127
 20
79.1045674214379
 30
0.0
  0
VERTEX
  5
4B7
  8
0
  6
CONTINUOUS
 62
     7
 10
110.2457397675299
 20
79.0905829696989
 30
0.0
  0
VERTEX
  5
4B8
  8
0
  6
CONTINUOUS
 62
     7
 10
110.2321885873982
 20
79.07563922766187
 30
0.0
  0
VERTEX
  5
4B9
  8
0
  6
CONTINUOUS
 62
     7
 10
110.2191749703437
 20
79.05977179729199
 30
0.0
  0
VERTEX
  5
4BA
  8
0
  6
CONTINUOUS
 62
     7
 10
110.2067299200025
 20
79.04301848114909
 30
0.0
  0
VERTEX
  5
4BB
  8
0
  6
CONTINUOUS
 62
     7
 10
110.1948830854576
 20
79.02541919232694
 30
0.0
  0
VERTEX
  5
4BC
  8
0
  6
CONTINUOUS
 62
     7
 10
110.1836626906031
 20
79.00701585936426
 30
0.0
  0
VERTEX
  5
4BD
  8
0
  6
CONTINUOUS
 62
     7
 10
110.173095466903
 20
78.98785232635424
 30
0.0
  0
VERTEX
  5
4BE
  8
0
  6
CONTINUOUS
 62
     7
 10
110.1632065897072
 20
78.96797424849039
 30
0.0
  0
VERTEX
  5
4BF
  8
0
  6
CONTINUOUS
 62
     7
 10
110.1540196182725
 20
78.94742898329751
 30
0.0
  0
VERTEX
  5
4C0
  8
0
  6
CONTINUOUS
 62
     7
 10
110.1455564396363
 20
78.92626547780733
 30
0.0
  0
VERTEX
  5
4C1
  8
0
  6
CONTINUOUS
 62
     7
 10
110.1378372164718
 20
78.90453415194695
 30
0.0
  0
VERTEX
  5
4C2
  8
0
  6
CONTINUOUS
 62
     7
 10
110.1308803390533
 20
78.8822867784185
 30
0.0
  0
VERTEX
  5
4C3
  8
0
  6
CONTINUOUS
 62
     7
 10
110.1247023814429
 20
78.85957635935591
 30
0.0
  0
VERTEX
  5
4C4
  8
0
  6
CONTINUOUS
 62
     7
 10
110.1193180620044
 20
78.8364570000526
 30
0.0
  0
VERTEX
  5
4C5
  8
0
  6
CONTINUOUS
 62
     7
 10
110.1147402083381
 20
78.81298378006102
 30
0.0
  0
VERTEX
  5
4C6
  8
0
  6
CONTINUOUS
 62
     7
 10
110.110979726721
 20
78.78921262197122
 30
0.0
  0
VERTEX
  5
4C7
  8
0
  6
CONTINUOUS
 62
     7
 10
110.1080455761228
 20
78.76520015818083
 30
0.0
  0
VERTEX
  5
4C8
  8
0
  6
CONTINUOUS
 62
     7
 10
110.1059447468628
 20
78.74100359597414
 30
0.0
  0
VERTEX
  5
4C9
  8
0
  6
CONTINUOUS
 62
     7
 10
110.1046822439559
 20
78.71668058123134
 30
0.0
  0
VERTEX
  5
4CA
  8
0
  6
CONTINUOUS
 62
     7
 10
110.1042610751885
 20
78.69228906109319
 30
0.0
  0
SEQEND
  5
668
  8
0
  6
CONTINUOUS
 62
     7
  0
LINE
  5
221
  8
0
  6
CONTINUOUS
 62
     7
 10
110.4547425148592
 20
79.18792579332154
 30
0.0
 11
110.7955220532192
 21
79.18792579329967
 31
0.0
  0
LINE
  5
222
  8
0
  6
CONTINUOUS
 62
     7
 10
107.9245331206322
 20
76.68792579348383
 30
0.0
 11
110.1042610750599
 21
76.68792579334402
 31
0.0
  0
POLYLINE
  5
223
  8
0
  6
CONTINUOUS
 62
     7
 66
     1
 10
0.0
 20
0.0
 30
0.0
  0
VERTEX
  5
4CB
  8
0
  6
CONTINUOUS
 62
     7
 10
140.8370999582249
 20
79.18792579137266
 30
0.0
  0
VERTEX
  5
4CC
  8
0
  6
CONTINUOUS
 62
     7
 10
140.8712843696308
 20
79.1873301914692
 30
0.0
  0
VERTEX
  5
4CD
  8
0
  6
CONTINUOUS
 62
     7
 10
140.9047491973571
 20
79.18554481072017
 30
0.0
  0
VERTEX
  5
4CE
  8
0
  6
CONTINUOUS
 62
     7
 10
140.9374147148113
 20
79.18257390261604
 30
0.0
  0
VERTEX
  5
4CF
  8
0
  6
CONTINUOUS
 62
     7
 10
140.9692030996776
 20
79.17842454504705
 30
0.0
  0
VERTEX
  5
4D0
  8
0
  6
CONTINUOUS
 62
     7
 10
141.0000386193205
 20
79.17310662344104
 30
0.0
  0
VERTEX
  5
4D1
  8
0
  6
CONTINUOUS
 62
     7
 10
141.02984781121
 20
79.16663280721234
 30
0.0
  0
VERTEX
  5
4D2
  8
0
  6
CONTINUOUS
 62
     7
 10
141.0585596579393
 20
79.15901851957818
 30
0.0
  0
VERTEX
  5
4D3
  8
0
  6
CONTINUOUS
 62
     7
 10
141.086105756416
 20
79.15028190081443
 30
0.0
  0
VERTEX
  5
4D4
  8
0
  6
CONTINUOUS
 62
     7
 10
141.112420480826
 20
79.14044376503817
 30
0.0
  0
VERTEX
  5
4D5
  8
0
  6
CONTINUOUS
 62
     7
 10
141.1374411389802
 20
79.12952755062021
 30
0.0
  0
VERTEX
  5
4D6
  8
0
  6
CONTINUOUS
 62
     7
 10
141.1611081216725
 20
79.1175592643454
 30
0.0
  0
VERTEX
  5
4D7
  8
0
  6
CONTINUOUS
 62
     7
 10
141.1833650446927
 20
79.10456741945433
 30
0.0
  0
VERTEX
  5
4D8
  8
0
  6
CONTINUOUS
 62
     7
 10
141.2041588831563
 20
79.09058296771306
 30
0.0
  0
VERTEX
  5
4D9
  8
0
  6
CONTINUOUS
 62
     7
 10
141.2234400978305
 20
79.07563922567395
 30
0.0
  0
VERTEX
  5
4DA
  8
0
  6
CONTINUOUS
 62
     7
 10
141.2411627531574
 20
79.05977179530208
 30
0.0
  0
VERTEX
  5
4DB
  8
0
  6
CONTINUOUS
 62
     7
 10
141.2572846266897
 20
79.04301847915735
 30
0.0
  0
VERTEX
  5
4DC
  8
0
  6
CONTINUOUS
 62
     7
 10
141.2717673096823
 20
79.02541919033351
 30
0.0
  0
VERTEX
  5
4DD
  8
0
  6
CONTINUOUS
 62
     7
 10
141.284576298597
 20
79.0070158573693
 30
0.0
  0
VERTEX
  5
4DE
  8
0
  6
CONTINUOUS
 62
     7
 10
141.2956810773037
 20
78.98785232435792
 30
0.0
  0
VERTEX
  5
4DF
  8
0
  6
CONTINUOUS
 62
     7
 10
141.3050551897819
 20
78.96797424649282
 30
0.0
  0
VERTEX
  5
4E0
  8
0
  6
CONTINUOUS
 62
     7
 10
141.3126763031499
 20
78.94742898129887
 30
0.0
  0
VERTEX
  5
4E1
  8
0
  6
CONTINUOUS
 62
     7
 10
141.31852626087
 20
78.92626547580778
 30
0.0
  0
VERTEX
  5
4E2
  8
0
  6
CONTINUOUS
 62
     7
 10
141.3225911260054
 20
78.90453414994664
 30
0.0
  0
VERTEX
  5
4E3
  8
0
  6
CONTINUOUS
 62
     7
 10
141.324861214423
 20
78.8822867764176
 30
0.0
  0
VERTEX
  5
4E4
  8
0
  6
CONTINUOUS
 62
     7
 10
141.3253311178649
 20
78.8595763573546
 30
0.0
  0
VERTEX
  5
4E5
  8
0
  6
CONTINUOUS
 62
     7
 10
141.3239997168335
 20
78.83645699805103
 30
0.0
  0
VERTEX
  5
4E6
  8
0
  6
CONTINUOUS
 62
     7
 10
141.320870183258
 20
78.81298377805935
 30
0.0
  0
VERTEX
  5
4E7
  8
0
  6
CONTINUOUS
 62
     7
 10
141.315949972938
 20
78.78921261996963
 30
0.0
  0
VERTEX
  5
4E8
  8
0
  6
CONTINUOUS
 62
     7
 10
141.3092508077806
 20
78.76520015617949
 30
0.0
  0
VERTEX
  5
4E9
  8
0
  6
CONTINUOUS
 62
     7
 10
141.3007886478743
 20
78.7410035939732
 30
0.0
  0
VERTEX
  5
4EA
  8
0
  6
CONTINUOUS
 62
     7
 10
141.2905836534653
 20
78.716680579231
 30
0.0
  0
VERTEX
  5
4EB
  8
0
  6
CONTINUOUS
 62
     7
 10
141.2786601369285
 20
78.69228905909358
 30
0.0
  0
SEQEND
  5
669
  8
0
  6
CONTINUOUS
 62
     7
  0
LINE
  5
224
  8
0
  6
CONTINUOUS
 62
     7
 10
139.4205728390336
 20
79.18792579146356
 30
0.0
 11
140.8370999582249
 21
79.18792579137269
 31
0.0
  0
LINE
  5
225
  8
0
  6
CONTINUOUS
 62
     7
 10
108.2904416289148
 20
79.18792579346035
 30
0.0
 11
110.4547425148592
 21
79.18792579332154
 31
0.0
  0
LINE
  5
226
  8
0
  6
CONTINUOUS
 62
     7
 10
131.2497916227468
 20
79.18792579198767
 30
0.0
 11
131.6463810353418
 21
80.27754624767006
 31
0.0
  0
LINE
  5
227
  8
0
  6
CONTINUOUS
 62
     7
 10
141.9307254740562
 20
79.93818022438231
 30
0.0
 11
142.0995851858987
 21
80.27754624699811
 31
0.0
  0
ARC
  5
228
  8
0
  6
CONTINUOUS
 62
     7
 10
133.7231285950668
 20
83.78428855471958
 30
0.0
 40
9.080873671121287
 50
337.2837332416768
 51
356.4884856478522
  0
LINE
  5
229
  8
0
  6
CONTINUOUS
 62
     7
 10
143.3228178746022
 20
87.27940664094314
 30
0.0
 11
142.7869530143826
 21
83.22809297160256
 31
0.0
  0
LINE
  5
22A
  8
0
  6
CONTINUOUS
 62
     7
 10
143.3515426953143
 20
83.98786818614637
 30
0.0
 11
143.3228178746022
 21
87.27940664094314
 31
0.0
  0
LINE
  5
22B
  8
0
  6
CONTINUOUS
 62
     7
 10
143.3513797304753
 20
81.98792579121142
 30
0.0
 11
143.3515426953143
 21
83.98786818614637
 31
0.0
  0
LINE
  5
22C
  8
0
  6
CONTINUOUS
 62
     7
 10
143.3583861051468
 20
81.18792579121096
 30
0.0
 11
143.3513797304753
 21
81.98792579121142
 31
0.0
  0
LINE
  5
22D
  8
0
  6
CONTINUOUS
 62
     7
 10
143.3866491169438
 20
79.96507069117636
 30
0.0
 11
143.3583861051468
 21
81.18792579121096
 31
0.0
  0
LINE
  5
22E
  8
0
  6
CONTINUOUS
 62
     7
 10
143.3866491169438
 20
79.96507069117636
 30
0.0
 11
143.4152483270068
 21
76.68792579120732
 31
0.0
  0
LINE
  5
22F
  8
0
  6
CONTINUOUS
 62
     7
 10
143.4152483270081
 20
76.68792579120732
 30
0.0
 11
141.9507822329409
 21
76.68792579130127
 31
0.0
  0
LINE
  5
230
  8
0
  6
CONTINUOUS
 62
     7
 10
132.7202922181141
 20
83.22809297224876
 30
0.0
 11
131.6463810353424
 21
80.27754624767174
 31
0.0
  0
LINE
  5
231
  8
0
  6
CONTINUOUS
 62
     7
 10
106.4600670265653
 20
76.68792579357776
 30
0.0
 11
106.4919239296831
 21
80.33836529231391
 31
0.0
  0
POLYLINE
  5
232
  8
0
  6
CONTINUOUS
 62
     7
 66
     1
 10
0.0
 20
0.0
 30
0.0
  0
VERTEX
  5
4EC
  8
0
  6
CONTINUOUS
 62
     7
 10
106.4919239296818
 20
80.33836529231392
 30
0.0
  0
VERTEX
  5
4ED
  8
0
  6
CONTINUOUS
 62
     7
 10
106.5807177258591
 20
79.7614768821546
 30
0.0
  0
VERTEX
  5
4EE
  8
0
  6
CONTINUOUS
 62
     7
 10
106.8538090044349
 20
79.20578851936978
 30
0.0
  0
VERTEX
  5
4EF
  8
0
  6
CONTINUOUS
 62
     7
 10
107.3008828582357
 20
78.69228906127285
 30
0.0
  0
SEQEND
  5
66A
  8
0
  6
CONTINUOUS
 62
     7
  0
LINE
  5
233
  8
0
  6
CONTINUOUS
 62
     7
 10
107.9245331206312
 20
76.68792579348383
 30
0.0
 11
106.460067026564
 21
76.68792579357776
 31
0.0
  0
POLYLINE
  5
234
  8
0
  6
CONTINUOUS
 62
     7
 66
     1
 10
0.0
 20
0.0
 30
0.0
  0
VERTEX
  5
4F0
  8
0
  6
CONTINUOUS
 62
     7
 10
107.3008828582367
 20
78.69228906127303
 30
0.0
  0
VERTEX
  5
4F1
  8
0
  6
CONTINUOUS
 62
     7
 10
107.2713315125903
 20
78.72065699572047
 30
0.0
  0
VERTEX
  5
4F2
  8
0
  6
CONTINUOUS
 62
     7
 10
107.2439246163974
 20
78.7495883755443
 30
0.0
  0
VERTEX
  5
4F3
  8
0
  6
CONTINUOUS
 62
     7
 10
107.2186560433249
 20
78.7792591564391
 30
0.0
  0
VERTEX
  5
4F4
  8
0
  6
CONTINUOUS
 62
     7
 10
107.1958932047997
 20
78.80946075306649
 30
0.0
  0
VERTEX
  5
4F5
  8
0
  6
CONTINUOUS
 62
     7
 10
107.1753685490747
 20
78.84095724497902
 30
0.0
  0
VERTEX
  5
4F6
  8
0
  6
CONTINUOUS
 62
     7
 10
107.1579736420918
 20
78.87294619877397
 30
0.0
  0
VERTEX
  5
4F7
  8
0
  6
CONTINUOUS
 62
     7
 10
107.1481638756835
 20
78.89478330672776
 30
0.0
  0
VERTEX
  5
4F8
  8
0
  6
CONTINUOUS
 62
     7
 10
107.140045441088
 20
78.91681156860564
 30
0.0
  0
VERTEX
  5
4F9
  8
0
  6
CONTINUOUS
 62
     7
 10
107.1337657521678
 20
78.93898701538046
 30
0.0
  0
VERTEX
  5
4FA
  8
0
  6
CONTINUOUS
 62
     7
 10
107.1299625145166
 20
78.95809607375071
 30
0.0
  0
VERTEX
  5
4FB
  8
0
  6
CONTINUOUS
 62
     7
 10
107.1277474230056
 20
78.97727030207335
 30
0.0
  0
VERTEX
  5
4FC
  8
0
  6
CONTINUOUS
 62
     7
 10
107.1272619151959
 20
78.99663949306041
 30
0.0
  0
VERTEX
  5
4FD
  8
0
  6
CONTINUOUS
 62
     7
 10
107.1287022772579
 20
79.01599450944548
 30
0.0
  0
VERTEX
  5
4FE
  8
0
  6
CONTINUOUS
 62
     7
 10
107.1308072418788
 20
79.02877014112141
 30
0.0
  0
VERTEX
  5
4FF
  8
0
  6
CONTINUOUS
 62
     7
 10
107.1339073431978
 20
79.04149667164305
 30
0.0
  0
VERTEX
  5
500
  8
0
  6
CONTINUOUS
 62
     7
 10
107.138071471723
 20
79.05413588688641
 30
0.0
  0
VERTEX
  5
501
  8
0
  6
CONTINUOUS
 62
     7
 10
107.1420213646167
 20
79.06372544404958
 30
0.0
  0
VERTEX
  5
502
  8
0
  6
CONTINUOUS
 62
     7
 10
107.1466816006157
 20
79.07323831172874
 30
0.0
  0
VERTEX
  5
503
  8
0
  6
CONTINUOUS
 62
     7
 10
107.152089171755
 20
79.08264384764733
 30
0.0
  0
VERTEX
  5
504
  8
0
  6
CONTINUOUS
 62
     7
 10
107.1582810700693
 20
79.09191140952883
 30
0.0
  0
VERTEX
  5
505
  8
0
  6
CONTINUOUS
 62
     7
 10
107.1642831116039
 20
79.09977252385872
 30
0.0
  0
VERTEX
  5
506
  8
0
  6
CONTINUOUS
 62
     7
 10
107.1709338281691
 20
79.10749807728124
 30
0.0
  0
VERTEX
  5
507
  8
0
  6
CONTINUOUS
 62
     7
 10
107.1782540434962
 20
79.11505644742643
 30
0.0
  0
VERTEX
  5
508
  8
0
  6
CONTINUOUS
 62
     7
 10
107.1843300495552
 20
79.12071559293733
 30
0.0
  0
VERTEX
  5
509
  8
0
  6
CONTINUOUS
 62
     7
 10
107.1908314479896
 20
79.1262542091991
 30
0.0
  0
VERTEX
  5
50A
  8
0
  6
CONTINUOUS
 62
     7
 10
107.1977608048508
 20
79.1316526956059
 30
0.0
  0
VERTEX
  5
50B
  8
0
  6
CONTINUOUS
 62
     7
 10
107.2051206861904
 20
79.13689145155176
 30
0.0
  0
VERTEX
  5
50C
  8
0
  6
CONTINUOUS
 62
     7
 10
107.2115525673232
 20
79.1411018772298
 30
0.0
  0
VERTEX
  5
50D
  8
0
  6
CONTINUOUS
 62
     7
 10
107.2182882141073
 20
79.14518452676175
 30
0.0
  0
VERTEX
  5
50E
  8
0
  6
CONTINUOUS
 62
     7
 10
107.225370949691
 20
79.14915255747786
 30
0.0
  0
VERTEX
  5
50F
  8
0
  6
CONTINUOUS
 62
     7
 10
107.2327583474696
 20
79.15297059909432
 30
0.0
  0
VERTEX
  5
510
  8
0
  6
CONTINUOUS
 62
     7
 10
107.2406079510745
 20
79.15670163608662
 30
0.0
  0
VERTEX
  5
511
  8
0
  6
CONTINUOUS
 62
     7
 10
107.2487632822217
 20
79.16025474298533
 30
0.0
  0
VERTEX
  5
512
  8
0
  6
CONTINUOUS
 62
     7
 10
107.2572824398137
 20
79.16364472652624
 30
0.0
  0
VERTEX
  5
513
  8
0
  6
CONTINUOUS
 62
     7
 10
107.2660901143198
 20
79.16683347468812
 30
0.0
  0
VERTEX
  5
514
  8
0
  6
CONTINUOUS
 62
     7
 10
107.2748663427087
 20
79.16971625736713
 30
0.0
  0
VERTEX
  5
515
  8
0
  6
CONTINUOUS
 62
     7
 10
107.2838829611593
 20
79.17239544445378
 30
0.0
  0
VERTEX
  5
516
  8
0
  6
CONTINUOUS
 62
     7
 10
107.2931983314835
 20
79.17488381969943
 30
0.0
  0
VERTEX
  5
517
  8
0
  6
CONTINUOUS
 62
     7
 10
107.3027212670117
 20
79.17715475100337
 30
0.0
  0
VERTEX
  5
518
  8
0
  6
CONTINUOUS
 62
     7
 10
107.3126755187531
 20
79.17925288596658
 30
0.0
  0
VERTEX
  5
519
  8
0
  6
CONTINUOUS
 62
     7
 10
107.3228038284136
 20
79.18111767996879
 30
0.0
  0
VERTEX
  5
51A
  8
0
  6
CONTINUOUS
 62
     7
 10
107.3331668702548
 20
79.18276091867781
 30
0.0
  0
VERTEX
  5
51B
  8
0
  6
CONTINUOUS
 62
     7
 10
107.3436602183947
 20
79.18416866518484
 30
0.0
  0
VERTEX
  5
51C
  8
0
  6
CONTINUOUS
 62
     7
 10
107.3542093104781
 20
79.18533834245576
 30
0.0
  0
VERTEX
  5
51D
  8
0
  6
CONTINUOUS
 62
     7
 10
107.3648481980726
 20
79.18628285839158
 30
0.0
  0
VERTEX
  5
51E
  8
0
  6
CONTINUOUS
 62
     7
 10
107.3755479836616
 20
79.18700699006509
 30
0.0
  0
VERTEX
  5
51F
  8
0
  6
CONTINUOUS
 62
     7
 10
107.3864465449981
 20
79.18752267400974
 30
0.0
  0
VERTEX
  5
520
  8
0
  6
CONTINUOUS
 62
     7
 10
107.3973793020844
 20
79.18782632303609
 30
0.0
  0
VERTEX
  5
521
  8
0
  6
CONTINUOUS
 62
     7
 10
107.4083228629585
 20
79.1879257935171
 30
0.0
  0
SEQEND
  5
66B
  8
0
  6
CONTINUOUS
 62
     7
  0
LINE
  5
235
  8
0
  6
CONTINUOUS
 62
     7
 10
107.4083228629574
 20
79.18792579351694
 30
0.0
 11
108.290441628914
 21
79.18792579346035
 31
0.0
  0
LINE
  5
236
  8
0
  6
CONTINUOUS
 62
     7
 10
106.4919239296831
 20
80.33836529231391
 30
0.0
 11
106.4923564376285
 21
80.3879257935757
 31
0.0
  0
LINE
  5
237
  8
0
  6
CONTINUOUS
 62
     7
 10
106.4923564376285
 20
80.3879257935757
 30
0.0
 11
115.1867282965248
 21
80.38792579301801
 31
0.0
  0
LINE
  5
238
  8
0
  6
CONTINUOUS
 62
     7
 10
115.1867282965248
 20
80.38792579301801
 30
0.0
 11
114.6009418588211
 21
79.18792579305558
 31
0.0
  0
LINE
  5
239
  8
0
  6
CONTINUOUS
 62
     7
 10
143.3079078539695
 20
88.98792579121043
 30
0.0
 11
143.3228178746023
 21
87.27940664094152
 31
0.0
  0
LINE
  5
23A
  8
0
  6
CONTINUOUS
 62
     7
 10
132.8876576772329
 20
83.6879257918821
 30
0.0
 11
132.8876576775729
 21
88.98792579187705
 31
0.0
  0
LINE
  5
23B
  8
0
  6
CONTINUOUS
 62
     7
 10
132.7202922181139
 20
83.22809297224795
 30
0.0
 11
132.8876576772328
 21
83.68792579188211
 31
0.0
  0
LINE
  5
23C
  8
0
  6
CONTINUOUS
 62
     7
 10
115.1867282965248
 20
80.38792579301801
 30
0.0
 11
116.8189123753617
 21
80.38792579291332
 31
0.0
  0
POLYLINE
  5
23D
  8
0
  6
CONTINUOUS
 62
     7
 66
     1
 10
0.0
 20
0.0
 30
0.0
  0
VERTEX
  5
522
  8
0
  6
CONTINUOUS
 62
     7
 10
116.8189123753621
 20
80.3879257929135
 30
0.0
  0
VERTEX
  5
523
  8
0
  6
CONTINUOUS
 62
     7
 10
118.0468216878805
 20
79.74172785862714
 30
0.0
  0
VERTEX
  5
524
  8
0
  6
CONTINUOUS
 62
     7
 10
119.2725147340743
 20
79.1879257927561
 30
0.0
  0
SEQEND
  5
66C
  8
0
  6
CONTINUOUS
 62
     7
  0
POLYLINE
  5
23E
  8
0
  6
CONTINUOUS
 62
     7
 66
     1
 10
0.0
 20
0.0
 30
0.0
  0
VERTEX
  5
525
  8
0
  6
CONTINUOUS
 62
     7
 10
115.9876576773337
 20
85.18792579296664
 30
0.0
  0
VERTEX
  5
526
  8
0
  6
CONTINUOUS
 62
     7
 10
116.0274171359956
 20
85.1887165128596
 30
0.0
  0
VERTEX
  5
527
  8
0
  6
CONTINUOUS
 62
     7
 10
116.0671137174676
 20
85.1910874220677
 30
0.0
  0
VERTEX
  5
528
  8
0
  6
CONTINUOUS
 62
     7
 10
116.1066846439962
 20
85.19503477114078
 30
0.0
  0
VERTEX
  5
529
  8
0
  6
CONTINUOUS
 62
     7
 10
116.1460673365436
 20
85.20055231758393
 30
0.0
  0
VERTEX
  5
52A
  8
0
  6
CONTINUOUS
 62
     7
 10
116.1851995137527
 20
85.20763133572967
 30
0.0
  0
VERTEX
  5
52B
  8
0
  6
CONTINUOUS
 62
     7
 10
116.2240192904415
 20
85.21626063053701
 30
0.0
  0
VERTEX
  5
52C
  8
0
  6
CONTINUOUS
 62
     7
 10
116.2624652754703
 20
85.22642655529579
 30
0.0
  0
VERTEX
  5
52D
  8
0
  6
CONTINUOUS
 62
     7
 10
116.3004766688286
 20
85.23811303320807
 30
0.0
  0
VERTEX
  5
52E
  8
0
  6
CONTINUOUS
 62
     7
 10
116.3379933577865
 20
85.25130158281266
 30
0.0
  0
VERTEX
  5
52F
  8
0
  6
CONTINUOUS
 62
     7
 10
116.3749560119592
 20
85.26597134721244
 30
0.0
  0
VERTEX
  5
530
  8
0
  6
CONTINUOUS
 62
     7
 10
116.4113061771346
 20
85.28209912705826
 30
0.0
  0
VERTEX
  5
531
  8
0
  6
CONTINUOUS
 62
     7
 10
116.4469863677152
 20
85.29965941723734
 30
0.0
  0
VERTEX
  5
532
  8
0
  6
CONTINUOUS
 62
     7
 10
116.4819401576277
 20
85.31862444720802
 30
0.0
  0
VERTEX
  5
533
  8
0
  6
CONTINUOUS
 62
     7
 10
116.5161122695579
 20
85.33896422491729
 30
0.0
  0
VERTEX
  5
534
  8
0
  6
CONTINUOUS
 62
     7
 10
116.5494486623684
 20
85.36064658423136
 30
0.0
  0
VERTEX
  5
535
  8
0
  6
CONTINUOUS
 62
     7
 10
116.581896616561
 20
85.38363723580439
 30
0.0
  0
VERTEX
  5
536
  8
0
  6
CONTINUOUS
 62
     7
 10
116.6134048176498
 20
85.4078998213052
 30
0.0
  0
VERTEX
  5
537
  8
0
  6
CONTINUOUS
 62
     7
 10
116.6439234373118
 20
85.43339597091564
 30
0.0
  0
VERTEX
  5
538
  8
0
  6
CONTINUOUS
 62
     7
 10
116.6734042121877
 20
85.4600853640102
 30
0.0
  0
VERTEX
  5
539
  8
0
  6
CONTINUOUS
 62
     7
 10
116.7018005202068
 20
85.48792579292063
 30
0.0
  0
SEQEND
  5
66D
  8
0
  6
CONTINUOUS
 62
     7
  0
LINE
  5
23F
  8
0
  6
CONTINUOUS
 62
     7
 10
106.5342454033319
 20
85.18792579357354
 30
0.0
 11
106.5490810786852
 21
86.88792579357188
 31
0.0
  0
POLYLINE
  5
240
  8
0
  6
CONTINUOUS
 62
     7
 66
     1
 10
0.0
 20
0.0
 30
0.0
  0
VERTEX
  5
53A
  8
0
  6
CONTINUOUS
 62
     7
 10
115.2735148345889
 20
86.88792579301263
 30
0.0
  0
VERTEX
  5
53B
  8
0
  6
CONTINUOUS
 62
     7
 10
115.2401660617325
 20
86.85219703614202
 30
0.0
  0
VERTEX
  5
53C
  8
0
  6
CONTINUOUS
 62
     7
 10
115.2086028106758
 20
86.81488154470385
 30
0.0
  0
VERTEX
  5
53D
  8
0
  6
CONTINUOUS
 62
     7
 10
115.1789004760741
 20
86.7760684536423
 30
0.0
  0
VERTEX
  5
53E
  8
0
  6
CONTINUOUS
 62
     7
 10
115.1511300074402
 20
86.73585047519488
 30
0.0
  0
VERTEX
  5
53F
  8
0
  6
CONTINUOUS
 62
     7
 10
115.1253577396682
 20
86.6943236774321
 30
0.0
  0
VERTEX
  5
540
  8
0
  6
CONTINUOUS
 62
     7
 10
115.1016452345803
 20
86.6515872547812
 30
0.0
  0
VERTEX
  5
541
  8
0
  6
CONTINUOUS
 62
     7
 10
115.0800491338749
 20
86.60774329108189
 30
0.0
  0
VERTEX
  5
542
  8
0
  6
CONTINUOUS
 62
     7
 10
115.0606210238279
 20
86.56289651574025
 30
0.0
  0
VERTEX
  5
543
  8
0
  6
CONTINUOUS
 62
     7
 10
115.0434073120688
 20
86.51715405356323
 30
0.0
  0
VERTEX
  5
544
  8
0
  6
CONTINUOUS
 62
     7
 10
115.0284491167278
 20
86.47062516887122
 30
0.0
  0
VERTEX
  5
545
  8
0
  6
CONTINUOUS
 62
     7
 10
115.0157821682176
 20
86.42342100450001
 30
0.0
  0
VERTEX
  5
546
  8
0
  6
CONTINUOUS
 62
     7
 10
115.0054367238845
 20
86.37565431631575
 30
0.0
  0
VERTEX
  5
547
  8
0
  6
CONTINUOUS
 62
     7
 10
114.9974374957333
 20
86.32743920387652
 30
0.0
  0
VERTEX
  5
548
  8
0
  6
CONTINUOUS
 62
     7
 10
114.991803591398
 20
86.27889083788462
 30
0.0
  0
VERTEX
  5
549
  8
0
  6
CONTINUOUS
 62
     7
 10
114.9885484684999
 20
86.23012518508
 30
0.0
  0
VERTEX
  5
54A
  8
0
  6
CONTINUOUS
 62
     7
 10
114.9876799025012
 20
86.1812587312323
 30
0.0
  0
VERTEX
  5
54B
  8
0
  6
CONTINUOUS
 62
     7
 10
114.9891999681323
 20
86.1324082028931
 30
0.0
  0
VERTEX
  5
54C
  8
0
  6
CONTINUOUS
 62
     7
 10
114.9931050344356
 20
86.08369028857291
 30
0.0
  0
VERTEX
  5
54D
  8
0
  6
CONTINUOUS
 62
     7
 10
114.9993857734389
 20
86.0352213600092
 30
0.0
  0
VERTEX
  5
54E
  8
0
  6
CONTINUOUS
 62
     7
 10
115.008027182437
 20
85.98711719419094
 30
0.0
  0
VERTEX
  5
54F
  8
0
  6
CONTINUOUS
 62
     7
 10
115.0190086198282
 20
85.93949269680392
 30
0.0
  0
VERTEX
  5
550
  8
0
  6
CONTINUOUS
 62
     7
 10
115.0323038544209
 20
85.8924616277573
 30
0.0
  0
VERTEX
  5
551
  8
0
  6
CONTINUOUS
 62
     7
 10
115.0478811280913
 20
85.84613632944699
 30
0.0
  0
VERTEX
  5
552
  8
0
  6
CONTINUOUS
 62
     7
 10
115.0657032316439
 20
85.80062745840515
 30
0.0
  0
VERTEX
  5
553
  8
0
  6
CONTINUOUS
 62
     7
 10
115.0857275936923
 20
85.75604372097659
 30
0.0
  0
VERTEX
  5
554
  8
0
  6
CONTINUOUS
 62
     7
 10
115.1079063823488
 20
85.7124916136536
 30
0.0
  0
VERTEX
  5
555
  8
0
  6
CONTINUOUS
 62
     7
 10
115.1321866194799
 20
85.67007516868942
 30
0.0
  0
VERTEX
  5
556
  8
0
  6
CONTINUOUS
 62
     7
 10
115.1585103072542
 20
85.62889570559793
 30
0.0
  0
VERTEX
  5
557
  8
0
  6
CONTINUOUS
 62
     7
 10
115.186814566681
 20
85.58905158913335
 30
0.0
  0
VERTEX
  5
558
  8
0
  6
CONTINUOUS
 62
     7
 10
115.2170317878083
 20
85.55063799432779
 30
0.0
  0
VERTEX
  5
559
  8
0
  6
CONTINUOUS
 62
     7
 10
115.2490897912217
 20
85.51374667914816
 30
0.0
  0
VERTEX
  5
55A
  8
0
  6
CONTINUOUS
 62
     7
 10
115.2829120004585
 20
85.47846576531526
 30
0.0
  0
VERTEX
  5
55B
  8
0
  6
CONTINUOUS
 62
     7
 10
115.3184176249243
 20
85.44487952780882
 30
0.0
  0
VERTEX
  5
55C
  8
0
  6
CONTINUOUS
 62
     7
 10
115.3555218528764
 20
85.41306819356114
 30
0.0
  0
VERTEX
  5
55D
  8
0
  6
CONTINUOUS
 62
     7
 10
115.3941360540127
 20
85.38310774982021
 30
0.0
  0
VERTEX
  5
55E
  8
0
  6
CONTINUOUS
 62
     7
 10
115.4341679911808
 20
85.35506976264016
 30
0.0
  0
VERTEX
  5
55F
  8
0
  6
CONTINUOUS
 62
     7
 10
115.4755220407042
 20
85.32902120593248
 30
0.0
  0
VERTEX
  5
560
  8
0
  6
CONTINUOUS
 62
     7
 10
115.5180994207969
 20
85.30502430148654
 30
0.0
  0
VERTEX
  5
561
  8
0
  6
CONTINUOUS
 62
     7
 10
115.5617984275216
 20
85.28313637034128
 30
0.0
  0
VERTEX
  5
562
  8
0
  6
CONTINUOUS
 62
     7
 10
115.6065146777286
 20
85.26340969586334
 30
0.0
  0
VERTEX
  5
563
  8
0
  6
CONTINUOUS
 62
     7
 10
115.6521413583946
 20
85.2458913988586
 30
0.0
  0
VERTEX
  5
564
  8
0
  6
CONTINUOUS
 62
     7
 10
115.6985694817646
 20
85.2306233250154
 30
0.0
  0
VERTEX
  5
565
  8
0
  6
CONTINUOUS
 62
     7
 10
115.7456881456899
 20
85.21764194494844
 30
0.0
  0
VERTEX
  5
566
  8
0
  6
CONTINUOUS
 62
     7
 10
115.7933847985378
 20
85.20697826708187
 30
0.0
  0
VERTEX
  5
567
  8
0
  6
CONTINUOUS
 62
     7
 10
115.8415455080427
 20
85.19865776358009
 30
0.0
  0
VERTEX
  5
568
  8
0
  6
CONTINUOUS
 62
     7
 10
115.8900552334538
 20
85.19270030950263
 30
0.0
  0
VERTEX
  5
569
  8
0
  6
CONTINUOUS
 62
     7
 10
115.9387981003312
 20
85.18912013532903
 30
0.0
  0
VERTEX
  5
56A
  8
0
  6
CONTINUOUS
 62
     7
 10
115.9876576773337
 20
85.18792579296664
 30
0.0
  0
SEQEND
  5
66E
  8
0
  6
CONTINUOUS
 62
     7
  0
ARC
  5
241
  8
0
  6
CONTINUOUS
 62
     7
 10
120.272514734253
 20
81.98792579269178
 30
0.0
 40
6.999999999999998
 50
117.9866157316892
 51
135.5729959954959
  0
LINE
  5
242
  8
0
  6
CONTINUOUS
 62
     7
 10
116.9876576775246
 20
88.16932645248208
 30
0.0
 11
116.9876576773699
 21
85.75750323795532
 31
0.0
  0
ARC
  5
243
  8
0
  6
CONTINUOUS
 62
     7
 10
120.272514734253
 20
81.98792579269178
 30
0.0
 40
4.999999999999999
 50
131.0693023796441
 51
135.5729959954962
  0
LINE
  5
244
  8
0
  6
CONTINUOUS
 62
     7
 10
116.9876576775771
 20
88.9879257928987
 30
0.0
 11
116.9876576775246
 21
88.1693264524791
 31
0.0
  0
LINE
  5
245
  8
0
  6
CONTINUOUS
 62
     7
 10
106.5490810786853
 20
86.88792579357076
 30
0.0
 11
106.5674075011805
 21
88.98792579356711
 31
0.0
  0
LINE
  5
246
  8
0
  6
CONTINUOUS
 62
     7
 10
122.0663298069977
 20
79.18792575970302
 30
0.0
 11
122.2170583480084
 21
79.18792579256768
 31
0.0
  0
LINE
  5
247
  8
0
  6
CONTINUOUS
 62
     7
 10
130.6028006198185
 20
79.18792579202933
 30
0.0
 11
131.3724635848777
 21
79.52496423787437
 31
0.0
  0
LINE
  5
248
  8
0
  6
CONTINUOUS
 62
     7
 10
143.3866491169438
 20
79.96507069117783
 30
0.0
 11
143.3829589164183
 21
80.38792579120971
 31
0.0
  0
LINE
  5
249
  8
0
  6
CONTINUOUS
 62
     7
 10
116.9876576772372
 20
83.6879257929022
 30
0.0
 11
116.9876576773013
 21
84.68763375358543
 31
0.0
  0
LINE
  5
24A
  8
0
  6
CONTINUOUS
 62
     7
 10
117.6064070753805
 20
81.9879257928628
 30
0.0
 11
116.9876576772374
 21
83.68792579290195
 31
0.0
  0
LINE
  5
24B
  8
0
  6
CONTINUOUS
 62
     7
 10
106.5239356237767
 20
81.98792579357367
 30
0.0
 11
106.5237726591943
 21
83.98786818850864
 31
0.0
  0
LINE
  5
24C
  8
0
  6
CONTINUOUS
 62
     7
 10
106.5342454033319
 20
85.18792579357128
 30
0.0
 11
106.5237726591943
 21
83.98786818850846
 31
0.0
  0
LINE
  5
24D
  8
0
  6
CONTINUOUS
 62
     7
 10
120.0924023772478
 20
79.18792575367472
 30
0.0
 11
120.4788671225577
 21
79.1879257908291
 31
0.0
  0
LINE
  5
24E
  8
0
  6
CONTINUOUS
 62
     7
 10
129.6174253117478
 20
79.18792579100042
 30
0.0
 11
130.0038900339389
 21
79.18792572283425
 31
0.0
  0
LINE
  5
24F
  8
0
  6
CONTINUOUS
 62
     7
 10
121.6798650756227
 20
79.18792578115253
 30
0.0
 11
122.0663298069977
 21
79.18792575970302
 31
0.0
  0
LINE
  5
250
  8
0
  6
CONTINUOUS
 62
     7
 10
128.0298751878722
 20
79.18792579092421
 30
0.0
 11
128.4163399155464
 21
79.18792575951544
 31
0.0
  0
LINE
  5
251
  8
0
  6
CONTINUOUS
 62
     7
 10
116.9123042269128
 20
85.69049049115696
 30
0.0
 11
116.9876576773615
 21
85.62523248879714
 31
0.0
  0
LINE
  5
252
  8
0
  6
CONTINUOUS
 62
     7
 10
116.9876576773615
 20
85.62523248879714
 30
0.0
 11
116.9876576773699
 21
85.75750323795532
 31
0.0
  0
LINE
  5
253
  8
0
  6
CONTINUOUS
 62
     7
 10
116.9876576773013
 20
84.68763375358594
 30
0.0
 11
116.1876576773345
 21
85.20186384138647
 31
0.0
  0
LINE
  5
254
  8
0
  6
CONTINUOUS
 62
     7
 10
116.9876576773615
 20
85.62523248879661
 30
0.0
 11
116.9876576773013
 21
84.68763375358492
 31
0.0
  0
LINE
  5
255
  8
0
  6
CONTINUOUS
 62
     7
 10
106.4977705855911
 20
80.35850287176372
 30
0.0
 11
106.5169292490025
 21
81.18792579357411
 31
0.0
  0
LINE
  5
256
  8
0
  6
CONTINUOUS
 62
     7
 10
118.5028517690581
 20
79.52496423870146
 30
0.0
 11
117.8975832627421
 21
81.18792579284411
 31
0.0
  0
LINE
  5
257
  8
0
  6
CONTINUOUS
 62
     7
 10
106.5169292490025
 20
81.18792579357411
 30
0.0
 11
106.5239356237767
 21
81.98792579357367
 31
0.0
  0
LINE
  5
258
  8
0
  6
CONTINUOUS
 62
     7
 10
117.6064070753805
 20
81.9879257928628
 30
0.0
 11
117.8975832627421
 21
81.18792579284411
 31
0.0
  0
LINE
  5
259
  8
0
  6
CONTINUOUS
 62
     7
 10
128.5948810144748
 20
63.18792579239253
 30
0.0
 11
128.4376576766257
 21
66.18792579239253
 31
0.0
  0
LINE
  5
25A
  8
0
  6
CONTINUOUS
 62
     7
 10
128.4376576766257
 20
66.18792579239253
 30
0.0
 11
128.5292897884287
 21
76.68792579239253
 31
0.0
  0
POLYLINE
  5
25B
  8
0
  6
CONTINUOUS
 62
     7
 66
     1
 10
0.0
 20
0.0
 30
0.0
  0
VERTEX
  5
56B
  8
0
  6
CONTINUOUS
 62
     7
 10
132.026189033334
 20
76.51681463632288
 30
0.0
  0
VERTEX
  5
56C
  8
0
  6
CONTINUOUS
 62
     7
 10
131.6710456016811
 20
76.5890635696504
 30
0.0
  0
VERTEX
  5
56D
  8
0
  6
CONTINUOUS
 62
     7
 10
131.2532493697874
 20
76.64314245617207
 30
0.0
  0
VERTEX
  5
56E
  8
0
  6
CONTINUOUS
 62
     7
 10
130.7917249503899
 20
76.67660172380812
 30
0.0
  0
VERTEX
  5
56F
  8
0
  6
CONTINUOUS
 62
     7
 10
130.3073776802032
 20
76.68792579239253
 30
0.0
  0
SEQEND
  5
66F
  8
0
  6
CONTINUOUS
 62
     7
  0
LINE
  5
25C
  8
0
  6
CONTINUOUS
 62
     7
 10
128.5948810144748
 20
63.18792579239253
 30
0.0
 11
132.0390378998081
 21
63.18792579239253
 31
0.0
  0
LINE
  5
25D
  8
0
  6
CONTINUOUS
 62
     7
 10
133.1177633336669
 20
76.19228906014172
 30
0.0
 11
132.026189033334
 21
76.51681463632288
 31
0.0
  0
LINE
  5
25E
  8
0
  6
CONTINUOUS
 62
     7
 10
133.1302993619258
 20
63.18792579239253
 30
0.0
 11
132.0390378998081
 21
63.18792579239253
 31
0.0
  0
LINE
  5
25F
  8
0
  6
CONTINUOUS
 62
     7
 10
121.3460255648227
 20
76.68792579239253
 30
0.0
 11
121.4376576766257
 21
66.18792579239255
 31
0.0
  0
LINE
  5
260
  8
0
  6
CONTINUOUS
 62
     7
 10
119.354977981273
 20
63.18792579239253
 30
0.0
 11
121.2804343387766
 21
63.18792579239253
 31
0.0
  0
LINE
  5
261
  8
0
  6
CONTINUOUS
 62
     7
 10
121.4376576766257
 20
66.18792579239255
 30
0.0
 11
121.2804343387766
 21
63.18792579239253
 31
0.0
  0
LINE
  5
262
  8
0
  6
CONTINUOUS
 62
     7
 10
115.8683783220835
 20
76.68792579239253
 30
0.0
 11
119.4037776057186
 21
76.68792579239253
 31
0.0
  0
LINE
  5
263
  8
0
  6
CONTINUOUS
 62
     7
 10
119.354977981273
 20
63.18792579239253
 30
0.0
 11
115.8195786976379
 21
63.18792579239253
 31
0.0
  0
LINE
  5
264
  8
0
  6
CONTINUOUS
 62
     7
 10
130.5202585122209
 20
76.68792579221349
 30
0.0
 11
133.1654955474441
 21
76.68792579239253
 31
0.0
  0
LINE
  5
265
  8
0
  6
CONTINUOUS
 62
     7
 10
133.1654955474441
 20
76.68792579239253
 30
0.0
 11
138.9928210314429
 21
76.68792579239253
 31
0.0
  0
LINE
  5
266
  8
0
  6
CONTINUOUS
 62
     7
 10
133.1302993619258
 20
63.18792579239253
 30
0.0
 11
160.665915215607
 21
63.18792579239253
 31
0.0
  0
LINE
  5
267
  8
0
  6
CONTINUOUS
 62
     7
 10
139.0139946232631
 20
76.67842446079561
 30
0.0
 11
138.9928210314429
 21
76.68792579239253
 31
0.0
  0
LINE
  5
268
  8
0
  6
CONTINUOUS
 62
     7
 10
144.4642055020047
 20
75.46515473356475
 30
0.0
 11
144.461278460404
 21
75.46677856513602
 31
0.0
  0
LINE
  5
269
  8
0
  6
CONTINUOUS
 62
     7
 10
128.4376576766257
 20
66.18792579239253
 30
0.0
 11
121.4376576766257
 21
66.18792579239253
 31
0.0
  0
LINE
  5
26A
  8
0
  6
CONTINUOUS
 62
     7
 10
156.6226931057148
 20
70.69228906014172
 30
0.0
 11
156.557095487178
 21
71.18792579239252
 31
0.0
  0
LINE
  5
26B
  8
0
  6
CONTINUOUS
 62
     7
 10
110.1042610750599
 20
76.68792579239253
 30
0.0
 11
113.6397949809828
 21
76.68792579239253
 31
0.0
  0
LINE
  5
26C
  8
0
  6
CONTINUOUS
 62
     7
 10
107.9244773580856
 20
63.18792579239253
 30
0.0
 11
115.8195786976379
 21
63.18792579239253
 31
0.0
  0
LINE
  5
26D
  8
0
  6
CONTINUOUS
 62
     7
 10
138.9928210314429
 20
76.68792579239253
 30
0.0
 11
139.2969868814076
 21
76.68792579239253
 31
0.0
  0
LINE
  5
26E
  8
0
  6
CONTINUOUS
 62
     7
 10
156.557095487178
 20
71.18792579239252
 30
0.0
 11
160.5424952728369
 21
71.18792579239252
 31
0.0
  0
LINE
  5
26F
  8
0
  6
CONTINUOUS
 62
     7
 10
170.3942566203502
 20
63.18792579239253
 30
0.0
 11
170.3230714096161
 21
70.69228906014172
 31
0.0
  0
LINE
  5
270
  8
0
  6
CONTINUOUS
 62
     7
 10
170.3942566203502
 20
63.18792579239253
 30
0.0
 11
160.665915215607
 21
63.18792579239253
 31
0.0
  0
LINE
  5
271
  8
0
  6
CONTINUOUS
 62
     7
 10
160.5424952728369
 20
71.18792579239252
 30
0.0
 11
169.8250645833668
 21
71.18792579239252
 31
0.0
  0
LINE
  5
272
  8
0
  6
CONTINUOUS
 62
     7
 10
143.4195736830859
 20
76.19228906014172
 30
0.0
 11
143.4222424692314
 21
75.88647645824155
 31
0.0
  0
ARC
  5
273
  8
0
  6
CONTINUOUS
 62
     7
 10
142.9195927215538
 20
76.18792579239253
 30
0.0
 40
0.5000000000000016
 50
0.5000000000000812
 51
90.0
  0
LINE
  5
274
  8
0
  6
CONTINUOUS
 62
     7
 10
106.4600670263998
 20
63.18792579239253
 30
0.0
 11
106.577879741575
 21
76.68792579239253
 31
0.0
  0
LINE
  5
275
  8
0
  6
CONTINUOUS
 62
     7
 10
106.577879741575
 20
76.68792579239253
 30
0.0
 11
107.9245331206322
 21
76.68792579239253
 31
0.0
  0
LINE
  5
276
  8
0
  6
CONTINUOUS
 62
     7
 10
107.9244773580856
 20
63.18792579239253
 30
0.0
 11
106.4600670263998
 21
63.18792579239253
 31
0.0
  0
LINE
  5
277
  8
0
  6
CONTINUOUS
 62
     7
 10
159.1144028878379
 20
75.68792579239253
 30
0.0
 11
159.2614216331033
 21
75.68792579239253
 31
0.0
  0
LINE
  5
278
  8
0
  6
CONTINUOUS
 62
     7
 10
159.9379936681673
 20
71.18792581685508
 30
0.0
 11
159.911408373217
 21
75.68792579239253
 31
0.0
  0
LINE
  5
279
  8
0
  6
CONTINUOUS
 62
     7
 10
159.2614216331033
 20
75.68792579239253
 30
0.0
 11
159.911408373217
 21
75.68792579239253
 31
0.0
  0
LINE
  5
27A
  8
0
  6
CONTINUOUS
 62
     7
 10
159.911408373217
 20
75.68792579239253
 30
0.0
 11
160.3378570205882
 21
75.68792579239253
 31
0.0
  0
LINE
  5
27B
  8
0
  6
CONTINUOUS
 62
     7
 10
157.4687536343417
 20
71.18792601265966
 30
0.0
 11
157.4582006670688
 21
75.68792579239256
 31
0.0
  0
LINE
  5
27C
  8
0
  6
CONTINUOUS
 62
     7
 10
155.4863950244507
 20
71.4389136382481
 30
0.0
 11
155.5053384573933
 21
75.68792579239253
 31
0.0
  0
LINE
  5
27D
  8
0
  6
CONTINUOUS
 62
     7
 10
155.5053384573933
 20
75.68792579239253
 30
0.0
 11
157.4582006670688
 21
75.68792579239253
 31
0.0
  0
LINE
  5
27E
  8
0
  6
CONTINUOUS
 62
     7
 10
155.0009939143067
 20
75.68792579239253
 30
0.0
 11
155.5053384573933
 21
75.68792579239253
 31
0.0
  0
LINE
  5
27F
  8
0
  6
CONTINUOUS
 62
     7
 10
157.4582006670691
 20
75.68792579239253
 30
0.0
 11
159.1144028878379
 21
75.68792579239253
 31
0.0
  0
LINE
  5
280
  8
0
  6
CONTINUOUS
 62
     7
 10
154.9772144938465
 20
75.68792579239253
 30
0.0
 11
155.0009939143067
 21
75.68792579239253
 31
0.0
  0
LINE
  5
281
  8
0
  6
CONTINUOUS
 62
     7
 10
160.3378570205882
 20
75.68792579239253
 30
0.0
 11
160.5213845444164
 21
75.68792579239253
 31
0.0
  0
LINE
  5
282
  8
0
  6
CONTINUOUS
 62
     7
 10
154.4593919738835
 20
75.68792579239253
 30
0.0
 11
154.998454856478
 21
75.68792579239253
 31
0.0
  0
LINE
  5
283
  8
0
  6
CONTINUOUS
 62
     7
 10
161.4937177570804
 20
75.68792579239253
 30
0.0
 11
161.6925662958177
 21
75.68792579239253
 31
0.0
  0
LINE
  5
284
  8
0
  6
CONTINUOUS
 62
     7
 10
161.16003744268
 20
75.68792579239253
 30
0.0
 11
161.4937177570804
 21
75.68792579239253
 31
0.0
  0
LINE
  5
285
  8
0
  6
CONTINUOUS
 62
     7
 10
161.16003744268
 20
75.68792579239253
 30
0.0
 11
160.5213845444164
 21
75.68792579239253
 31
0.0
  0
LINE
  5
286
  8
0
  6
CONTINUOUS
 62
     7
 10
143.3079078539695
 20
88.9879257912142
 30
0.0
 11
132.8876576775729
 21
88.9879257918826
 31
0.0
  0
LINE
  5
287
  8
0
  6
CONTINUOUS
 62
     7
 10
106.5342454033319
 20
85.18792579357302
 30
0.0
 11
115.9876576773337
 21
85.18792579296664
 31
0.0
  0
LINE
  5
288
  8
0
  6
CONTINUOUS
 62
     7
 10
116.9876576775771
 20
88.98792579290249
 30
0.0
 11
106.5674075011806
 21
88.98792579357088
 31
0.0
  0
ARC
  5
289
  8
0
  6
CONTINUOUS
 62
     7
 10
138.9525590119667
 20
63.55418125590236
 30
0.0
 40
13.12438708140017
 50
65.16827995221286
 51
89.7317963360724
  0
ARC
  5
28A
  8
0
  6
CONTINUOUS
 62
     7
 10
167.7813595767812
 20
122.1580618339304
 30
0.0
 40
52.19101499493205
 50
243.4600640820338
 51
257.5838357147866
  0
LINE
  5
28B
  8
0
  6
CONTINUOUS
 62
     7
 10
157.4376576766257
 20
63.18792579239253
 30
0.0
 11
157.9376576766257
 21
62.58792579239253
 31
0.0
  0
LINE
  5
28C
  8
0
  6
CONTINUOUS
 62
     7
 10
157.9376576766257
 20
62.58792579239253
 30
0.0
 11
158.4376576766257
 21
63.18792579239253
 31
0.0
  0
LINE
  5
28D
  8
0
  6
CONTINUOUS
 62
     7
 10
107.4600670263999
 20
63.18792579239253
 30
0.0
 11
107.9600670263999
 21
62.58792579239253
 31
0.0
  0
LINE
  5
28E
  8
0
  6
CONTINUOUS
 62
     7
 10
107.9600670263999
 20
62.58792579239253
 30
0.0
 11
108.4600670263999
 21
63.18792579239253
 31
0.0
  0
LINE
  5
28F
  8
0
  6
CONTINUOUS
 62
     7
 10
159.1144028878379
 20
75.68792579239253
 30
0.0
 11
159.0751319827795
 21
71.18792579239252
 31
0.0
  0
LINE
  5
290
  8
0
  6
CONTINUOUS
 62
     7
 10
160.3771279256466
 20
71.18792579239252
 30
0.0
 11
160.3378570205882
 21
75.68792579239253
 31
0.0
  0
LINE
  5
291
  8
0
  6
CONTINUOUS
 62
     7
 10
154.9772144938465
 20
75.68792579239253
 30
0.0
 11
154.941223418353
 21
71.56375703489837
 31
0.0
  0
LINE
  5
292
  8
0
  6
CONTINUOUS
 62
     7
 10
160.5606554494749
 20
71.18792579239252
 30
0.0
 11
160.5213845444164
 21
75.68792579239253
 31
0.0
  0
LINE
  5
293
  8
0
  6
CONTINUOUS
 62
     7
 10
170.3901736612463
 20
63.18792688774217
 30
0.0
 11
170.3199866047046
 21
70.69315571688648
 31
0.0
  0
ARC
  5
294
  8
0
  6
CONTINUOUS
 62
     7
 10
169.8250645833668
 20
70.68792579239252
 30
0.0
 40
0.4999999999999927
 50
0.5416642795533073
 51
90.0
  0
LINE
  5
295
  8
0
  6
CONTINUOUS
 62
     7
 10
154.4593919738835
 20
75.68792579239253
 30
0.0
 11
154.4244336766845
 21
71.68210170553569
 31
0.0
  0
LINE
  5
296
  8
0
  6
CONTINUOUS
 62
     7
 10
161.7318372008761
 20
71.18792579239252
 30
0.0
 11
161.6925662958177
 21
75.68792579239253
 31
0.0
  0
ENDBLK
  8
0
  0
BLOCK
  8
0
  2
D_FRAME_VIEW_20607
 70
     0
 10
0.0
 20
0.0
 30
0.0
  0
LINE
  5
29B
  8
0
  6
CONTINUOUS
 62
     7
 10
68.23403905573228
 20
143.5726842768215
 30
0.0
 11
67.89467303309743
 21
143.754487503233
 31
0.0
  0
ARC
  5
29C
  8
0
  6
CONTINUOUS
 62
     7
 10
72.95708411439273
 20
152.3898712090083
 30
0.0
 40
10.00249668937858
 50
241.8236716536298
 51
259.7929645174822
  0
ARC
  5
29D
  8
0
  6
CONTINUOUS
 62
     7
 10
69.94441860012468
 20
135.6564095209846
 30
0.0
 40
7.000000000064582
 50
40.89366686818528
 51
79.79522628068706
  0
ARC
  5
29E
  8
0
  6
CONTINUOUS
 62
     7
 10
69.94425601198635
 20
135.6556304898601
 30
0.0
 40
5.000779033835084
 50
66.42440458680232
 51
89.99813716708712
  0
LINE
  5
29F
  8
0
  6
CONTINUOUS
 62
     7
 10
69.14441860015388
 20
140.6564095210521
 30
0.0
 11
69.94441860015344
 21
140.6564095210521
 31
0.0
  0
ARC
  5
2A0
  8
0
  6
CONTINUOUS
 62
     7
 10
69.1444186001539
 20
138.656409521057
 30
0.0
 40
1.999999999995061
 50
90.00000000000034
 51
127.6927958540331
  0
LINE
  5
2A1
  8
0
  6
CONTINUOUS
 62
     7
 10
64.64441859983681
 20
140.2390103564885
 30
0.0
 11
64.64441859983681
 21
143.7745442624212
 31
0.0
  0
LINE
  5
2A2
  8
0
  6
CONTINUOUS
 62
     7
 10
67.14441860015613
 20
138.6564095210526
 30
0.0
 11
67.14441860015613
 21
137.4848366457991
 31
0.0
  0
ARC
  5
2A3
  8
0
  6
CONTINUOUS
 62
     7
 10
70.64441860015417
 20
134.6564095210537
 30
0.0
 40
4.499999999998786
 50
141.0575587310255
 51
239.2621313278659
  0
LINE
  5
2A4
  8
0
  6
CONTINUOUS
 62
     7
 10
68.34441860015545
 20
130.788593599892
 30
0.0
 11
68.34441860015545
 21
129.1564095210552
 31
0.0
  0
LINE
  5
2A5
  8
0
  6
CONTINUOUS
 62
     7
 10
68.29485809889368
 20
129.0738086856188
 30
0.0
 11
68.34441860015545
 21
129.1564095210552
 31
0.0
  0
LINE
  5
2A6
  8
0
  6
CONTINUOUS
 62
     7
 10
64.64441860015752
 20
140.2390103564885
 30
0.0
 11
64.64441860015752
 21
129.0738086856188
 31
0.0
  0
ARC
  5
2A7
  8
0
  6
CONTINUOUS
 62
     7
 10
69.144418600155
 20
138.6564095210526
 30
0.0
 40
1.999999999999461
 50
127.6927958539958
 51
180.0
  0
LINE
  5
2A8
  8
0
  6
CONTINUOUS
 62
     7
 10
66.6487818676571
 20
126.3303483007564
 30
0.0
 11
68.29485809865936
 21
129.0738086857594
 31
0.0
  0
LINE
  5
2A9
  8
0
  6
CONTINUOUS
 62
     7
 10
64.64441859983681
 20
125.5382747796861
 30
0.0
 11
64.64441859983681
 21
129.0738086856188
 31
0.0
  0
POLYLINE
  5
2AA
  8
0
  6
CONTINUOUS
 62
     7
 66
     1
 10
0.0
 20
0.0
 30
0.0
  0
VERTEX
  5
572
  8
0
  6
CONTINUOUS
 62
     7
 10
73.4444186001524
 20
132.0856953067828
 30
0.0
  0
VERTEX
  5
573
  8
0
  6
CONTINUOUS
 62
     7
 10
73.41022045237239
 20
132.0504877184236
 30
0.0
  0
VERTEX
  5
574
  8
0
  6
CONTINUOUS
 62
     7
 10
73.37779105223854
 20
132.0136445155686
 30
0.0
  0
VERTEX
  5
575
  8
0
  6
CONTINUOUS
 62
     7
 10
73.34720852501623
 20
131.9752544567206
 30
0.0
  0
VERTEX
  5
576
  8
0
  6
CONTINUOUS
 62
     7
 10
73.3185465466923
 20
131.935410026894
 30
0.0
  0
VERTEX
  5
577
  8
0
  6
CONTINUOUS
 62
     7
 10
73.291874166483
 20
131.8942072148101
 30
0.0
  0
VERTEX
  5
578
  8
0
  6
CONTINUOUS
 62
     7
 10
73.26725564048849
 20
131.8517452816521
 30
0.0
  0
VERTEX
  5
579
  8
0
  6
CONTINUOUS
 62
     7
 10
73.2447502768942
 20
131.8081265219363
 30
0.0
  0
VERTEX
  5
57A
  8
0
  6
CONTINUOUS
 62
     7
 10
73.22441229309227
 20
131.7634560170754
 30
0.0
  0
VERTEX
  5
57B
  8
0
  6
CONTINUOUS
 62
     7
 10
73.20629068506709
 20
131.7178413822283
 30
0.0
  0
VERTEX
  5
57C
  8
0
  6
CONTINUOUS
 62
     7
 10
73.19042910935966
 20
131.6713925070457
 30
0.0
  0
VERTEX
  5
57D
  8
0
  6
CONTINUOUS
 62
     7
 10
73.17686577789516
 20
131.6242212909363
 30
0.0
  0
VERTEX
  5
57E
  8
0
  6
CONTINUOUS
 62
     7
 10
73.16563336592709
 20
131.5764413734915
 30
0.0
  0
VERTEX
  5
57F
  8
0
  6
CONTINUOUS
 62
     7
 10
73.15675893331971
 20
131.5281678607174
 30
0.0
  0
VERTEX
  5
580
  8
0
  6
CONTINUOUS
 62
     7
 10
73.15026385935852
 20
131.4795170477346
 30
0.0
  0
VERTEX
  5
581
  8
0
  6
CONTINUOUS
 62
     7
 10
73.14616379124558
 20
131.4306061386127
 30
0.0
  0
VERTEX
  5
582
  8
0
  6
CONTINUOUS
 62
     7
 10
73.14446860640409
 20
131.3815529640161
 30
0.0
  0
VERTEX
  5
583
  8
0
  6
CONTINUOUS
 62
     7
 10
73.14518238868278
 20
131.3324756973388
 30
0.0
  0
VERTEX
  5
584
  8
0
  6
CONTINUOUS
 62
     7
 10
73.14830341851768
 20
131.283492570015
 30
0.0
  0
VERTEX
  5
585
  8
0
  6
CONTINUOUS
 62
     7
 10
73.15382417707454
 20
131.2347215866887
 30
0.0
  0
VERTEX
  5
586
  8
0
  6
CONTINUOUS
 62
     7
 10
73.1617313643624
 20
131.1862802409307
 30
0.0
  0
VERTEX
  5
587
  8
0
  6
CONTINUOUS
 62
     7
 10
73.17200593127451
 20
131.1382852321858
 30
0.0
  0
VERTEX
  5
588
  8
0
  6
CONTINUOUS
 62
     7
 10
73.18462312547923
 20
131.090852184634
 30
0.0
  0
VERTEX
  5
589
  8
0
  6
CONTINUOUS
 62
     7
 10
73.19955255105062
 20
131.0440953686414
 30
0.0
  0
VERTEX
  5
58A
  8
0
  6
CONTINUOUS
 62
     7
 10
73.21675824169476
 20
130.9981274254733
 30
0.0
  0
VERTEX
  5
58B
  8
0
  6
CONTINUOUS
 62
     7
 10
73.23619874739589
 20
130.9530590959309
 30
0.0
  0
VERTEX
  5
58C
  8
0
  6
CONTINUOUS
 62
     7
 10
73.25782723427297
 20
130.9089989535677
 30
0.0
  0
VERTEX
  5
58D
  8
0
  6
CONTINUOUS
 62
     7
 10
73.28159159740669
 20
130.8660531431259
 30
0.0
  0
VERTEX
  5
58E
  8
0
  6
CONTINUOUS
 62
     7
 10
73.30743458636474
 20
130.8243251248245
 30
0.0
  0
VERTEX
  5
58F
  8
0
  6
CONTINUOUS
 62
     7
 10
73.33529394312313
 20
130.7839154251143
 30
0.0
  0
VERTEX
  5
590
  8
0
  6
CONTINUOUS
 62
     7
 10
73.36510255205127
 20
130.7449213945017
 30
0.0
  0
VERTEX
  5
591
  8
0
  6
CONTINUOUS
 62
     7
 10
73.39678860159931
 20
130.7074369730216
 30
0.0
  0
VERTEX
  5
592
  8
0
  6
CONTINUOUS
 62
     7
 10
73.43027575729852
 20
130.6715524639289
 30
0.0
  0
VERTEX
  5
593
  8
0
  6
CONTINUOUS
 62
     7
 10
73.46548334565766
 20
130.6373543161488
 30
0.0
  0
VERTEX
  5
594
  8
0
  6
CONTINUOUS
 62
     7
 10
73.50232654851261
 20
130.6049249160149
 30
0.0
  0
VERTEX
  5
595
  8
0
  6
CONTINUOUS
 62
     7
 10
73.54071660736058
 20
130.5743423887926
 30
0.0
  0
VERTEX
  5
596
  8
0
  6
CONTINUOUS
 62
     7
 10
73.58056103718724
 20
130.5456804104687
 30
0.0
  0
VERTEX
  5
597
  8
0
  6
CONTINUOUS
 62
     7
 10
73.62176384927116
 20
130.5190080302594
 30
0.0
  0
VERTEX
  5
598
  8
0
  6
CONTINUOUS
 62
     7
 10
73.6642257824291
 20
130.4943895042649
 30
0.0
  0
VERTEX
  5
599
  8
0
  6
CONTINUOUS
 62
     7
 10
73.70784454214487
 20
130.4718841406706
 30
0.0
  0
VERTEX
  5
59A
  8
0
  6
CONTINUOUS
 62
     7
 10
73.75251504700573
 20
130.4515461568687
 30
0.0
  0
VERTEX
  5
59B
  8
0
  6
CONTINUOUS
 62
     7
 10
73.79812968185284
 20
130.4334245488434
 30
0.0
  0
VERTEX
  5
59C
  8
0
  6
CONTINUOUS
 62
     7
 10
73.84457855703545
 20
130.417562973136
 30
0.0
  0
VERTEX
  5
59D
  8
0
  6
CONTINUOUS
 62
     7
 10
73.89174977314482
 20
130.4039996416715
 30
0.0
  0
VERTEX
  5
59E
  8
0
  6
CONTINUOUS
 62
     7
 10
73.93952969058961
 20
130.3927672297035
 30
0.0
  0
VERTEX
  5
59F
  8
0
  6
CONTINUOUS
 62
     7
 10
73.98780320336371
 20
130.3838927970961
 30
0.0
  0
VERTEX
  5
5A0
  8
0
  6
CONTINUOUS
 62
     7
 10
74.03645401634654
 20
130.3773977231349
 30
0.0
  0
VERTEX
  5
5A1
  8
0
  6
CONTINUOUS
 62
     7
 10
74.08536492546835
 20
130.3732976550219
 30
0.0
  0
VERTEX
  5
5A2
  8
0
  6
CONTINUOUS
 62
     7
 10
74.13441810006496
 20
130.3716024701804
 30
0.0
  0
VERTEX
  5
5A3
  8
0
  6
CONTINUOUS
 62
     7
 10
74.18349536674222
 20
130.3723162524591
 30
0.0
  0
VERTEX
  5
5A4
  8
0
  6
CONTINUOUS
 62
     7
 10
74.23247849406606
 20
130.3754372822941
 30
0.0
  0
VERTEX
  5
5A5
  8
0
  6
CONTINUOUS
 62
     7
 10
74.2812494773923
 20
130.3809580408509
 30
0.0
  0
VERTEX
  5
5A6
  8
0
  6
CONTINUOUS
 62
     7
 10
74.32969082315032
 20
130.3888652281387
 30
0.0
  0
VERTEX
  5
5A7
  8
0
  6
CONTINUOUS
 62
     7
 10
74.37768583189519
 20
130.3991397950509
 30
0.0
  0
VERTEX
  5
5A8
  8
0
  6
CONTINUOUS
 62
     7
 10
74.425118879447
 20
130.4117569892556
 30
0.0
  0
VERTEX
  5
5A9
  8
0
  6
CONTINUOUS
 62
     7
 10
74.47187569543956
 20
130.426686414827
 30
0.0
  0
VERTEX
  5
5AA
  8
0
  6
CONTINUOUS
 62
     7
 10
74.5178436386077
 20
130.4438921054711
 30
0.0
  0
VERTEX
  5
5AB
  8
0
  6
CONTINUOUS
 62
     7
 10
74.56291196815005
 20
130.4633326111723
 30
0.0
  0
VERTEX
  5
5AC
  8
0
  6
CONTINUOUS
 62
     7
 10
74.60697211051318
 20
130.4849610980494
 30
0.0
  0
VERTEX
  5
5AD
  8
0
  6
CONTINUOUS
 62
     7
 10
74.64991792095498
 20
130.5087254611831
 30
0.0
  0
VERTEX
  5
5AE
  8
0
  6
CONTINUOUS
 62
     7
 10
74.69164593925642
 20
130.5345684501411
 30
0.0
  0
VERTEX
  5
5AF
  8
0
  6
CONTINUOUS
 62
     7
 10
74.73205563896654
 20
130.5624278068996
 30
0.0
  0
VERTEX
  5
5B0
  8
0
  6
CONTINUOUS
 62
     7
 10
74.7710496695792
 20
130.5922364158277
 30
0.0
  0
VERTEX
  5
5B1
  8
0
  6
CONTINUOUS
 62
     7
 10
74.80853409105923
 20
130.6239224653757
 30
0.0
  0
VERTEX
  5
5B2
  8
0
  6
CONTINUOUS
 62
     7
 10
74.84441860015201
 20
130.6574096210749
 30
0.0
  0
SEQEND
  5
670
  8
0
  6
CONTINUOUS
 62
     7
  0
ARC
  5
2AB
  8
0
  6
CONTINUOUS
 62
     7
 10
69.94441860015456
 20
135.6564095210534
 30
0.0
 40
4.99999999999865
 50
314.4270040008128
 51
66.42254175387899
  0
ARC
  5
2AC
  8
0
  6
CONTINUOUS
 62
     7
 10
69.94441860015456
 20
135.6564095210534
 30
0.0
 40
6.999999999998111
 50
314.4270040008129
 51
40.89366686790436
  0
LINE
  5
2AD
  8
0
  6
CONTINUOUS
 62
     7
 10
67.1444185998368
 20
127.1564095210552
 30
0.0
 11
67.1444185998368
 21
125.9041832878085
 31
0.0
  0
LINE
  5
2AE
  8
0
  6
CONTINUOUS
 62
     7
 10
66.64878186767297
 20
145.9295350573303
 30
0.0
 11
64.64441859992377
 21
145.9542722168481
 31
0.0
  0
LINE
  5
2AF
  8
0
  6
CONTINUOUS
 62
     7
 10
67.89467303314332
 20
143.7544875033292
 30
0.0
 11
66.64878186776967
 21
144.4219291990426
 31
0.0
  0
LINE
  5
2B0
  8
0
  6
CONTINUOUS
 62
     7
 10
64.64441859992377
 20
145.9542722168481
 30
0.0
 11
64.64441860006359
 21
143.7745442624203
 31
0.0
  0
LINE
  5
2B1
  8
0
  6
CONTINUOUS
 62
     7
 10
64.64441859992377
 20
123.3585468252593
 30
0.0
 11
66.64878186767297
 21
123.3832839847771
 31
0.0
  0
LINE
  5
2B2
  8
0
  6
CONTINUOUS
 62
     7
 10
64.64441860006359
 20
125.5382747796871
 30
0.0
 11
64.64441859992377
 21
123.3585468252593
 31
0.0
  0
POLYLINE
  5
2B3
  8
0
  6
CONTINUOUS
 62
     7
 66
     1
 10
0.0
 20
0.0
 30
0.0
  0
VERTEX
  5
5B3
  8
0
  6
CONTINUOUS
 62
     7
 10
67.14441859990129
 20
123.739882401865
 30
0.0
  0
VERTEX
  5
5B4
  8
0
  6
CONTINUOUS
 62
     7
 10
67.14382300000113
 20
123.72262698513
 30
0.0
  0
VERTEX
  5
5B5
  8
0
  6
CONTINUOUS
 62
     7
 10
67.14203761925538
 20
123.7054053270046
 30
0.0
  0
VERTEX
  5
5B6
  8
0
  6
CONTINUOUS
 62
     7
 10
67.13906671115443
 20
123.6882584563604
 30
0.0
  0
VERTEX
  5
5B7
  8
0
  6
CONTINUOUS
 62
     7
 10
67.13491735358855
 20
123.6712272238952
 30
0.0
  0
VERTEX
  5
5B8
  8
0
  6
CONTINUOUS
 62
     7
 10
67.1295994319856
 20
123.6543522048105
 30
0.0
  0
VERTEX
  5
5B9
  8
0
  6
CONTINUOUS
 62
     7
 10
67.12312561575988
 20
123.6376736021451
 30
0.0
  0
VERTEX
  5
5BA
  8
0
  6
CONTINUOUS
 62
     7
 10
67.11551132812862
 20
123.6212311509954
 30
0.0
  0
VERTEX
  5
5BB
  8
0
  6
CONTINUOUS
 62
     7
 10
67.10677470936767
 20
123.6050640238506
 30
0.0
  0
VERTEX
  5
5BC
  8
0
  6
CONTINUOUS
 62
     7
 10
67.0969365735941
 20
123.589210737268
 30
0.0
  0
VERTEX
  5
5BD
  8
0
  6
CONTINUOUS
 62
     7
 10
67.0860203591787
 20
123.5737090601112
 30
0.0
  0
VERTEX
  5
5BE
  8
0
  6
CONTINUOUS
 62
     7
 10
67.07405207290641
 20
123.5585959235698
 30
0.0
  0
VERTEX
  5
5BF
  8
0
  6
CONTINUOUS
 62
     7
 10
67.06106022801768
 20
123.5439073331743
 30
0.0
  0
VERTEX
  5
5C0
  8
0
  6
CONTINUOUS
 62
     7
 10
67.04707577627865
 20
123.5296782830168
 30
0.0
  0
VERTEX
  5
5C1
  8
0
  6
CONTINUOUS
 62
     7
 10
67.03213203424163
 20
123.5159426723806
 30
0.0
  0
VERTEX
  5
5C2
  8
0
  6
CONTINUOUS
 62
     7
 10
67.01626460387175
 20
123.5027332249791
 30
0.0
  0
VERTEX
  5
5C3
  8
0
  6
CONTINUOUS
 62
     7
 10
66.99951128772885
 20
123.4900814109946
 30
0.0
  0
VERTEX
  5
5C4
  8
0
  6
CONTINUOUS
 62
     7
 10
66.98191199890668
 20
123.4780173721037
 30
0.0
  0
VERTEX
  5
5C5
  8
0
  6
CONTINUOUS
 62
     7
 10
66.963508665944
 20
123.4665698496679
 30
0.0
  0
VERTEX
  5
5C6
  8
0
  6
CONTINUOUS
 62
     7
 10
66.94434513293402
 20
123.4557661162602
 30
0.0
  0
VERTEX
  5
5C7
  8
0
  6
CONTINUOUS
 62
     7
 10
66.92446705507014
 20
123.4456319106908
 30
0.0
  0
VERTEX
  5
5C8
  8
0
  6
CONTINUOUS
 62
     7
 10
66.90392178987727
 20
123.4361913766869
 30
0.0
  0
VERTEX
  5
5C9
  8
0
  6
CONTINUOUS
 62
     7
 10
66.8827582843871
 20
123.4274670053732
 30
0.0
  0
VERTEX
  5
5CA
  8
0
  6
CONTINUOUS
 62
     7
 10
66.86102695852671
 20
123.4194795816883
 30
0.0
  0
VERTEX
  5
5CB
  8
0
  6
CONTINUOUS
 62
     7
 10
66.83877958499826
 20
123.4122481348673
 30
0.0
  0
VERTEX
  5
5CC
  8
0
  6
CONTINUOUS
 62
     7
 10
66.81606916593569
 20
123.4057898931062
 30
0.0
  0
VERTEX
  5
5CD
  8
0
  6
CONTINUOUS
 62
     7
 10
66.79294980663236
 20
123.4001202425177
 30
0.0
  0
VERTEX
  5
5CE
  8
0
  6
CONTINUOUS
 62
     7
 10
66.76947658664078
 20
123.3952526904751
 30
0.0
  0
VERTEX
  5
5CF
  8
0
  6
CONTINUOUS
 62
     7
 10
66.74570542855099
 20
123.3911988334324
 30
0.0
  0
VERTEX
  5
5D0
  8
0
  6
CONTINUOUS
 62
     7
 10
66.7216929647606
 20
123.3879683292971
 30
0.0
  0
VERTEX
  5
5D1
  8
0
  6
CONTINUOUS
 62
     7
 10
66.6974964025539
 20
123.3855688744209
 30
0.0
  0
VERTEX
  5
5D2
  8
0
  6
CONTINUOUS
 62
     7
 10
66.6731733878111
 20
123.3840061852642
 30
0.0
  0
VERTEX
  5
5D3
  8
0
  6
CONTINUOUS
 62
     7
 10
66.64878186767297
 20
123.3832839847771
 30
0.0
  0
SEQEND
  5
671
  8
0
  6
CONTINUOUS
 62
     7
  0
LINE
  5
2B4
  8
0
  6
CONTINUOUS
 62
     7
 10
67.14441860004013
 20
125.9041832878094
 30
0.0
 11
67.14441859990129
 21
123.739882401865
 31
0.0
  0
POLYLINE
  5
2B5
  8
0
  6
CONTINUOUS
 62
     7
 66
     1
 10
0.0
 20
0.0
 30
0.0
  0
VERTEX
  5
5D4
  8
0
  6
CONTINUOUS
 62
     7
 10
66.64878186767297
 20
145.9295350573303
 30
0.0
  0
VERTEX
  5
5D5
  8
0
  6
CONTINUOUS
 62
     7
 10
66.6731733878111
 20
145.9288128568431
 30
0.0
  0
VERTEX
  5
5D6
  8
0
  6
CONTINUOUS
 62
     7
 10
66.6974964025539
 20
145.9272501676865
 30
0.0
  0
VERTEX
  5
5D7
  8
0
  6
CONTINUOUS
 62
     7
 10
66.7216929647606
 20
145.9248507128103
 30
0.0
  0
VERTEX
  5
5D8
  8
0
  6
CONTINUOUS
 62
     7
 10
66.74570542855099
 20
145.921620208675
 30
0.0
  0
VERTEX
  5
5D9
  8
0
  6
CONTINUOUS
 62
     7
 10
66.76947658664078
 20
145.9175663516323
 30
0.0
  0
VERTEX
  5
5DA
  8
0
  6
CONTINUOUS
 62
     7
 10
66.79294980663236
 20
145.9126987995897
 30
0.0
  0
VERTEX
  5
5DB
  8
0
  6
CONTINUOUS
 62
     7
 10
66.81606916593569
 20
145.9070291490012
 30
0.0
  0
VERTEX
  5
5DC
  8
0
  6
CONTINUOUS
 62
     7
 10
66.83877958499826
 20
145.9005709072401
 30
0.0
  0
VERTEX
  5
5DD
  8
0
  6
CONTINUOUS
 62
     7
 10
66.86102695852671
 20
145.8933394604191
 30
0.0
  0
VERTEX
  5
5DE
  8
0
  6
CONTINUOUS
 62
     7
 10
66.8827582843871
 20
145.8853520367342
 30
0.0
  0
VERTEX
  5
5DF
  8
0
  6
CONTINUOUS
 62
     7
 10
66.90392178987727
 20
145.8766276654204
 30
0.0
  0
VERTEX
  5
5E0
  8
0
  6
CONTINUOUS
 62
     7
 10
66.92446705507015
 20
145.8671871314166
 30
0.0
  0
VERTEX
  5
5E1
  8
0
  6
CONTINUOUS
 62
     7
 10
66.94434513293402
 20
145.8570529258472
 30
0.0
  0
VERTEX
  5
5E2
  8
0
  6
CONTINUOUS
 62
     7
 10
66.963508665944
 20
145.8462491924395
 30
0.0
  0
VERTEX
  5
5E3
  8
0
  6
CONTINUOUS
 62
     7
 10
66.98191199890668
 20
145.8348016700037
 30
0.0
  0
VERTEX
  5
5E4
  8
0
  6
CONTINUOUS
 62
     7
 10
66.99951128772885
 20
145.8227376311128
 30
0.0
  0
VERTEX
  5
5E5
  8
0
  6
CONTINUOUS
 62
     7
 10
67.01626460387175
 20
145.8100858171283
 30
0.0
  0
VERTEX
  5
5E6
  8
0
  6
CONTINUOUS
 62
     7
 10
67.03213203424163
 20
145.7968763697268
 30
0.0
  0
VERTEX
  5
5E7
  8
0
  6
CONTINUOUS
 62
     7
 10
67.04707577627865
 20
145.7831407590906
 30
0.0
  0
VERTEX
  5
5E8
  8
0
  6
CONTINUOUS
 62
     7
 10
67.06106022801768
 20
145.768911708933
 30
0.0
  0
VERTEX
  5
5E9
  8
0
  6
CONTINUOUS
 62
     7
 10
67.07405207290641
 20
145.7542231185376
 30
0.0
  0
VERTEX
  5
5EA
  8
0
  6
CONTINUOUS
 62
     7
 10
67.0860203591787
 20
145.7391099819962
 30
0.0
  0
VERTEX
  5
5EB
  8
0
  6
CONTINUOUS
 62
     7
 10
67.09693657359409
 20
145.7236083048394
 30
0.0
  0
VERTEX
  5
5EC
  8
0
  6
CONTINUOUS
 62
     7
 10
67.10677470936767
 20
145.7077550182568
 30
0.0
  0
VERTEX
  5
5ED
  8
0
  6
CONTINUOUS
 62
     7
 10
67.11551132812862
 20
145.6915878911119
 30
0.0
  0
VERTEX
  5
5EE
  8
0
  6
CONTINUOUS
 62
     7
 10
67.12312561575988
 20
145.6751454399623
 30
0.0
  0
VERTEX
  5
5EF
  8
0
  6
CONTINUOUS
 62
     7
 10
67.1295994319856
 20
145.6584668372969
 30
0.0
  0
VERTEX
  5
5F0
  8
0
  6
CONTINUOUS
 62
     7
 10
67.13491735358855
 20
145.6415918182122
 30
0.0
  0
VERTEX
  5
5F1
  8
0
  6
CONTINUOUS
 62
     7
 10
67.13906671115441
 20
145.624560585747
 30
0.0
  0
VERTEX
  5
5F2
  8
0
  6
CONTINUOUS
 62
     7
 10
67.14203761925538
 20
145.6074137151028
 30
0.0
  0
VERTEX
  5
5F3
  8
0
  6
CONTINUOUS
 62
     7
 10
67.14382300000113
 20
145.5901920569774
 30
0.0
  0
VERTEX
  5
5F4
  8
0
  6
CONTINUOUS
 62
     7
 10
67.14441859990129
 20
145.5729366402423
 30
0.0
  0
SEQEND
  5
672
  8
0
  6
CONTINUOUS
 62
     7
  0
LINE
  5
2B6
  8
0
  6
CONTINUOUS
 62
     7
 10
67.14441859990129
 20
145.5729366402424
 30
0.0
 11
67.14441859999215
 21
144.1564095210511
 31
0.0
  0
LINE
  5
2B7
  8
0
  6
CONTINUOUS
 62
     7
 10
67.14441859965068
 20
120.5142738973265
 30
0.0
 11
64.64441859965265
 21
120.5142738973265
 31
0.0
  0
LINE
  5
2B8
  8
0
  6
CONTINUOUS
 62
     7
 10
67.14441859985757
 20
123.7398824018713
 30
0.0
 11
67.14441859965068
 21
120.5142738973265
 31
0.0
  0
LINE
  5
2B9
  8
0
  6
CONTINUOUS
 62
     7
 10
67.14441859965068
 20
148.7985451447808
 30
0.0
 11
64.64441859965265
 21
148.7985451447808
 31
0.0
  0
LINE
  5
2BA
  8
0
  6
CONTINUOUS
 62
     7
 10
67.14441859965068
 20
148.7985451447808
 30
0.0
 11
67.14441859985757
 21
145.5729366402361
 31
0.0
  0
POLYLINE
  5
2BB
  8
0
  6
CONTINUOUS
 62
     7
 66
     1
 10
0.0
 20
0.0
 30
0.0
  0
VERTEX
  5
5F5
  8
0
  6
CONTINUOUS
 62
     7
 10
66.6487818674446
 20
119.8230129193275
 30
0.0
  0
VERTEX
  5
5F6
  8
0
  6
CONTINUOUS
 62
     7
 10
66.67317338758274
 20
119.8234340880934
 30
0.0
  0
VERTEX
  5
5F7
  8
0
  6
CONTINUOUS
 62
     7
 10
66.69749640232548
 20
119.8246965909988
 30
0.0
  0
VERTEX
  5
5F8
  8
0
  6
CONTINUOUS
 62
     7
 10
66.72169296453217
 20
119.8267974202572
 30
0.0
  0
VERTEX
  5
5F9
  8
0
  6
CONTINUOUS
 62
     7
 10
66.74570542832255
 20
119.8297315708538
 30
0.0
  0
VERTEX
  5
5FA
  8
0
  6
CONTINUOUS
 62
     7
 10
66.76947658641232
 20
119.8334920524694
 30
0.0
  0
VERTEX
  5
5FB
  8
0
  6
CONTINUOUS
 62
     7
 10
66.79294980640388
 20
119.8380699061342
 30
0.0
  0
VERTEX
  5
5FC
  8
0
  6
CONTINUOUS
 62
     7
 10
66.81606916570719
 20
119.8434542255713
 30
0.0
  0
VERTEX
  5
5FD
  8
0
  6
CONTINUOUS
 62
     7
 10
66.83877958476974
 20
119.8496321831802
 30
0.0
  0
VERTEX
  5
5FE
  8
0
  6
CONTINUOUS
 62
     7
 10
66.86102695829817
 20
119.8565890605972
 30
0.0
  0
VERTEX
  5
5FF
  8
0
  6
CONTINUOUS
 62
     7
 10
66.88275828415854
 20
119.8643082837603
 30
0.0
  0
VERTEX
  5
600
  8
0
  6
CONTINUOUS
 62
     7
 10
66.9039217896487
 20
119.8727714623952
 30
0.0
  0
VERTEX
  5
601
  8
0
  6
CONTINUOUS
 62
     7
 10
66.92446705484156
 20
119.8819584338285
 30
0.0
  0
VERTEX
  5
602
  8
0
  6
CONTINUOUS
 62
     7
 10
66.94434513270542
 20
119.8918473110231
 30
0.0
  0
VERTEX
  5
603
  8
0
  6
CONTINUOUS
 62
     7
 10
66.96350866571541
 20
119.9024145347219
 30
0.0
  0
VERTEX
  5
604
  8
0
  6
CONTINUOUS
 62
     7
 10
66.98191199867806
 20
119.9136349295753
 30
0.0
  0
VERTEX
  5
605
  8
0
  6
CONTINUOUS
 62
     7
 10
66.9995112875002
 20
119.925481764119
 30
0.0
  0
VERTEX
  5
606
  8
0
  6
CONTINUOUS
 62
     7
 10
67.01626460364308
 20
119.9379268144592
 30
0.0
  0
VERTEX
  5
607
  8
0
  6
CONTINUOUS
 62
     7
 10
67.03213203401296
 20
119.9509404315127
 30
0.0
  0
VERTEX
  5
608
  8
0
  6
CONTINUOUS
 62
     7
 10
67.04707577604997
 20
119.9644916116434
 30
0.0
  0
VERTEX
  5
609
  8
0
  6
CONTINUOUS
 62
     7
 10
67.06106022778899
 20
119.9785480705252
 30
0.0
  0
VERTEX
  5
60A
  8
0
  6
CONTINUOUS
 62
     7
 10
67.0740520726777
 20
119.993076320056
 30
0.0
  0
VERTEX
  5
60B
  8
0
  6
CONTINUOUS
 62
     7
 10
67.08602035895001
 20
120.0080417481399
 30
0.0
  0
VERTEX
  5
60C
  8
0
  6
CONTINUOUS
 62
     7
 10
67.09693657336538
 20
120.0234087011467
 30
0.0
  0
VERTEX
  5
60D
  8
0
  6
CONTINUOUS
 62
     7
 10
67.10677470913893
 20
120.0391405688539
 30
0.0
  0
VERTEX
  5
60E
  8
0
  6
CONTINUOUS
 62
     7
 10
67.1155113278999
 20
120.055199871666
 30
0.0
  0
VERTEX
  5
60F
  8
0
  6
CONTINUOUS
 62
     7
 10
67.12312561553114
 20
120.0715483499062
 30
0.0
  0
VERTEX
  5
610
  8
0
  6
CONTINUOUS
 62
     7
 10
67.12959943175684
 20
120.0881470549666
 30
0.0
  0
VERTEX
  5
611
  8
0
  6
CONTINUOUS
 62
     7
 10
67.1349173533598
 20
120.1049564420987
 30
0.0
  0
VERTEX
  5
612
  8
0
  6
CONTINUOUS
 62
     7
 10
67.13906671092566
 20
120.1219364646252
 30
0.0
  0
VERTEX
  5
613
  8
0
  6
CONTINUOUS
 62
     7
 10
67.14203761902662
 20
120.1390466693472
 30
0.0
  0
VERTEX
  5
614
  8
0
  6
CONTINUOUS
 62
     7
 10
67.14382299977237
 20
120.1562462929198
 30
0.0
  0
VERTEX
  5
615
  8
0
  6
CONTINUOUS
 62
     7
 10
67.14441859967253
 20
120.1734943589664
 30
0.0
  0
SEQEND
  5
673
  8
0
  6
CONTINUOUS
 62
     7
  0
LINE
  5
2BC
  8
0
  6
CONTINUOUS
 62
     7
 10
66.6487818674446
 20
119.8230129193275
 30
0.0
 11
64.64441859969699
 21
119.8230129193275
 31
0.0
  0
LINE
  5
2BD
  8
0
  6
CONTINUOUS
 62
     7
 10
67.14441859965068
 20
120.5142738973265
 30
0.0
 11
67.14441859967253
 21
120.1734943589664
 31
0.0
  0
LINE
  5
2BE
  8
0
  6
CONTINUOUS
 62
     7
 10
64.64441859969699
 20
119.8230129193275
 30
0.0
 11
64.64441859955717
 21
117.6432849648998
 31
0.0
  0
LINE
  5
2BF
  8
0
  6
CONTINUOUS
 62
     7
 10
64.64441859969699
 20
149.4898061227798
 30
0.0
 11
66.6487818674446
 21
149.4898061227798
 31
0.0
  0
POLYLINE
  5
2C0
  8
0
  6
CONTINUOUS
 62
     7
 66
     1
 10
0.0
 20
0.0
 30
0.0
  0
VERTEX
  5
616
  8
0
  6
CONTINUOUS
 62
     7
 10
67.14441859967253
 20
149.139324683141
 30
0.0
  0
VERTEX
  5
617
  8
0
  6
CONTINUOUS
 62
     7
 10
67.14382299977237
 20
149.1565727491876
 30
0.0
  0
VERTEX
  5
618
  8
0
  6
CONTINUOUS
 62
     7
 10
67.14203761902661
 20
149.1737723727601
 30
0.0
  0
VERTEX
  5
619
  8
0
  6
CONTINUOUS
 62
     7
 10
67.13906671092566
 20
149.1908825774821
 30
0.0
  0
VERTEX
  5
61A
  8
0
  6
CONTINUOUS
 62
     7
 10
67.13491735335978
 20
149.2078626000087
 30
0.0
  0
VERTEX
  5
61B
  8
0
  6
CONTINUOUS
 62
     7
 10
67.12959943175683
 20
149.2246719871408
 30
0.0
  0
VERTEX
  5
61C
  8
0
  6
CONTINUOUS
 62
     7
 10
67.12312561553114
 20
149.2412706922011
 30
0.0
  0
VERTEX
  5
61D
  8
0
  6
CONTINUOUS
 62
     7
 10
67.11551132789988
 20
149.2576191704414
 30
0.0
  0
VERTEX
  5
61E
  8
0
  6
CONTINUOUS
 62
     7
 10
67.10677470913893
 20
149.2736784732534
 30
0.0
  0
VERTEX
  5
61F
  8
0
  6
CONTINUOUS
 62
     7
 10
67.09693657336538
 20
149.2894103409606
 30
0.0
  0
VERTEX
  5
620
  8
0
  6
CONTINUOUS
 62
     7
 10
67.08602035895
 20
149.3047772939675
 30
0.0
  0
VERTEX
  5
621
  8
0
  6
CONTINUOUS
 62
     7
 10
67.07405207267769
 20
149.3197427220513
 30
0.0
  0
VERTEX
  5
622
  8
0
  6
CONTINUOUS
 62
     7
 10
67.06106022778899
 20
149.3342709715821
 30
0.0
  0
VERTEX
  5
623
  8
0
  6
CONTINUOUS
 62
     7
 10
67.04707577604995
 20
149.3483274304639
 30
0.0
  0
VERTEX
  5
624
  8
0
  6
CONTINUOUS
 62
     7
 10
67.03213203401295
 20
149.3618786105947
 30
0.0
  0
VERTEX
  5
625
  8
0
  6
CONTINUOUS
 62
     7
 10
67.01626460364308
 20
149.3748922276482
 30
0.0
  0
VERTEX
  5
626
  8
0
  6
CONTINUOUS
 62
     7
 10
66.9995112875002
 20
149.3873372779883
 30
0.0
  0
VERTEX
  5
627
  8
0
  6
CONTINUOUS
 62
     7
 10
66.98191199867806
 20
149.3991841125321
 30
0.0
  0
VERTEX
  5
628
  8
0
  6
CONTINUOUS
 62
     7
 10
66.96350866571541
 20
149.4104045073854
 30
0.0
  0
VERTEX
  5
629
  8
0
  6
CONTINUOUS
 62
     7
 10
66.94434513270541
 20
149.4209717310842
 30
0.0
  0
VERTEX
  5
62A
  8
0
  6
CONTINUOUS
 62
     7
 10
66.92446705484156
 20
149.4308606082788
 30
0.0
  0
VERTEX
  5
62B
  8
0
  6
CONTINUOUS
 62
     7
 10
66.9039217896487
 20
149.4400475797121
 30
0.0
  0
VERTEX
  5
62C
  8
0
  6
CONTINUOUS
 62
     7
 10
66.88275828415854
 20
149.4485107583471
 30
0.0
  0
VERTEX
  5
62D
  8
0
  6
CONTINUOUS
 62
     7
 10
66.86102695829817
 20
149.4562299815101
 30
0.0
  0
VERTEX
  5
62E
  8
0
  6
CONTINUOUS
 62
     7
 10
66.83877958476974
 20
149.4631868589271
 30
0.0
  0
VERTEX
  5
62F
  8
0
  6
CONTINUOUS
 62
     7
 10
66.81606916570719
 20
149.4693648165361
 30
0.0
  0
VERTEX
  5
630
  8
0
  6
CONTINUOUS
 62
     7
 10
66.79294980640388
 20
149.4747491359732
 30
0.0
  0
VERTEX
  5
631
  8
0
  6
CONTINUOUS
 62
     7
 10
66.76947658641232
 20
149.4793269896379
 30
0.0
  0
VERTEX
  5
632
  8
0
  6
CONTINUOUS
 62
     7
 10
66.74570542832254
 20
149.4830874712536
 30
0.0
  0
VERTEX
  5
633
  8
0
  6
CONTINUOUS
 62
     7
 10
66.72169296453217
 20
149.4860216218502
 30
0.0
  0
VERTEX
  5
634
  8
0
  6
CONTINUOUS
 62
     7
 10
66.69749640232548
 20
149.4881224511086
 30
0.0
  0
VERTEX
  5
635
  8
0
  6
CONTINUOUS
 62
     7
 10
66.67317338758272
 20
149.4893849540139
 30
0.0
  0
VERTEX
  5
636
  8
0
  6
CONTINUOUS
 62
     7
 10
66.6487818674446
 20
149.4898061227798
 30
0.0
  0
SEQEND
  5
674
  8
0
  6
CONTINUOUS
 62
     7
  0
LINE
  5
2C1
  8
0
  6
CONTINUOUS
 62
     7
 10
67.14441859967253
 20
149.139324683141
 30
0.0
 11
67.14441859965068
 21
148.7985451447808
 31
0.0
  0
LINE
  5
2C2
  8
0
  6
CONTINUOUS
 62
     7
 10
64.64441859955717
 20
151.6695340772076
 30
0.0
 11
64.64441859969699
 21
149.4898061227798
 31
0.0
  0
LINE
  5
2C3
  8
0
  6
CONTINUOUS
 62
     7
 10
67.14441859967253
 20
120.1734943589664
 30
0.0
 11
67.14441859953371
 21
118.0091934730221
 31
0.0
  0
LINE
  5
2C4
  8
0
  6
CONTINUOUS
 62
     7
 10
67.14441859953371
 20
151.3036255690853
 30
0.0
 11
67.14441859967253
 21
149.139324683141
 31
0.0
  0
LINE
  5
2C5
  8
0
  6
CONTINUOUS
 62
     7
 10
66.64878186707968
 20
116.1963106840752
 30
0.0
 11
64.6444185993304
 21
116.1788188708329
 31
0.0
  0
LINE
  5
2C6
  8
0
  6
CONTINUOUS
 62
     7
 10
64.6444185993304
 20
116.1788188708316
 30
0.0
 11
64.6444185993304
 21
117.6432849648988
 31
0.0
  0
LINE
  5
2C7
  8
0
  6
CONTINUOUS
 62
     7
 10
64.64441859933038
 20
153.1340001712744
 30
0.0
 11
66.64878186707958
 21
153.1165083580321
 31
0.0
  0
LINE
  5
2C8
  8
0
  6
CONTINUOUS
 62
     7
 10
64.64441859933038
 20
151.6695340772085
 30
0.0
 11
64.64441859933038
 21
153.1340001712758
 31
0.0
  0
ARC
  5
2C9
  8
0
  6
CONTINUOUS
 62
     7
 10
66.6444185993304
 20
116.6962916456072
 30
0.0
 40
0.5000000000000004
 50
270.5000000000106
 51
0.0
  0
LINE
  5
2CA
  8
0
  6
CONTINUOUS
 62
     7
 10
67.14441859933041
 20
118.0091934730212
 30
0.0
 11
67.14441859933041
 21
116.696291645606
 31
0.0
  0
ARC
  5
2CB
  8
0
  6
CONTINUOUS
 62
     7
 10
66.6444185993304
 20
152.6165273965002
 30
0.0
 40
0.5000000000000016
 50
0.0
 51
89.5
  0
LINE
  5
2CC
  8
0
  6
CONTINUOUS
 62
     7
 10
67.14441859933041
 20
152.6165273965014
 30
0.0
 11
67.14441859933041
 21
151.3036255690861
 31
0.0
  0
LINE
  5
2CD
  8
0
  6
CONTINUOUS
 62
     7
 10
74.27454561845576
 20
133.1564095210541
 30
0.0
 11
73.58172529537688
 21
133.556409521054
 31
0.0
  0
ARC
  5
2CE
  8
0
  6
CONTINUOUS
 62
     7
 10
69.94441859948225
 20
135.6564095210534
 30
0.0
 40
4.199999999999997
 50
330.0000000000067
 51
49.99999999999267
  0
LINE
  5
2CF
  8
0
  6
CONTINUOUS
 62
     7
 10
72.64412656016569
 20
138.8737961821523
 30
0.0
 11
73.15835664796624
 21
139.4866317366473
 31
0.0
  0
LINE
  5
2D0
  8
0
  6
CONTINUOUS
 62
     7
 10
67.14441852817107
 20
136.2925028623989
 30
0.0
 11
66.9351012853382
 21
135.7360009600221
 31
0.0
  0
LINE
  5
2D1
  8
0
  6
CONTINUOUS
 62
     7
 10
67.14441856468062
 20
133.0200410874802
 30
0.0
 11
67.14441859932246
 21
131.8279823963082
 31
0.0
  0
LINE
  5
2D2
  8
0
  6
CONTINUOUS
 62
     7
 10
67.14441859930042
 20
137.4848366457994
 30
0.0
 11
67.1444185992831
 21
136.2925028559442
 31
0.0
  0
ARC
  5
2D3
  8
0
  6
CONTINUOUS
 62
     7
 10
70.64868823142167
 20
134.6561587608992
 30
0.0
 40
3.867400571589132
 50
163.7865491696945
 51
205.027523691072
  0
LINE
  5
2D4
  8
0
  6
CONTINUOUS
 62
     7
 10
67.14441857832536
 20
136.291815956794
 30
0.0
 11
67.00466215781164
 21
135.9516354803521
 31
0.0
  0
LINE
  5
2D5
  8
0
  6
CONTINUOUS
 62
     7
 10
67.03440334736364
 20
133.2801092719413
 30
0.0
 11
67.14441856654149
 21
133.0208899723525
 31
0.0
  0
LINE
  5
2D6
  8
0
  6
CONTINUOUS
 62
     7
 10
68.34441859834683
 20
140.1564095210522
 30
0.0
 11
68.19000991585072
 21
140.4137573252042
 31
0.0
  0
LINE
  5
2D7
  8
0
  6
CONTINUOUS
 62
     7
 10
68.34441859834683
 20
140.1564095210522
 30
0.0
 11
68.34441859845154
 21
138.5242254422154
 31
0.0
  0
ARC
  5
2D8
  8
0
  6
CONTINUOUS
 62
     7
 10
70.64441859852577
 20
134.6564095210537
 30
0.0
 40
4.500000000052919
 50
120.7378686729372
 51
141.0575587303496
  0
LINE
  5
2D9
  8
0
  6
CONTINUOUS
 62
     7
 10
71.64441859846235
 20
126.8659750725098
 30
0.0
 11
71.64441859846235
 21
128.9542823428517
 31
0.0
  0
ARC
  5
2DA
  8
0
  6
CONTINUOUS
 62
     7
 10
69.94441859850204
 20
133.6564095210539
 30
0.0
 40
6.999999999997674
 50
280.2047737192451
 51
284.0552328199223
  0
ARC
  5
2DB
  8
0
  6
CONTINUOUS
 62
     7
 10
72.95625317929374
 20
116.9253350648998
 30
0.0
 40
9.99999999999668
 50
100.204773719245
 51
118.1785901094216
  0
ARC
  5
2DC
  8
0
  6
CONTINUOUS
 62
     7
 10
69.14441859852073
 20
130.6564095210547
 30
0.0
 40
1.999999999999336
 50
241.4936755457085
 51
270.0
  0
LINE
  5
2DD
  8
0
  6
CONTINUOUS
 62
     7
 10
69.94441859850204
 20
128.6564095210553
 30
0.0
 11
69.14441859852072
 21
128.6564095210553
 31
0.0
  0
ARC
  5
2DE
  8
0
  6
CONTINUOUS
 62
     7
 10
69.94441859850204
 20
133.6564095210539
 30
0.0
 40
4.999999999998339
 50
270.0
 51
289.8768740696656
  0
LINE
  5
2DF
  8
0
  6
CONTINUOUS
 62
     7
 10
67.14441859856743
 20
125.1564095210562
 30
0.0
 11
68.2340390542498
 21
125.7401347651853
 31
0.0
  0
LINE
  5
2E0
  8
0
  6
CONTINUOUS
 62
     7
 10
73.15835664689504
 20
129.8261873054601
 30
0.0
 11
72.64412655914582
 21
130.4390228599551
 31
0.0
  0
ARC
  5
2E1
  8
0
  6
CONTINUOUS
 62
     7
 10
69.94441859846236
 20
133.6564095210539
 30
0.0
 40
4.199999999999997
 50
310.0000000000074
 51
321.0349874764314
  0
ARC
  5
2E2
  8
0
  6
CONTINUOUS
 62
     7
 10
69.94441859846236
 20
133.6564095210539
 30
0.0
 40
4.199999999999998
 50
348.4630409187039
 51
354.355251340771
  0
ARC
  5
2E3
  8
0
  6
CONTINUOUS
 62
     7
 10
69.94441859846236
 20
133.6564095210539
 30
0.0
 40
4.199999999999985
 50
13.77414696881049
 51
29.99999999999329
  0
LINE
  5
2E4
  8
0
  6
CONTINUOUS
 62
     7
 10
73.58172529435701
 20
135.7564095210534
 30
0.0
 11
74.1240523083656
 21
136.06952216858
 31
0.0
  0
LINE
  5
2E5
  8
0
  6
CONTINUOUS
 62
     7
 10
73.94306116199479
 20
136.9412665781788
 30
0.0
 11
73.7139960435152
 21
136.9412665781788
 31
0.0
  0
ARC
  5
2E6
  8
0
  6
CONTINUOUS
 62
     7
 10
69.94441859846235
 20
133.6564095210539
 30
0.0
 40
6.999999999999997
 50
284.0552328202299
 51
8.213210653267254
  0
ARC
  5
2E7
  8
0
  6
CONTINUOUS
 62
     7
 10
69.94441859846235
 20
133.6564095210539
 30
0.0
 40
5.000000000000002
 50
289.8768740700835
 51
310.0000000000074
  0
ARC
  5
2E8
  8
0
  6
CONTINUOUS
 62
     7
 10
69.94441859846235
 20
133.6564095210539
 30
0.0
 40
4.999999999999999
 50
34.6108770692332
 51
41.0693023833344
  0
POLYLINE
  5
2E9
  8
0
  6
CONTINUOUS
 62
     7
 66
     1
 10
0.0
 20
0.0
 30
0.0
  0
VERTEX
  5
637
  8
0
  6
CONTINUOUS
 62
     7
 10
73.21004505510109
 20
138.2975615144729
 30
0.0
  0
VERTEX
  5
638
  8
0
  6
CONTINUOUS
 62
     7
 10
73.19392592988521
 20
138.2520135606914
 30
0.0
  0
VERTEX
  5
639
  8
0
  6
CONTINUOUS
 62
     7
 10
73.18002567495247
 20
138.205740186012
 30
0.0
  0
VERTEX
  5
63A
  8
0
  6
CONTINUOUS
 62
     7
 10
73.16837673964586
 20
138.1588494129575
 30
0.0
  0
VERTEX
  5
63B
  8
0
  6
CONTINUOUS
 62
     7
 10
73.15900631773259
 20
138.1114507053316
 30
0.0
  0
VERTEX
  5
63C
  8
0
  6
CONTINUOUS
 62
     7
 10
73.15193628392186
 20
138.0636547126819
 30
0.0
  0
VERTEX
  5
63D
  8
0
  6
CONTINUOUS
 62
     7
 10
73.1471831427996
 20
138.015573011995
 30
0.0
  0
VERTEX
  5
63E
  8
0
  6
CONTINUOUS
 62
     7
 10
73.14475799029948
 20
137.9673178472266
 30
0.0
  0
VERTEX
  5
63F
  8
0
  6
CONTINUOUS
 62
     7
 10
73.14466648780005
 20
137.9190018672739
 30
0.0
  0
VERTEX
  5
640
  8
0
  6
CONTINUOUS
 62
     7
 10
73.14690884890862
 20
137.8707378630039
 30
0.0
  0
VERTEX
  5
641
  8
0
  6
CONTINUOUS
 62
     7
 10
73.15147983896257
 20
137.8226385039494
 30
0.0
  0
VERTEX
  5
642
  8
0
  6
CONTINUOUS
 62
     7
 10
73.15836878724943
 20
137.7748160752884
 30
0.0
  0
VERTEX
  5
643
  8
0
  6
CONTINUOUS
 62
     7
 10
73.16755961191696
 20
137.7273822157207
 30
0.0
  0
VERTEX
  5
644
  8
0
  6
CONTINUOUS
 62
     7
 10
73.17903085751534
 20
137.6804476568543
 30
0.0
  0
VERTEX
  5
645
  8
0
  6
CONTINUOUS
 62
     7
 10
73.19275574508374
 20
137.6341219647082
 30
0.0
  0
VERTEX
  5
646
  8
0
  6
CONTINUOUS
 62
     7
 10
73.20870223466417
 20
137.5885132839374
 30
0.0
  0
VERTEX
  5
647
  8
0
  6
CONTINUOUS
 62
     7
 10
73.22683310009695
 20
137.5437280853752
 30
0.0
  0
VERTEX
  5
648
  8
0
  6
CONTINUOUS
 62
     7
 10
73.24710601592304
 20
137.499870917483
 30
0.0
  0
VERTEX
  5
649
  8
0
  6
CONTINUOUS
 62
     7
 10
73.26947365619033
 20
137.4570441622885
 30
0.0
  0
VERTEX
  5
64A
  8
0
  6
CONTINUOUS
 62
     7
 10
73.29388380493346
 20
137.4153477963801
 30
0.0
  0
VERTEX
  5
64B
  8
0
  6
CONTINUOUS
 62
     7
 10
73.32027947806884
 20
137.3748791575178
 30
0.0
  0
VERTEX
  5
64C
  8
0
  6
CONTINUOUS
 62
     7
 10
73.3485990564208
 20
137.3357327174037
 30
0.0
  0
VERTEX
  5
64D
  8
0
  6
CONTINUOUS
 62
     7
 10
73.37877642956794
 20
137.2979998611431
 30
0.0
  0
VERTEX
  5
64E
  8
0
  6
CONTINUOUS
 62
     7
 10
73.41074115017416
 20
137.2617686739115
 30
0.0
  0
VERTEX
  5
64F
  8
0
  6
CONTINUOUS
 62
     7
 10
73.44441859844383
 20
137.2271237353246
 30
0.0
  0
SEQEND
  5
675
  8
0
  6
CONTINUOUS
 62
     7
  0
ARC
  5
2EA
  8
0
  6
CONTINUOUS
 62
     7
 10
69.94441859867307
 20
133.6564095210539
 30
0.0
 40
5.000000000159685
 50
41.06930238490543
 51
45.5729960010455
  0
LINE
  5
2EB
  8
0
  6
CONTINUOUS
 62
     7
 10
51.14441859897229
 20
133.6564285595216
 30
0.0
 11
51.14441859897229
 21
129.0737298257013
 31
0.0
  0
LINE
  5
2EC
  8
0
  6
CONTINUOUS
 62
     7
 10
64.6444185989723
 20
129.1225294501469
 30
0.0
 11
64.6444185989723
 21
125.5871301665118
 31
0.0
  0
LINE
  5
2ED
  8
0
  6
CONTINUOUS
 62
     7
 10
51.14441859897229
 20
125.5383305420662
 30
0.0
 11
51.14441859897229
 21
129.0737298257013
 31
0.0
  0
LINE
  5
2EE
  8
0
  6
CONTINUOUS
 62
     7
 10
51.14441859897229
 20
134.1564095210537
 30
0.0
 11
51.14660019131093
 21
134.1563904825857
 31
0.0
  0
LINE
  5
2EF
  8
0
  6
CONTINUOUS
 62
     7
 10
51.14441859897229
 20
133.6564285595216
 30
0.0
 11
51.14441859897229
 21
134.1564095210537
 31
0.0
  0
LINE
  5
2F0
  8
0
  6
CONTINUOUS
 62
     7
 10
51.14441859897229
 20
140.2390892164063
 30
0.0
 11
51.14441859897229
 21
135.6563904825857
 31
0.0
  0
LINE
  5
2F1
  8
0
  6
CONTINUOUS
 62
     7
 10
51.14660019130904
 20
135.1564285595216
 30
0.0
 11
51.14441859897229
 21
135.1564095210537
 31
0.0
  0
LINE
  5
2F2
  8
0
  6
CONTINUOUS
 62
     7
 10
51.14441859897229
 20
135.1564095210537
 30
0.0
 11
51.14441859897229
 21
135.6563904825857
 31
0.0
  0
LINE
  5
2F3
  8
0
  6
CONTINUOUS
 62
     7
 10
64.6444185989723
 20
143.7256888755958
 30
0.0
 11
64.6444185989723
 21
140.1902895919607
 31
0.0
  0
LINE
  5
2F4
  8
0
  6
CONTINUOUS
 62
     7
 10
51.14441859897229
 20
140.2390892164063
 30
0.0
 11
51.14441859897229
 21
143.7744885000414
 31
0.0
  0
LINE
  5
2F5
  8
0
  6
CONTINUOUS
 62
     7
 10
51.14660019131093
 20
134.1563904825857
 30
0.0
 11
51.35696334510321
 21
134.1545555137325
 31
0.0
  0
LINE
  5
2F6
  8
0
  6
CONTINUOUS
 62
     7
 10
51.52320769626439
 20
135.1597124629046
 30
0.0
 11
51.14660019130904
 21
135.1564285595216
 31
0.0
  0
LINE
  5
2F7
  8
0
  6
CONTINUOUS
 62
     7
 10
51.14441859897229
 20
134.1564095210537
 30
0.0
 11
51.14441859897229
 21
135.1564095210537
 31
0.0
  0
LINE
  5
2F8
  8
0
  6
CONTINUOUS
 62
     7
 10
64.6444185989723
 20
123.3585468252593
 30
0.0
 11
64.6444185989723
 21
119.8230129193275
 31
0.0
  0
LINE
  5
2F9
  8
0
  6
CONTINUOUS
 62
     7
 10
51.14441859897229
 20
125.5383305420662
 30
0.0
 11
51.14441859897229
 21
117.6432292025138
 31
0.0
  0
LINE
  5
2FA
  8
0
  6
CONTINUOUS
 62
     7
 10
64.6444185989723
 20
149.4898061227798
 30
0.0
 11
64.6444185989723
 21
145.9542722168363
 31
0.0
  0
LINE
  5
2FB
  8
0
  6
CONTINUOUS
 62
     7
 10
51.14441859897229
 20
151.6695898395937
 30
0.0
 11
51.14441859897229
 21
143.7744885000414
 31
0.0
  0
LINE
  5
2FC
  8
0
  6
CONTINUOUS
 62
     7
 10
64.6444185989723
 20
116.2966315860033
 30
0.0
 11
51.14441859897229
 21
116.178818870828
 31
0.0
  0
LINE
  5
2FD
  8
0
  6
CONTINUOUS
 62
     7
 10
64.6444185989723
 20
117.6432849648998
 30
0.0
 11
64.6444185989723
 21
116.2966315860033
 31
0.0
  0
LINE
  5
2FE
  8
0
  6
CONTINUOUS
 62
     7
 10
51.14441859897229
 20
116.178818870828
 30
0.0
 11
51.14441859897229
 21
117.6432292025138
 31
0.0
  0
LINE
  5
2FF
  8
0
  6
CONTINUOUS
 62
     7
 10
51.14441859897229
 20
153.1340001712794
 30
0.0
 11
64.6444185989723
 21
153.0161874561042
 31
0.0
  0
LINE
  5
300
  8
0
  6
CONTINUOUS
 62
     7
 10
64.6444185989723
 20
153.0161874561042
 30
0.0
 11
64.6444185989723
 21
151.6695340772076
 31
0.0
  0
LINE
  5
301
  8
0
  6
CONTINUOUS
 62
     7
 10
51.14441859897229
 20
151.6695898395937
 30
0.0
 11
51.14441859897229
 21
153.1340001712794
 31
0.0
  0
LINE
  5
302
  8
0
  6
CONTINUOUS
 62
     7
 10
51.14441859897229
 20
142.1887578247959
 30
0.0
 11
50.54441859897229
 21
141.6887578247959
 31
0.0
  0
LINE
  5
303
  8
0
  6
CONTINUOUS
 62
     7
 10
50.54441859897229
 20
141.6887578247959
 30
0.0
 11
51.14441859897229
 21
141.1887578247959
 31
0.0
  0
LINE
  5
304
  8
0
  6
CONTINUOUS
 62
     7
 10
51.14441859897229
 20
128.1240612173115
 30
0.0
 11
50.54441859897229
 21
127.6240612173115
 31
0.0
  0
LINE
  5
305
  8
0
  6
CONTINUOUS
 62
     7
 10
50.54441859897229
 20
127.6240612173115
 30
0.0
 11
51.14441859897229
 21
127.1240612173115
 31
0.0
  0
LINE
  5
306
  8
0
  6
CONTINUOUS
 62
     7
 10
51.125009616727
 20
127.1402353691826
 30
0.0
 11
50.54441859897229
 21
126.6564095210537
 31
0.0
  0
LINE
  5
307
  8
0
  6
CONTINUOUS
 62
     7
 10
50.54441859897229
 20
126.6564095210537
 30
0.0
 11
51.14441859897229
 21
126.1564095210537
 31
0.0
  0
LINE
  5
308
  8
0
  6
CONTINUOUS
 62
     7
 10
51.14441859897229
 20
143.1564095210537
 30
0.0
 11
50.54441859897229
 21
142.6564095210537
 31
0.0
  0
LINE
  5
309
  8
0
  6
CONTINUOUS
 62
     7
 10
50.54441859897229
 20
142.6564095210537
 30
0.0
 11
51.12500961672698
 21
142.1725836729248
 31
0.0
  0
ENDBLK
  8
0
  0
ENDSEC
  0
SECTION
  2
ENTITIES
  0
LINE
  5
6F
  8
0
  6
CENTER
 62
     1
 10
47.54441859897229
 20
134.6564095210538
 30
0.0
 11
79.94441860015266
 21
134.6564095210538
 31
0.0
  0
LINE
  5
71
  8
0
  6
CENTER
 62
     1
 10
103.4600670265639
 20
134.6564095210537
 30
0.0
 11
173.3959734802922
 21
134.6564095210537
 31
0.0
  0
POINT
  5
72
  8
0
 62
     1
 10
138.2361564158583
 20
134.6564095210537
 30
0.0
  0
POINT
  5
73
  8
0
 62
     1
 10
51.14441859897229
 20
134.6564095210538
 30
0.0
  0
TEXT
  5
74
  8
0
  6
CONTINUOUS
 62
     7
 10
138.28764447388
 20
50.47316400731208
 30
0.0
 40
3.0
  1
GGSS-3
  0
POINT
  5
75
  8
0
 62
     1
 10
76.94441860015266
 20
135.6564095210534
 30
0.0
  0
INSERT
  5
1FA
  8
0
  6
DOT
 62
     7
  2
D_FRAME_VIEW_20132
 10
0.0
 20
0.0
 30
0.0
  0
INSERT
  5
297
  8
0
  6
DOT
 62
     7
  2
D_FRAME_VIEW_20769
 10
0.0
 20
0.0
 30
0.0
  0
INSERT
  5
30A
  8
0
  6
DOT
 62
     7
  2
D_FRAME_VIEW_20607
 10
0.0
 20
0.0
 30
0.0
  0
ENDSEC
  0
EOF
