  0
SECTION
  2
HEADER
  9
$ACADVER
  1
AC1014
  9
$ACADMAINTVER
 70
     9
  9
$DWGCODEPAGE
  3
ANSI_932
  9
$INSBASE
 10
0.0
 20
0.0
 30
0.0
  9
$EXTMIN
 10
-508.4499999999999
 20
73.48636363636365
 30
0.0
  9
$EXTMAX
 10
-365.0000000000001
 20
178.9407554465223
 30
0.0
  9
$LIMMIN
 10
0.0
 20
0.0
  9
$LIMMAX
 10
12.0
 20
9.0
  9
$ORTHOMODE
 70
     0
  9
$REGENMODE
 70
     1
  9
$FILLMODE
 70
     1
  9
$QTEXTMODE
 70
     0
  9
$MIRRTEXT
 70
     1
  9
$DRAGMODE
 70
     2
  9
$LTSCALE
 40
1.0
  9
$OSMODE
 70
    37
  9
$ATTMODE
 70
     1
  9
$TEXTSIZE
 40
0.2
  9
$TRACEWID
 40
0.05
  9
$TEXTSTYLE
  7
STANDARD
  9
$CLAYER
  8
0
  9
$CELTYPE
  6
BYLAYER
  9
$CECOLOR
 62
   256
  9
$CELTSCALE
 40
1.0
  9
$DELOBJ
 70
     1
  9
$DISPSILH
 70
     0
  9
$DIMSCALE
 40
1.0
  9
$DIMASZ
 40
3.0
  9
$DIMEXO
 40
0.0625
  9
$DIMDLI
 40
0.38
  9
$DIMRND
 40
0.0
  9
$DIMDLE
 40
0.0
  9
$DIMEXE
 40
1.5
  9
$DIMTP
 40
0.0
  9
$DIMTM
 40
0.0
  9
$DIMTXT
 40
3.0
  9
$DIMCEN
 40
0.09
  9
$DIMTSZ
 40
0.0
  9
$DIMTOL
 70
     0
  9
$DIMLIM
 70
     0
  9
$DIMTIH
 70
     1
  9
$DIMTOH
 70
     1
  9
$DIMSE1
 70
     0
  9
$DIMSE2
 70
     0
  9
$DIMTAD
 70
     1
  9
$DIMZIN
 70
     0
  9
$DIMBLK
  1

  9
$DIMASO
 70
     1
  9
$DIMSHO
 70
     1
  9
$DIMPOST
  1

  9
$DIMAPOST
  1

  9
$DIMALT
 70
     0
  9
$DIMALTD
 70
     2
  9
$DIMALTF
 40
25.4
  9
$DIMLFAC
 40
1.0
  9
$DIMTOFL
 70
     0
  9
$DIMTVP
 40
0.0
  9
$DIMTIX
 70
     0
  9
$DIMSOXD
 70
     0
  9
$DIMSAH
 70
     0
  9
$DIMBLK1
  1

  9
$DIMBLK2
  1

  9
$DIMSTYLE
  2
STANDARD
  9
$DIMCLRD
 70
     0
  9
$DIMCLRE
 70
     0
  9
$DIMCLRT
 70
     0
  9
$DIMTFAC
 40
1.0
  9
$DIMGAP
 40
1.5
  9
$DIMJUST
 70
     0
  9
$DIMSD1
 70
     0
  9
$DIMSD2
 70
     0
  9
$DIMTOLJ
 70
     1
  9
$DIMTZIN
 70
     0
  9
$DIMALTZ
 70
     0
  9
$DIMALTTZ
 70
     0
  9
$DIMFIT
 70
     3
  9
$DIMUPT
 70
     0
  9
$DIMUNIT
 70
     2
  9
$DIMDEC
 70
     2
  9
$DIMTDEC
 70
     4
  9
$DIMALTU
 70
     2
  9
$DIMALTTD
 70
     2
  9
$DIMTXSTY
  7
ＭＳ_ゴシック
  9
$DIMAUNIT
 70
     0
  9
$LUNITS
 70
     2
  9
$LUPREC
 70
     4
  9
$SKETCHINC
 40
0.1
  9
$FILLETRAD
 40
0.5
  9
$AUNITS
 70
     0
  9
$AUPREC
 70
     0
  9
$MENU
  1
.
  9
$ELEVATION
 40
0.0
  9
$PELEVATION
 40
0.0
  9
$THICKNESS
 40
0.0
  9
$LIMCHECK
 70
     0
  9
$CHAMFERA
 40
0.0
  9
$CHAMFERB
 40
0.0
  9
$CHAMFERC
 40
0.0
  9
$CHAMFERD
 40
0.0
  9
$SKPOLY
 70
     0
  9
$TDCREATE
 40
2459788.476268426
  9
$TDUPDATE
 40
2459788.476268692
  9
$TDINDWG
 40
0.0000000116
  9
$TDUSRTIMER
 40
0.0000000116
  9
$USRTIMER
 70
     1
  9
$ANGBASE
 50
0.0
  9
$ANGDIR
 70
     0
  9
$PDMODE
 70
     0
  9
$PDSIZE
 40
0.0
  9
$PLINEWID
 40
0.0
  9
$COORDS
 70
     1
  9
$SPLFRAME
 70
     0
  9
$SPLINETYPE
 70
     6
  9
$SPLINESEGS
 70
     8
  9
$ATTDIA
 70
     0
  9
$ATTREQ
 70
     1
  9
$HANDLING
 70
     1
  9
$HANDSEED
  5
283
  9
$SURFTAB1
 70
     6
  9
$SURFTAB2
 70
     6
  9
$SURFTYPE
 70
     6
  9
$SURFU
 70
     6
  9
$SURFV
 70
     6
  9
$UCSNAME
  2

  9
$UCSORG
 10
0.0
 20
0.0
 30
0.0
  9
$UCSXDIR
 10
1.0
 20
0.0
 30
0.0
  9
$UCSYDIR
 10
0.0
 20
1.0
 30
0.0
  9
$PUCSNAME
  2

  9
$PUCSORG
 10
0.0
 20
0.0
 30
0.0
  9
$PUCSXDIR
 10
1.0
 20
0.0
 30
0.0
  9
$PUCSYDIR
 10
0.0
 20
1.0
 30
0.0
  9
$USERI1
 70
     0
  9
$USERI2
 70
     0
  9
$USERI3
 70
     0
  9
$USERI4
 70
     0
  9
$USERI5
 70
     0
  9
$USERR1
 40
0.0
  9
$USERR2
 40
0.0
  9
$USERR3
 40
0.0
  9
$USERR4
 40
0.0
  9
$USERR5
 40
0.0
  9
$WORLDVIEW
 70
     1
  9
$SHADEDGE
 70
     3
  9
$SHADEDIF
 70
    70
  9
$TILEMODE
 70
     1
  9
$MAXACTVP
 70
    64
  9
$PINSBASE
 10
0.0
 20
0.0
 30
0.0
  9
$PLIMCHECK
 70
     0
  9
$PEXTMIN
 10
1.000000000000000E+20
 20
1.000000000000000E+20
 30
1.000000000000000E+20
  9
$PEXTMAX
 10
-1.000000000000000E+20
 20
-1.000000000000000E+20
 30
-1.000000000000000E+20
  9
$PLIMMIN
 10
0.0
 20
0.0
  9
$PLIMMAX
 10
12.0
 20
9.0
  9
$UNITMODE
 70
     0
  9
$VISRETAIN
 70
     1
  9
$PLINEGEN
 70
     0
  9
$PSLTSCALE
 70
     1
  9
$TREEDEPTH
 70
  3020
  9
$PICKSTYLE
 70
     1
  9
$CMLSTYLE
  2
STANDARD
  9
$CMLJUST
 70
     0
  9
$CMLSCALE
 40
1.0
  9
$PROXYGRAPHICS
 70
     1
  9
$MEASUREMENT
 70
     1
  0
ENDSEC
  0
SECTION
  2
CLASSES
  0
CLASS
  1
ACDBDICTIONARYWDFLT
  2
AcDbDictionaryWithDefault
  3
ObjectDBX Classes
 90
        0
280
     0
281
     0
  0
CLASS
  1
VISUALSTYLE
  2
AcDbVisualStyle
  3
ObjectDBX Classes
 90
     4095
280
     0
281
     0
  0
CLASS
  1
MATERIAL
  2
AcDbMaterial
  3
ObjectDBX Classes
 90
     1153
280
     0
281
     0
  0
CLASS
  1
SCALE
  2
AcDbScale
  3
ObjectDBX Classes
 90
     1153
280
     0
281
     0
  0
CLASS
  1
TABLESTYLE
  2
AcDbTableStyle
  3
ObjectDBX Classes
 90
     4095
280
     0
281
     0
  0
CLASS
  1
MLEADERSTYLE
  2
AcDbMLeaderStyle
  3
ACDB_MLEADERSTYLE_CLASS
 90
     4095
280
     0
281
     0
  0
CLASS
  1
SUN
  2
AcDbSun
  3
SCENEOE
 90
     1153
280
     0
281
     0
  0
CLASS
  1
DICTIONARYVAR
  2
AcDbDictionaryVar
  3
ObjectDBX Classes
 90
        0
280
     0
281
     0
  0
CLASS
  1
XRECORD
  2
AcDbXrecord
  3
ObjectDBX Classes
 90
        0
280
     0
281
     0
  0
CLASS
  1
LWPOLYLINE
  2
AcDbPolyline
  3
ObjectDBX Classes
 90
        0
280
     0
281
     1
  0
CLASS
  1
HATCH
  2
AcDbHatch
  3
ObjectDBX Classes
 90
        0
280
     0
281
     1
  0
CLASS
  1
ACDBPLACEHOLDER
  2
AcDbPlaceHolder
  3
ObjectDBX Classes
 90
        0
280
     0
281
     0
  0
CLASS
  1
LAYOUT
  2
AcDbLayout
  3
ObjectDBX Classes
 90
        0
280
     0
281
     0
  0
ENDSEC
  0
SECTION
  2
TABLES
  0
TABLE
  2
VPORT
  5
8
102
{ACAD_XDICTIONARY
360
278
102
}
330
0
100
AcDbSymbolTable
 70
     1
  0
VPORT
  5
29
330
8
100
AcDbSymbolTableRecord
100
AcDbViewportTableRecord
  2
*ACTIVE
 70
     0
 10
0.0
 20
0.0
 11
1.0
 21
1.0
 12
-436.725
 22
126.213559541443
 13
0.0
 23
0.0
 14
0.5
 24
0.5
 15
0.5
 25
0.5
 16
0.0
 26
0.0
 36
1.0
 17
0.0
 27
0.0
 37
0.0
 40
105.4543918101587
 41
1.6
 42
50.0
 43
0.0
 44
0.0
 50
0.0
 51
0.0
 71
     0
 72
   100
 73
     1
 74
     3
 75
     0
 76
     0
 77
     0
 78
     0
  0
ENDTAB
  0
TABLE
  2
LTYPE
  5
5
330
0
100
AcDbSymbolTable
 70
     2
  0
LTYPE
  5
14
330
5
100
AcDbSymbolTableRecord
100
AcDbLinetypeTableRecord
  2
BYBLOCK
 70
     0
  3

 72
    65
 73
     0
 40
0.0
  0
LTYPE
  5
15
330
5
100
AcDbSymbolTableRecord
100
AcDbLinetypeTableRecord
  2
BYLAYER
 70
     0
  3

 72
    65
 73
     0
 40
0.0
  0
LTYPE
  5
16
330
5
100
AcDbSymbolTableRecord
100
AcDbLinetypeTableRecord
  2
CONTINUOUS
 70
     0
  3
Solid line
 72
    65
 73
     0
 40
0.0
  0
LTYPE
  5
71
330
5
100
AcDbSymbolTableRecord
100
AcDbLinetypeTableRecord
  2
CENTER
 70
     0
  3

 72
    65
 73
     0
 40
0.0
  0
ENDTAB
  0
TABLE
  2
LAYER
  5
2
330
0
100
AcDbSymbolTable
 70
     2
  0
LAYER
  5
10
330
2
100
AcDbSymbolTableRecord
100
AcDbLayerTableRecord
  2
0
 70
     0
 62
     7
  6
CONTINUOUS
  0
LAYER
  5
6E
330
2
100
AcDbSymbolTableRecord
100
AcDbLayerTableRecord
  2
1
 70
     0
 62
     7
  6
CONTINUOUS
  0
ENDTAB
  0
TABLE
  2
STYLE
  5
3
330
0
100
AcDbSymbolTable
 70
     2
  0
STYLE
  5
11
330
3
100
AcDbSymbolTableRecord
100
AcDbTextStyleTableRecord
  2
STANDARD
 70
     0
 40
0.0
 41
1.0
 50
0.0
 71
     0
 42
0.2
  3
txt
  4

  0
STYLE
  5
6F
330
3
100
AcDbSymbolTableRecord
100
AcDbTextStyleTableRecord
  2
ＭＳ_ゴシック
 70
     0
 40
0.0
 41
1.0
 50
0.0
 71
     0
 42
0.2
  3
ＭＳ ゴシック.shx
  4

  0
ENDTAB
  0
TABLE
  2
VIEW
  5
6
330
0
100
AcDbSymbolTable
 70
     0
  0
ENDTAB
  0
TABLE
  2
UCS
  5
7
330
0
100
AcDbSymbolTable
 70
     0
  0
ENDTAB
  0
TABLE
  2
APPID
  5
9
330
0
100
AcDbSymbolTable
 70
     2
  0
APPID
  5
12
330
9
100
AcDbSymbolTableRecord
100
AcDbRegAppTableRecord
  2
ACAD
 70
     0
  0
APPID
  5
282
330
9
100
AcDbSymbolTableRecord
100
AcDbRegAppTableRecord
  2
ACAD_MLEADERVER
 70
     0
  0
ENDTAB
  0
TABLE
  2
DIMSTYLE
  5
A
330
0
100
AcDbSymbolTable
 70
     1
  0
DIMSTYLE
105
27
330
A
100
AcDbSymbolTableRecord
100
AcDbDimStyleTableRecord
  2
STANDARD
 70
     0
  3

  4

  5

  6

  7

 40
1.0
 41
0.18
 42
0.0625
 43
0.38
 44
0.18
 45
0.0
 46
0.0
 47
0.0
 48
0.0
140
0.18
141
0.09
142
0.0
143
25.4
144
1.0
145
0.0
146
1.0
147
0.09
 71
     0
 72
     0
 73
     1
 74
     1
 75
     0
 76
     0
 77
     0
 78
     0
170
     0
171
     2
172
     0
173
     0
174
     0
175
     0
176
     0
177
     0
178
     0
270
     2
271
     4
272
     4
273
     2
274
     2
340
11
275
     0
280
     0
281
     0
282
     0
283
     1
284
     0
285
     0
286
     0
287
     3
288
     0
  0
ENDTAB
  0
TABLE
  2
BLOCK_RECORD
  5
1
330
0
100
AcDbSymbolTable
 70
     0
  0
BLOCK_RECORD
  5
1F
330
1
100
AcDbSymbolTableRecord
100
AcDbBlockTableRecord
  2
*MODEL_SPACE
  0
BLOCK_RECORD
  5
1B
330
1
100
AcDbSymbolTableRecord
100
AcDbBlockTableRecord
  2
*PAPER_SPACE
  0
ENDTAB
  0
ENDSEC
  0
SECTION
  2
BLOCKS
  0
BLOCK
  5
20
330
1F
100
AcDbEntity
  8
0
100
AcDbBlockBegin
  2
*MODEL_SPACE
 70
     0
 10
0.0
 20
0.0
 30
0.0
  3
*MODEL_SPACE
  1

  0
ENDBLK
  5
21
330
1F
100
AcDbEntity
  8
0
100
AcDbBlockEnd
  0
BLOCK
  5
1C
330
1B
100
AcDbEntity
 67
     1
  8
0
100
AcDbBlockBegin
  2
*PAPER_SPACE
 70
     0
 10
0.0
 20
0.0
 30
0.0
  3
*PAPER_SPACE
  1

  0
ENDBLK
  5
1D
330
1B
100
AcDbEntity
 67
     1
  8
0
100
AcDbBlockEnd
  0
ENDSEC
  0
SECTION
  2
ENTITIES
  0
LINE
  5
70
330
1F
100
AcDbEntity
  8
0
  6
CENTER
 62
     1
100
AcDbLine
 10
-385.0000000000001
 20
80.35000000000001
 30
0.0
 11
-385.0000000000001
 21
117.0730160350514
 31
0.0
  0
LINE
  5
72
330
1F
100
AcDbEntity
  8
0
  6
CENTER
 62
     1
100
AcDbLine
 10
-464.95
 20
124.7329768168989
 30
0.0
 11
-464.95
 21
178.9407554465223
 31
0.0
  0
LINE
  5
73
330
1F
100
AcDbEntity
  8
0
  6
CENTER
 62
     1
100
AcDbLine
 10
-464.95
 20
121.35
 30
0.0
 11
-464.95
 21
80.35000000000001
 31
0.0
  0
LINE
  5
74
330
1F
100
AcDbEntity
  8
1
  6
CONTINUOUS
 62
     7
100
AcDbLine
 10
-471.4786915420205
 20
114.35
 30
0.0
 11
-457.4500000000002
 21
114.35
 31
0.0
  0
LINE
  5
75
330
1F
100
AcDbEntity
  8
1
  6
CONTINUOUS
 62
     7
100
AcDbLine
 10
-395.6076954061904
 20
114.35
 30
0.0
 11
-371.5495658565372
 21
114.35
 31
0.0
  0
ARC
  5
76
330
1F
100
AcDbEntity
  8
1
  6
CONTINUOUS
 62
     7
100
AcDbCircle
 10
-471.4497467567429
 20
98.84917977543988
 30
0.0
 40
15.50084724893214
100
AcDbArc
 50
89.89301133206101
 51
116.4149899080352
  0
MTEXT
  5
77
330
1F
100
AcDbEntity
  8
1
 62
     7
100
AcDbMText
 10
-444.1487964236588
 20
76.15909090909092
 30
0.0
 40
3.0
 41
0.0
 71
     1
 72
     1
  1
{\fＭＳ ゴシック;ＧＧＴ－ＶＯ１０}
  0
ARC
  5
78
330
1F
100
AcDbEntity
  8
1
  6
CONTINUOUS
 62
     7
100
AcDbCircle
 10
-471.4474524944861
 20
98.84175084223045
 30
0.0
 40
13.00843228983501
100
AcDbArc
 50
94.76982075139104
 51
119.5536553847754
  0
LINE
  5
79
330
1F
100
AcDbEntity
  8
1
  6
CONTINUOUS
 62
     7
100
AcDbLine
 10
-441.9500000000002
 20
94.35000000000001
 30
0.0
 11
-441.9500000000002
 21
92.35000000000001
 31
0.0
  0
LINE
  5
7A
330
1F
100
AcDbEntity
  8
1
  6
CONTINUOUS
 62
     7
100
AcDbLine
 10
-441.9500000000002
 20
95.35000000000002
 30
0.0
 11
-441.9500000000002
 21
94.35000000000001
 31
0.0
  0
ARC
  5
7B
330
1F
100
AcDbEntity
  8
1
  6
CONTINUOUS
 62
     7
100
AcDbCircle
 10
-442.9500000000002
 20
95.35000000000001
 30
0.0
 40
1.000000000000001
100
AcDbArc
 50
0.0000000000000994
 51
90.0
  0
LINE
  5
7C
330
1F
100
AcDbEntity
  8
1
  6
CONTINUOUS
 62
     7
100
AcDbLine
 10
-444.4500000000001
 20
96.35000000000001
 30
0.0
 11
-442.9500000000002
 21
96.35000000000001
 31
0.0
  0
LINE
  5
7D
330
1F
100
AcDbEntity
  8
1
  6
CONTINUOUS
 62
     7
100
AcDbLine
 10
-445.2487711213519
 20
94.35
 30
0.0
 11
-444.4500000000001
 21
96.35000000000001
 31
0.0
  0
LINE
  5
7E
330
1F
100
AcDbEntity
  8
1
  6
CONTINUOUS
 62
     7
100
AcDbLine
 10
-438.95
 20
85.35000000000001
 30
0.0
 11
-439.95
 21
85.35000000000001
 31
0.0
  0
LINE
  5
7F
330
1F
100
AcDbEntity
  8
1
  6
CONTINUOUS
 62
     7
100
AcDbLine
 10
-438.95
 20
87.07301603505138
 30
0.0
 11
-438.95
 21
85.35000000000001
 31
0.0
  0
LINE
  5
80
330
1F
100
AcDbEntity
  8
1
  6
CONTINUOUS
 62
     7
100
AcDbLine
 10
-441.9500000000002
 20
92.35000000000001
 30
0.0
 11
-439.0925070742875
 21
87.58751179047891
 31
0.0
  0
ARC
  5
81
330
1F
100
AcDbEntity
  8
1
  6
CONTINUOUS
 62
     7
100
AcDbCircle
 10
-439.95
 20
87.07301603505138
 30
0.0
 40
1.000000000000001
100
AcDbArc
 50
0.0
 51
30.96375653207354
  0
ARC
  5
82
330
1F
100
AcDbEntity
  8
1
  6
CONTINUOUS
 62
     7
100
AcDbCircle
 10
-445.9500000000001
 20
90.66152889393238
 30
0.0
 40
1.000000000000001
100
AcDbArc
 50
180.0
 51
214.6066411097941
  0
LINE
  5
83
330
1F
100
AcDbEntity
  8
1
  6
CONTINUOUS
 62
     7
100
AcDbLine
 10
-446.773070544673
 20
90.09358974358975
 30
0.0
 11
-444.0961433302022
 21
86.21412494681543
 31
0.0
  0
LINE
  5
84
330
1F
100
AcDbEntity
  8
1
  6
CONTINUOUS
 62
     7
100
AcDbLine
 10
-442.4500000000002
 20
85.35000000000001
 30
0.0
 11
-439.95
 21
85.35000000000001
 31
0.0
  0
LINE
  5
85
330
1F
100
AcDbEntity
  8
1
  6
CONTINUOUS
 62
     7
100
AcDbLine
 10
-446.9500000000001
 20
91.18514514162207
 30
0.0
 11
-446.9500000000001
 21
90.66152889393237
 31
0.0
  0
ARC
  5
86
330
1F
100
AcDbEntity
  8
1
  6
CONTINUOUS
 62
     7
100
AcDbCircle
 10
-442.4500000000002
 20
87.35000000000001
 30
0.0
 40
1.999999999999998
100
AcDbArc
 50
214.6065280769049
 51
270.0
  0
ARC
  5
87
330
1F
100
AcDbEntity
  8
1
  6
CONTINUOUS
 62
     7
100
AcDbCircle
 10
-457.4500000000001
 20
98.85000000000001
 30
0.0
 40
12.99999999999999
100
AcDbArc
 50
323.871072528062
 51
338.2289458906822
  0
LINE
  5
88
330
1F
100
AcDbEntity
  8
1
  6
CONTINUOUS
 62
     7
100
AcDbLine
 10
-445.2487711213519
 20
94.35
 30
0.0
 11
-445.3772467902998
 21
94.02831669044215
 31
0.0
  0
ARC
  5
89
330
1F
100
AcDbEntity
  8
1
  6
CONTINUOUS
 62
     7
100
AcDbCircle
 10
-471.4500000000002
 20
98.85000000000001
 30
0.0
 40
15.5
100
AcDbArc
 50
116.4155003557481
 51
180.0
  0
ARC
  5
8A
330
1F
100
AcDbEntity
  8
1
  6
CONTINUOUS
 62
     7
100
AcDbCircle
 10
-486.4500000000002
 20
87.35000000000001
 30
0.0
 40
2.0
100
AcDbArc
 50
270.0
 51
0.0
  0
LINE
  5
8B
330
1F
100
AcDbEntity
  8
1
  6
CONTINUOUS
 62
     7
100
AcDbLine
 10
-486.4500000000002
 20
85.35000000000001
 30
0.0
 11
-500.4499999999999
 21
85.35000000000001
 31
0.0
  0
LINE
  5
8C
330
1F
100
AcDbEntity
  8
1
  6
CONTINUOUS
 62
     7
100
AcDbLine
 10
-484.4500000000002
 20
98.85000000000001
 30
0.0
 11
-484.4500000000002
 21
87.35000000000001
 31
0.0
  0
ARC
  5
8D
330
1F
100
AcDbEntity
  8
1
  6
CONTINUOUS
 62
     7
100
AcDbCircle
 10
-471.4500000000002
 20
98.85000000000001
 30
0.0
 40
13.0
100
AcDbArc
 50
119.5618210962885
 51
180.0
  0
ARC
  5
8E
330
1F
100
AcDbEntity
  8
1
  6
CONTINUOUS
 62
     7
100
AcDbCircle
 10
-507.4499999999999
 20
86.35000000000001
 30
0.0
 40
1.000000000000001
100
AcDbArc
 50
90.0
 51
180.0
  0
LINE
  5
8F
330
1F
100
AcDbEntity
  8
1
  6
CONTINUOUS
 62
     7
100
AcDbLine
 10
-507.4499999999999
 20
87.35000000000001
 30
0.0
 11
-500.4499999999999
 21
87.35000000000001
 31
0.0
  0
LINE
  5
90
330
1F
100
AcDbEntity
  8
1
  6
CONTINUOUS
 62
     7
100
AcDbLine
 10
-500.4499999999999
 20
87.35000000000001
 30
0.0
 11
-491.9500000000002
 21
87.35000000000001
 31
0.0
  0
LINE
  5
91
330
1F
100
AcDbEntity
  8
1
  6
CONTINUOUS
 62
     7
100
AcDbLine
 10
-491.9500000000002
 20
87.35000000000001
 30
0.0
 11
-486.9500000000002
 21
92.35000000000001
 31
0.0
  0
LINE
  5
92
330
1F
100
AcDbEntity
  8
1
  6
CONTINUOUS
 62
     7
100
AcDbLine
 10
-486.9500000000002
 20
92.35000000000001
 30
0.0
 11
-486.9500000000002
 21
98.85000000000001
 31
0.0
  0
LINE
  5
93
330
1F
100
AcDbEntity
  8
1
  6
CONTINUOUS
 62
     7
100
AcDbLine
 10
-508.4499999999999
 20
86.35000000000001
 30
0.0
 11
-508.4499999999999
 21
85.35000000000001
 31
0.0
  0
LINE
  5
94
330
1F
100
AcDbEntity
  8
1
  6
CONTINUOUS
 62
     7
100
AcDbLine
 10
-500.4499999999999
 20
85.35000000000001
 30
0.0
 11
-508.4499999999999
 21
85.35000000000001
 31
0.0
  0
LINE
  5
95
330
1F
100
AcDbEntity
  8
1
  6
CONTINUOUS
 62
     7
100
AcDbLine
 10
-492.9761806033723
 20
90.35000000000001
 30
0.0
 11
-505.9238193966278
 21
90.35000000000001
 31
0.0
  0
LINE
  5
96
330
1F
100
AcDbEntity
  8
1
  6
CONTINUOUS
 62
     7
100
AcDbLine
 10
-464.4753741685216
 20
111.85
 30
0.0
 11
-471.4500000000002
 21
111.85
 31
0.0
  0
LINE
  5
97
330
1F
100
AcDbEntity
  8
1
  6
CONTINUOUS
 62
     7
100
AcDbLine
 10
-471.4500000000002
 20
111.85
 30
0.0
 11
-472.5291420376938
 21
111.8051322827088
 31
0.0
  0
LINE
  5
98
330
1F
100
AcDbEntity
  8
1
  6
CONTINUOUS
 62
     7
100
AcDbLine
 10
-499.7343113221717
 20
98.35000000000001
 30
0.0
 11
-500.4445125060165
 21
98.35000000000001
 31
0.0
  0
LINE
  5
99
330
1F
100
AcDbEntity
  8
1
  6
CONTINUOUS
 62
     7
100
AcDbLine
 10
-499.7271546494343
 20
90.35000001342544
 30
0.0
 11
-499.7343113221717
 21
98.35000000000001
 31
0.0
  0
LINE
  5
9A
330
1F
100
AcDbEntity
  8
1
  6
CONTINUOUS
 62
     7
100
AcDbLine
 10
-498.3529792574171
 20
98.35000000000001
 30
0.0
 11
-499.7343113221717
 21
98.35000000000001
 31
0.0
  0
LINE
  5
9B
330
1F
100
AcDbEntity
  8
1
  6
CONTINUOUS
 62
     7
100
AcDbLine
 10
-498.2940660902207
 20
90.35000011897245
 30
0.0
 11
-498.3529792574171
 21
98.35000000000001
 31
0.0
  0
LINE
  5
9C
330
1F
100
AcDbEntity
  8
1
  6
CONTINUOUS
 62
     7
100
AcDbLine
 10
-500.4445125060165
 20
98.35000000000001
 30
0.0
 11
-500.5179921725227
 21
98.35000000000001
 31
0.0
  0
LINE
  5
9D
330
1F
100
AcDbEntity
  8
1
  6
CONTINUOUS
 62
     7
100
AcDbLine
 10
-501.355204687282
 20
90.35000011897245
 30
0.0
 11
-501.3266106276554
 21
98.35000000000001
 31
0.0
  0
LINE
  5
9E
330
1F
100
AcDbEntity
  8
1
  6
CONTINUOUS
 62
     7
100
AcDbLine
 10
-500.5179921725227
 20
98.35000000000001
 30
0.0
 11
-501.3266106276554
 21
98.35000000000001
 31
0.0
  0
LINE
  5
9F
330
1F
100
AcDbEntity
  8
1
  6
CONTINUOUS
 62
     7
100
AcDbLine
 10
-496.9309155681951
 20
98.35000000000001
 30
0.0
 11
-498.3529792574171
 21
98.35000000000001
 31
0.0
  0
LINE
  5
A0
330
1F
100
AcDbEntity
  8
1
  6
CONTINUOUS
 62
     7
100
AcDbLine
 10
-496.3185653891044
 20
98.35000000000001
 30
0.0
 11
-496.5020703120617
 21
98.35000000000001
 31
0.0
  0
LINE
  5
A1
330
1F
100
AcDbEntity
  8
1
  6
CONTINUOUS
 62
     7
100
AcDbLine
 10
-495.9123608757043
 20
90.35000001342544
 30
0.0
 11
-495.9816600908796
 21
98.35000000000002
 31
0.0
  0
LINE
  5
A2
330
1F
100
AcDbEntity
  8
1
  6
CONTINUOUS
 62
     7
100
AcDbLine
 10
-495.9816600908796
 20
98.35000000000001
 30
0.0
 11
-496.3185653891044
 21
98.35000000000001
 31
0.0
  0
LINE
  5
A3
330
1F
100
AcDbEntity
  8
1
  6
CONTINUOUS
 62
     7
100
AcDbLine
 10
-501.3266106276555
 20
98.35000000000001
 30
0.0
 11
-503.0940539696091
 21
98.35000000000001
 31
0.0
  0
LINE
  5
A4
330
1F
100
AcDbEntity
  8
1
  6
CONTINUOUS
 62
     7
100
AcDbLine
 10
-495.9804611650486
 20
98.35000000000001
 30
0.0
 11
-495.9816600908796
 21
98.35000000000001
 31
0.0
  0
LINE
  5
A5
330
1F
100
AcDbEntity
  8
1
  6
CONTINUOUS
 62
     7
100
AcDbLine
 10
-496.7511317523947
 20
98.35000000000001
 30
0.0
 11
-496.4982836850116
 21
98.35000000000001
 31
0.0
  0
ARC
  5
A6
330
1F
100
AcDbEntity
  8
1
  6
CONTINUOUS
 62
     7
100
AcDbCircle
 10
-457.4500000000002
 20
98.85000000000001
 30
0.0
 40
13.00000000000001
100
AcDbArc
 50
0.0
 51
90.0
  0
LINE
  5
A7
330
1F
100
AcDbEntity
  8
1
  6
CONTINUOUS
 62
     7
100
AcDbLine
 10
-444.4500000000002
 20
96.34999999999998
 30
0.0
 11
-444.4500000000002
 21
98.85000000000001
 31
0.0
  0
LINE
  5
A8
330
1F
100
AcDbEntity
  8
1
  6
CONTINUOUS
 62
     7
100
AcDbLine
 10
-457.4500000000002
 20
111.85
 30
0.0
 11
-464.4753741685216
 21
111.85
 31
0.0
  0
LINE
  5
A9
330
1F
100
AcDbEntity
  8
1
  6
CONTINUOUS
 62
     7
100
AcDbLine
 10
-441.9500000000002
 20
98.85000000000001
 30
0.0
 11
-441.9500000000002
 21
95.35000000000002
 31
0.0
  0
LINE
  5
AA
330
1F
100
AcDbEntity
  8
1
  6
CONTINUOUS
 62
     7
100
AcDbLine
 10
-503.0940539696089
 20
98.35000000000001
 30
0.0
 11
-503.1960771418508
 21
98.35000000000001
 31
0.0
  0
ARC
  5
AB
330
1F
100
AcDbEntity
  8
1
  6
CONTINUOUS
 62
     7
100
AcDbCircle
 10
-457.4500000000002
 20
98.85000000000001
 30
0.0
 40
15.5
100
AcDbArc
 50
0.0
 51
90.0
  0
LINE
  5
AC
330
1F
100
AcDbEntity
  8
1
  6
CONTINUOUS
 62
     7
100
AcDbLine
 10
-496.9309155681951
 20
98.35000000000001
 30
0.0
 11
-496.7511317523947
 21
98.35000000000001
 31
0.0
  0
LINE
  5
AD
330
1F
100
AcDbEntity
  8
1
  6
CONTINUOUS
 62
     7
100
AcDbLine
 10
-503.1960771418508
 20
98.35000000000001
 30
0.0
 11
-503.1961817514015
 21
98.35000000000001
 31
0.0
  0
LINE
  5
AE
330
1F
100
AcDbEntity
  8
1
  6
CONTINUOUS
 62
     7
100
AcDbLine
 10
-508.4499999999999
 20
87.85000000000001
 30
0.0
 11
-508.4499999999999
 21
86.36452463603068
 31
0.0
  0
LINE
  5
AF
330
1F
100
AcDbEntity
  8
1
  6
CONTINUOUS
 62
     7
100
AcDbLine
 10
-508.4499999999999
 20
86.36452463603068
 30
0.0
 11
-508.4499999999999
 21
86.35000000000001
 31
0.0
  0
LINE
  5
B0
330
1F
100
AcDbEntity
  8
1
  6
CONTINUOUS
 62
     7
100
AcDbLine
 10
-432.4500000000001
 20
87.35000000000001
 30
0.0
 11
-438.9891254591981
 21
87.35000000000001
 31
0.0
  0
LINE
  5
B1
330
1F
100
AcDbEntity
  8
1
  6
CONTINUOUS
 62
     7
100
AcDbLine
 10
-432.4500000000001
 20
85.35000000000001
 30
0.0
 11
-438.9500000000001
 21
85.35000000000001
 31
0.0
  0
LINE
  5
B2
330
1F
100
AcDbEntity
  8
1
  6
CONTINUOUS
 62
     7
100
AcDbLine
 10
-508.4499999999999
 20
87.85000000000001
 30
0.0
 11
-508.4499999999999
 21
88.85000000000001
 31
0.0
  0
LINE
  5
B3
330
1F
100
AcDbEntity
  8
1
  6
CONTINUOUS
 62
     7
100
AcDbLine
 10
-507.5646429878817
 20
89.84340675723975
 30
0.0
 11
-507.4499999999999
 21
89.85
 31
0.0
  0
LINE
  5
B4
330
1F
100
AcDbEntity
  8
1
  6
CONTINUOUS
 62
     7
100
AcDbLine
 10
-507.6113888033428
 20
89.83689090286396
 30
0.0
 11
-507.5646429878817
 21
89.84340675723975
 31
0.0
  0
LWPOLYLINE
  5
B5
330
1F
100
AcDbEntity
  8
1
  6
CONTINUOUS
 62
     7
100
AcDbPolyline
 90
       37
 70
     0
 43
0.0
 10
508.4499999999999
 20
88.85000000000001
 10
508.4495384858927
 20
88.880371916496
 10
508.4481556902662
 20
88.91070599632044
 10
508.445840103196
 20
88.94111600333423
 10
508.4426022003012
 20
88.9714119926409
 10
508.437938778256
 20
89.00484327866059
 10
508.4321615775802
 20
89.03803892024094
 10
508.4252399377805
 20
89.07114825837681
 10
508.4172243909217
 20
89.10392317264477
 10
508.4086967862844
 20
89.1344275155245
 10
508.3992338048562
 20
89.16456910378045
 10
508.3888615927068
 20
89.19429480062907
 10
508.3714302166986
 20
89.2385417237945
 10
508.3520289358893
 20
89.28167557125542
 10
508.3329791458313
 20
89.31940386462578
 10
508.31244818703
 20
89.35613152121289
 10
508.2905214732488
 20
89.39177093081928
 10
508.2672844182515
 20
89.42623448324744
 10
508.2419815648271
 20
89.46053972717324
 10
508.2153769978221
 20
89.493573239799
 10
508.1875645663343
 20
89.52527178318208
 10
508.1586381194615
 20
89.55557211937983
 10
508.1383990315753
 20
89.57533218136675
 10
508.117671346733
 20
89.59445615905291
 10
508.0870553429082
 20
89.6208168770233
 10
508.0555483350839
 20
89.64580736814057
 10
508.0232306122756
 20
89.66939408415627
 10
507.9897091054227
 20
89.69185061206048
 10
507.9554452583553
 20
89.7128577227204
 10
507.9205173823336
 20
89.73239072576845
 10
507.8788487723141
 20
89.75337303249182
 10
507.8363730609433
 20
89.77233686737992
 10
507.7932073942184
 20
89.7892564641478
 10
507.7494689181371
 20
89.8041060565105
 10
507.7039227250103
 20
89.81722137694035
 10
507.6578553402999
 20
89.8281540507044
 10
507.6113882619445
 20
89.83688790255381
210
0.0
220
0.0
230
-1.0
  0
LINE
  5
B6
330
1F
100
AcDbEntity
  8
1
  6
CONTINUOUS
 62
     7
100
AcDbLine
 10
-505.9281828305232
 20
89.85000000000001
 30
0.0
 11
-507.4499999999999
 21
89.85000000000001
 31
0.0
  0
ARC
  5
B7
330
1F
100
AcDbEntity
  8
1
  6
CONTINUOUS
 62
     7
100
AcDbCircle
 10
-483.9500000000002
 20
89.64289321881344
 30
0.0
 40
0.5000000000000004
100
AcDbArc
 50
134.9999999999998
 51
180.0000000000002
  0
ARC
  5
B8
330
1F
100
AcDbEntity
  8
1
  6
CONTINUOUS
 62
     7
100
AcDbCircle
 10
-486.8042599814174
 20
93.15741818097639
 30
0.0
 40
4.004239247952578
100
AcDbArc
 50
337.4232728940283
 51
359.493446168274
  0
ARC
  5
B9
330
1F
100
AcDbEntity
  8
1
  6
CONTINUOUS
 62
     7
100
AcDbCircle
 10
-486.7998341968794
 20
93.15702005261313
 30
0.0
 40
3.999999999999997
100
AcDbArc
 50
315.0
 51
337.4042001283453
  0
LINE
  5
BA
330
1F
100
AcDbEntity
  8
1
  6
CONTINUOUS
 62
     7
100
AcDbLine
 10
-446.0598842578709
 20
92.59235629127855
 30
0.0
 11
-446.0998227741761
 21
93.12201703402577
 31
0.0
  0
LINE
  5
BB
330
1F
100
AcDbEntity
  8
1
  6
CONTINUOUS
 62
     7
100
AcDbLine
 10
-482.7500000000002
 20
98.85000000000073
 30
0.0
 11
-482.7865386312022
 21
94.6630875729845
 31
0.0
  0
LINE
  5
BC
330
1F
100
AcDbEntity
  8
1
  6
CONTINUOUS
 62
     7
100
AcDbLine
 10
-482.8001772258243
 20
93.12201703402573
 30
0.0
 11
-482.7865386312022
 21
94.66308757298448
 31
0.0
  0
ARC
  5
BD
330
1F
100
AcDbEntity
  8
1
  6
CONTINUOUS
 62
     7
100
AcDbCircle
 10
-471.4500000000002
 20
98.85000000000001
 30
0.0
 40
11.29999999999999
100
AcDbArc
 50
90.00000000000001
 51
179.9999999999964
  0
LINE
  5
BE
330
1F
100
AcDbEntity
  8
1
  6
CONTINUOUS
 62
     7
100
AcDbLine
 10
-446.1134613687981
 20
94.6630875729846
 30
0.0
 11
-446.0998227741761
 21
93.1220170340258
 31
0.0
  0
LINE
  5
BF
330
1F
100
AcDbEntity
  8
1
  6
CONTINUOUS
 62
     7
100
AcDbLine
 10
-446.1134613687981
 20
94.66308757298461
 30
0.0
 11
-446.1500000000002
 21
98.8500000000021
 31
0.0
  0
ARC
  5
C0
330
1F
100
AcDbEntity
  8
1
  6
CONTINUOUS
 62
     7
100
AcDbCircle
 10
-457.4500000000002
 20
98.85000000000001
 30
0.0
 40
11.29999999999998
100
AcDbArc
 50
0.0000000000106429
 51
90.00000000000001
  0
LINE
  5
C1
330
1F
100
AcDbEntity
  8
1
  6
CONTINUOUS
 62
     7
100
AcDbLine
 10
-457.4500000000002
 20
110.15
 30
0.0
 11
-471.4500000000002
 21
110.15
 31
0.0
  0
LINE
  5
C2
330
1F
100
AcDbEntity
  8
1
  6
CONTINUOUS
 62
     7
100
AcDbLine
 10
-483.9714070721332
 20
90.32859292786695
 30
0.0
 11
-484.3035533905934
 21
89.9964466094067
 31
0.0
  0
LINE
  5
C3
330
1F
100
AcDbEntity
  8
1
  6
CONTINUOUS
 62
     7
100
AcDbLine
 10
-492.9718171694769
 20
89.85000000000001
 30
0.0
 11
-492.3231242204222
 21
89.85000000000001
 31
0.0
  0
LINE
  5
C4
330
1F
100
AcDbEntity
  8
1
  6
CONTINUOUS
 62
     7
100
AcDbLine
 10
-492.3231242204222
 20
89.85000000000001
 30
0.0
 11
-489.4500000000002
 21
89.85000000000001
 31
0.0
  0
LINE
  5
C5
330
1F
100
AcDbEntity
  8
1
  6
CONTINUOUS
 62
     7
100
AcDbLine
 10
-431.45
 20
87.35000000000001
 30
0.0
 11
-422.4500000000001
 21
87.35000000000001
 31
0.0
  0
LINE
  5
C6
330
1F
100
AcDbEntity
  8
1
  6
CONTINUOUS
 62
     7
100
AcDbLine
 10
-432.4500000000001
 20
85.35000000000001
 30
0.0
 11
-431.4500000000001
 21
85.35000000000001
 31
0.0
  0
LINE
  5
C7
330
1F
100
AcDbEntity
  8
1
  6
CONTINUOUS
 62
     7
100
AcDbLine
 10
-431.45
 20
85.35000000000001
 30
0.0
 11
-421.4500000000001
 21
85.35000000000001
 31
0.0
  0
LINE
  5
C8
330
1F
100
AcDbEntity
  8
1
  6
CONTINUOUS
 62
     7
100
AcDbLine
 10
-432.4500000000001
 20
87.35000000000001
 30
0.0
 11
-431.4500000000001
 21
87.35000000000001
 31
0.0
  0
LINE
  5
C9
330
1F
100
AcDbEntity
  8
1
  6
CONTINUOUS
 62
     7
100
AcDbLine
 10
-506.9586513684422
 20
93.85
 30
0.0
 11
-503.2354526564599
 21
93.85
 31
0.0
  0
LINE
  5
CA
330
1F
100
AcDbEntity
  8
1
  6
CONTINUOUS
 62
     7
100
AcDbLine
 10
-495.9411902599902
 20
93.85
 30
0.0
 11
-491.9413486315579
 21
93.85
 31
0.0
  0
LINE
  5
CB
330
1F
100
AcDbEntity
  8
1
  6
CONTINUOUS
 62
     7
100
AcDbLine
 10
-435.915092528837
 20
91.35
 30
0.0
 11
-435.8990020722878
 21
91.35
 31
0.0
  0
LINE
  5
CC
330
1F
100
AcDbEntity
  8
1
  6
CONTINUOUS
 62
     7
100
AcDbLine
 10
-435.8990020722889
 20
91.34999999994987
 30
0.0
 11
-435.9055838521057
 21
90.34999999994513
 31
0.0
  0
LINE
  5
CD
330
1F
100
AcDbEntity
  8
1
  6
CONTINUOUS
 62
     7
100
AcDbLine
 10
-434.3581343977845
 20
90.35000000000001
 30
0.0
 11
-435.9055838521045
 21
90.35000000000001
 31
0.0
  0
LINE
  5
CE
330
1F
100
AcDbEntity
  8
1
  6
CONTINUOUS
 62
     7
100
AcDbLine
 10
-434.3581343977852
 20
90.34999999994014
 30
0.0
 11
-434.3324634231503
 21
91.34999999994044
 31
0.0
  0
LINE
  5
CF
330
1F
100
AcDbEntity
  8
1
  6
CONTINUOUS
 62
     7
100
AcDbLine
 10
-434.3324634231495
 20
91.35
 30
0.0
 11
-433.6878027712521
 21
91.35
 31
0.0
  0
LINE
  5
D0
330
1F
100
AcDbEntity
  8
1
  6
CONTINUOUS
 62
     7
100
AcDbLine
 10
-433.6878027712522
 20
91.34999999999346
 30
0.0
 11
-433.6714398388986
 21
90.34999999999437
 31
0.0
  0
LINE
  5
D1
330
1F
100
AcDbEntity
  8
1
  6
CONTINUOUS
 62
     7
100
AcDbLine
 10
-429.9355663791922
 20
90.35000000000001
 30
0.0
 11
-433.6714398388986
 21
90.35000000000001
 31
0.0
  0
LINE
  5
D2
330
1F
100
AcDbEntity
  8
1
  6
CONTINUOUS
 62
     7
100
AcDbLine
 10
-429.9355663791922
 20
90.34999999999339
 30
0.0
 11
-429.9058439185209
 21
91.34999999999343
 31
0.0
  0
LINE
  5
D3
330
1F
100
AcDbEntity
  8
1
  6
CONTINUOUS
 62
     7
100
AcDbLine
 10
-429.9058439185209
 20
91.35
 30
0.0
 11
-428.9941560814793
 21
91.35
 31
0.0
  0
LINE
  5
D4
330
1F
100
AcDbEntity
  8
1
  6
CONTINUOUS
 62
     7
100
AcDbLine
 10
-428.9941560814794
 20
91.34999999999602
 30
0.0
 11
-428.9644336208081
 21
90.34999999999756
 31
0.0
  0
LINE
  5
D5
330
1F
100
AcDbEntity
  8
1
  6
CONTINUOUS
 62
     7
100
AcDbLine
 10
-425.2285601611016
 20
90.35000000000001
 30
0.0
 11
-428.9644336208079
 21
90.35000000000001
 31
0.0
  0
LINE
  5
D6
330
1F
100
AcDbEntity
  8
1
  6
CONTINUOUS
 62
     7
100
AcDbLine
 10
-425.2285601611015
 20
90.34999999999329
 30
0.0
 11
-425.212197228748
 21
91.34999999999334
 31
0.0
  0
LINE
  5
D7
330
1F
100
AcDbEntity
  8
1
  6
CONTINUOUS
 62
     7
100
AcDbLine
 10
-425.212197228748
 20
91.35
 30
0.0
 11
-424.5675365768506
 21
91.35
 31
0.0
  0
LINE
  5
D8
330
1F
100
AcDbEntity
  8
1
  6
CONTINUOUS
 62
     7
100
AcDbLine
 10
-424.5675365768498
 20
91.3499999999376
 30
0.0
 11
-424.5418656022149
 21
90.34999999994136
 31
0.0
  0
LINE
  5
D9
330
1F
100
AcDbEntity
  8
1
  6
CONTINUOUS
 62
     7
100
AcDbLine
 10
-422.9944161478956
 20
90.35000000000001
 30
0.0
 11
-424.5418656022156
 21
90.35000000000001
 31
0.0
  0
LINE
  5
DA
330
1F
100
AcDbEntity
  8
1
  6
CONTINUOUS
 62
     7
100
AcDbLine
 10
-422.9944161478944
 20
90.3499999999403
 30
0.0
 11
-423.0009979277112
 21
91.34999999994044
 31
0.0
  0
LINE
  5
DB
330
1F
100
AcDbEntity
  8
1
  6
CONTINUOUS
 62
     7
100
AcDbLine
 10
-423.0009979277124
 20
91.35
 30
0.0
 11
-422.9849074711631
 21
91.35
 31
0.0
  0
LINE
  5
DC
330
1F
100
AcDbEntity
  8
1
  6
CONTINUOUS
 62
     7
100
AcDbLine
 10
-428.9941560814793
 20
91.35
 30
0.0
 11
-425.2121972287481
 21
91.35
 31
0.0
  0
LINE
  5
DD
330
1F
100
AcDbEntity
  8
1
  6
CONTINUOUS
 62
     7
100
AcDbLine
 10
-433.6878027712521
 20
91.35
 30
0.0
 11
-429.9058439185209
 21
91.35
 31
0.0
  0
LINE
  5
DE
330
1F
100
AcDbEntity
  8
1
  6
CONTINUOUS
 62
     7
100
AcDbLine
 10
-504.4755177166427
 20
99.85000000000001
 30
0.0
 11
-494.4244822833575
 21
99.85000000000001
 31
0.0
  0
LINE
  5
DF
330
1F
100
AcDbEntity
  8
1
  6
CONTINUOUS
 62
     7
100
AcDbLine
 10
-435.8990020722878
 20
91.35
 30
0.0
 11
-434.3324634231495
 21
91.35
 31
0.0
  0
LINE
  5
E0
330
1F
100
AcDbEntity
  8
1
  6
CONTINUOUS
 62
     7
100
AcDbLine
 10
-424.5675365768506
 20
91.35
 30
0.0
 11
-423.0009979277123
 21
91.35
 31
0.0
  0
LINE
  5
E1
330
1F
100
AcDbEntity
  8
1
  6
CONTINUOUS
 62
     7
100
AcDbLine
 10
-429.7343113221717
 20
98.35000000000001
 30
0.0
 11
-430.4445125060165
 21
98.35000000000001
 31
0.0
  0
LINE
  5
E2
330
1F
100
AcDbEntity
  8
1
  6
CONTINUOUS
 62
     7
100
AcDbLine
 10
-429.7280435458511
 20
91.35000000241882
 30
0.0
 11
-429.7343113221717
 21
98.35000000000001
 31
0.0
  0
LINE
  5
E3
330
1F
100
AcDbEntity
  8
1
  6
CONTINUOUS
 62
     7
100
AcDbLine
 10
-428.3529792574171
 20
98.35000000000001
 30
0.0
 11
-429.7343113221718
 21
98.35000000000001
 31
0.0
  0
LINE
  5
E4
330
1F
100
AcDbEntity
  8
1
  6
CONTINUOUS
 62
     7
100
AcDbLine
 10
-428.3014053870776
 20
91.35000002146607
 30
0.0
 11
-428.3529792574171
 21
98.35000000000001
 31
0.0
  0
LINE
  5
E5
330
1F
100
AcDbEntity
  8
1
  6
CONTINUOUS
 62
     7
100
AcDbLine
 10
-430.4445125060165
 20
98.35000000000001
 30
0.0
 11
-430.5179921725227
 21
98.35000000000001
 31
0.0
  0
LINE
  5
E6
330
1F
100
AcDbEntity
  8
1
  6
CONTINUOUS
 62
     7
100
AcDbLine
 10
-431.3516336272924
 20
91.35000002146607
 30
0.0
 11
-431.3266106276554
 21
98.35000000000001
 31
0.0
  0
LINE
  5
E7
330
1F
100
AcDbEntity
  8
1
  6
CONTINUOUS
 62
     7
100
AcDbLine
 10
-430.5179921725227
 20
98.35000000000001
 30
0.0
 11
-431.3266106276554
 21
98.35000000000001
 31
0.0
  0
LINE
  5
E8
330
1F
100
AcDbEntity
  8
1
  6
CONTINUOUS
 62
     7
100
AcDbLine
 10
-426.9309155681951
 20
98.35000000000001
 30
0.0
 11
-428.3529792574171
 21
98.35000000000001
 31
0.0
  0
LINE
  5
E9
330
1F
100
AcDbEntity
  8
1
  6
CONTINUOUS
 62
     7
100
AcDbLine
 10
-426.3185653891045
 20
98.35000000000001
 30
0.0
 11
-426.5020703120617
 21
98.35000000000001
 31
0.0
  0
LINE
  5
EA
330
1F
100
AcDbEntity
  8
1
  6
CONTINUOUS
 62
     7
100
AcDbLine
 10
-425.9210190305349
 20
91.35000000241882
 30
0.0
 11
-425.9816600908795
 21
98.35000000000001
 31
0.0
  0
LINE
  5
EB
330
1F
100
AcDbEntity
  8
1
  6
CONTINUOUS
 62
     7
100
AcDbLine
 10
-425.9816600908795
 20
98.35000000000001
 30
0.0
 11
-426.3185653891044
 21
98.35000000000001
 31
0.0
  0
LINE
  5
EC
330
1F
100
AcDbEntity
  8
1
  6
CONTINUOUS
 62
     7
100
AcDbLine
 10
-431.3266106276554
 20
98.35000000000001
 30
0.0
 11
-433.094053969609
 21
98.35000000000001
 31
0.0
  0
LINE
  5
ED
330
1F
100
AcDbEntity
  8
1
  6
CONTINUOUS
 62
     7
100
AcDbLine
 10
-425.9804611650486
 20
98.35000000000001
 30
0.0
 11
-425.9816600908795
 21
98.35000000000001
 31
0.0
  0
LINE
  5
EE
330
1F
100
AcDbEntity
  8
1
  6
CONTINUOUS
 62
     7
100
AcDbLine
 10
-426.7511317523947
 20
98.35000000000001
 30
0.0
 11
-426.4982836850116
 21
98.35000000000001
 31
0.0
  0
ARC
  5
EF
330
1F
100
AcDbEntity
  8
1
  6
CONTINUOUS
 62
     7
100
AcDbCircle
 10
-507.4499999999999
 20
88.85000000000001
 30
0.0
 40
1.000000000000002
100
AcDbArc
 50
99.1392135636838
 51
101.9078347863103
  0
ARC
  5
F0
330
1F
100
AcDbEntity
  8
1
  6
CONTINUOUS
 62
     7
100
AcDbCircle
 10
-507.4499999999999
 20
88.85000000000001
 30
0.0
 40
1.000000000000001
100
AcDbArc
 50
94.58543264829585
 51
99.1392135636838
  0
ARC
  5
F1
330
1F
100
AcDbEntity
  8
1
  6
CONTINUOUS
 62
     7
100
AcDbCircle
 10
-507.4499999999999
 20
88.85000000000001
 30
0.0
 40
1.000000000000001
100
AcDbArc
 50
90.0
 51
94.58543264829594
  0
LINE
  5
F2
330
1F
100
AcDbEntity
  8
1
  6
CONTINUOUS
 62
     7
100
AcDbLine
 10
-433.0940539696091
 20
98.35000000000001
 30
0.0
 11
-433.1960771418507
 21
98.35000000000001
 31
0.0
  0
LINE
  5
F3
330
1F
100
AcDbEntity
  8
1
  6
CONTINUOUS
 62
     7
100
AcDbLine
 10
-426.9309155681951
 20
98.35000000000001
 30
0.0
 11
-426.7511317523947
 21
98.35000000000001
 31
0.0
  0
LINE
  5
F4
330
1F
100
AcDbEntity
  8
1
  6
CONTINUOUS
 62
     7
100
AcDbLine
 10
-433.1960771418507
 20
98.35000000000001
 30
0.0
 11
-433.1961817514013
 21
98.35000000000001
 31
0.0
  0
ARC
  5
F5
330
1F
100
AcDbEntity
  8
1
  6
CONTINUOUS
 62
     7
100
AcDbCircle
 10
-471.4500000000002
 20
98.85000000000001
 30
0.0
 40
13.0
100
AcDbArc
 50
208.7768839745265
 51
216.128927471938
  0
LINE
  5
F6
330
1F
100
AcDbEntity
  8
1
  6
CONTINUOUS
 62
     7
100
AcDbLine
 10
-481.9500000000002
 20
91.18514514162207
 30
0.0
 11
-481.9500000000002
 21
90.66152889393237
 31
0.0
  0
ARC
  5
F7
330
1F
100
AcDbEntity
  8
1
  6
CONTINUOUS
 62
     7
100
AcDbCircle
 10
-482.9500000000002
 20
90.66152889393238
 30
0.0
 40
1.0
100
AcDbArc
 50
325.3933588902057
 51
0.0
  0
LINE
  5
F8
330
1F
100
AcDbEntity
  8
1
  6
CONTINUOUS
 62
     7
100
AcDbLine
 10
-482.1269294553273
 20
90.09358974358975
 30
0.0
 11
-484.8038566693605
 21
86.21412494744975
 31
0.0
  0
LINE
  5
F9
330
1F
100
AcDbEntity
  8
1
  6
CONTINUOUS
 62
     7
100
AcDbLine
 10
-441.9500000000002
 20
92.35000000000001
 30
0.0
 11
-436.9500000000002
 21
87.35000000000001
 31
0.0
  0
LINE
  5
FA
330
1F
100
AcDbEntity
  8
1
  6
CONTINUOUS
 62
     7
100
AcDbLine
 10
-490.9500000000002
 20
89.85000000000001
 30
0.0
 11
-487.3626289318646
 21
95.6794779857203
 31
0.0
  0
LINE
  5
FB
330
1F
100
AcDbEntity
  8
1
  6
CONTINUOUS
 62
     7
100
AcDbLine
 10
-487.3626289318646
 20
95.67947798572028
 30
0.0
 11
-486.9501469076387
 21
96.17269008512177
 31
0.0
  0
LINE
  5
FC
330
1F
100
AcDbEntity
  8
1
  6
CONTINUOUS
 62
     7
100
AcDbLine
 10
-492.95
 20
87.35000000000001
 30
0.0
 11
-492.9761806033723
 21
90.35000000000001
 31
0.0
  0
LINE
  5
FD
330
1F
100
AcDbEntity
  8
1
  6
CONTINUOUS
 62
     7
100
AcDbLine
 10
-505.9238193966278
 20
90.35000000000001
 30
0.0
 11
-505.9500000000001
 21
87.35000000000001
 31
0.0
  0
LINE
  5
FE
330
1F
100
AcDbEntity
  8
1
  6
CONTINUOUS
 62
     7
100
AcDbLine
 10
-500.5179921725227
 20
98.35000000000001
 30
0.0
 11
-500.5878071148487
 21
90.35000000000001
 31
0.0
  0
LINE
  5
FF
330
1F
100
AcDbEntity
  8
1
  6
CONTINUOUS
 62
     7
100
AcDbLine
 10
-496.5020703120617
 20
98.35000000000001
 30
0.0
 11
-496.5718852543878
 21
90.35000000000001
 31
0.0
  0
LINE
  5
100
330
1F
100
AcDbEntity
  8
1
  6
CONTINUOUS
 62
     7
100
AcDbLine
 10
-495.9106462227226
 20
90.35000000000001
 30
0.0
 11
-495.9804611650486
 21
98.35000000000002
 31
0.0
  0
LINE
  5
101
330
1F
100
AcDbEntity
  8
1
  6
CONTINUOUS
 62
     7
100
AcDbLine
 10
-503.1961817514015
 20
98.35000000000001
 30
0.0
 11
-503.2659966937274
 21
90.35000000000001
 31
0.0
  0
ARC
  5
102
330
1F
100
AcDbEntity
  8
1
  6
CONTINUOUS
 62
     7
100
AcDbCircle
 10
-422.4500000000001
 20
86.35000000000001
 30
0.0
 40
1.000000000000001
100
AcDbArc
 50
0.0
 51
90.0
  0
LINE
  5
103
330
1F
100
AcDbEntity
  8
1
  6
CONTINUOUS
 62
     7
100
AcDbLine
 10
-421.4500000000001
 20
85.35000000000001
 30
0.0
 11
-421.4500000000001
 21
86.35000000000001
 31
0.0
  0
LINE
  5
104
330
1F
100
AcDbEntity
  8
1
  6
CONTINUOUS
 62
     7
100
AcDbLine
 10
-491.3801797402872
 20
89.85000000000001
 30
0.0
 11
-491.4414247839797
 21
93.35872620321864
 31
0.0
  0
LINE
  5
105
330
1F
100
AcDbEntity
  8
1
  6
CONTINUOUS
 62
     7
100
AcDbLine
 10
-507.4585752160204
 20
93.35872620321864
 30
0.0
 11
-507.519820259713
 21
89.85000000000001
 31
0.0
  0
ARC
  5
106
330
1F
100
AcDbEntity
  8
1
  6
CONTINUOUS
 62
     7
100
AcDbCircle
 10
-491.9413486315579
 20
93.35
 30
0.0
 40
0.4999999999999986
100
AcDbArc
 50
0.9999999999986544
 51
90.0
  0
ARC
  5
107
330
1F
100
AcDbEntity
  8
1
  6
CONTINUOUS
 62
     7
100
AcDbCircle
 10
-506.9586513684422
 20
93.35
 30
0.0
 40
0.5000000000000004
100
AcDbArc
 50
90.0
 51
179.0000000000013
  0
LINE
  5
108
330
1F
100
AcDbEntity
  8
1
  6
CONTINUOUS
 62
     7
100
AcDbLine
 10
-422.95
 20
87.35000000000001
 30
0.0
 11
-422.9849074711631
 21
91.35000000000001
 31
0.0
  0
LINE
  5
109
330
1F
100
AcDbEntity
  8
1
  6
CONTINUOUS
 62
     7
100
AcDbLine
 10
-435.915092528837
 20
91.35
 30
0.0
 11
-435.95
 21
87.35
 31
0.0
  0
LINE
  5
10A
330
1F
100
AcDbEntity
  8
1
  6
CONTINUOUS
 62
     7
100
AcDbLine
 10
-493.6355533243018
 20
93.85
 30
0.0
 11
-493.9251675159802
 21
99.37616797812146
 31
0.0
  0
LINE
  5
10B
330
1F
100
AcDbEntity
  8
1
  6
CONTINUOUS
 62
     7
100
AcDbLine
 10
-504.9748324840198
 20
99.37616797812147
 30
0.0
 11
-505.2644466756985
 21
93.85000000000001
 31
0.0
  0
ARC
  5
10C
330
1F
100
AcDbEntity
  8
1
  6
CONTINUOUS
 62
     7
100
AcDbCircle
 10
-494.4244822833575
 20
99.35000000000001
 30
0.0
 40
0.5000000000000001
100
AcDbArc
 50
2.999999999999194
 51
90.00000000000004
  0
ARC
  5
10D
330
1F
100
AcDbEntity
  8
1
  6
CONTINUOUS
 62
     7
100
AcDbCircle
 10
-504.4755177166427
 20
99.35000000000001
 30
0.0
 40
0.5000000000000004
100
AcDbArc
 50
90.0
 51
177.0000000000009
  0
LINE
  5
10E
330
1F
100
AcDbEntity
  8
1
  6
CONTINUOUS
 62
     7
100
AcDbLine
 10
-430.5179921725227
 20
98.35000000000001
 30
0.0
 11
-430.579080247058
 21
91.35
 31
0.0
  0
LINE
  5
10F
330
1F
100
AcDbEntity
  8
1
  6
CONTINUOUS
 62
     7
100
AcDbLine
 10
-426.5020703120617
 20
98.35000000000001
 30
0.0
 11
-426.563158386597
 21
91.35
 31
0.0
  0
LINE
  5
110
330
1F
100
AcDbEntity
  8
1
  6
CONTINUOUS
 62
     7
100
AcDbLine
 10
-425.9193730905133
 20
91.35
 30
0.0
 11
-425.9804611650486
 21
98.35000000000001
 31
0.0
  0
LINE
  5
111
330
1F
100
AcDbEntity
  8
1
  6
CONTINUOUS
 62
     7
100
AcDbLine
 10
-433.1961817514013
 20
98.35000000000001
 30
0.0
 11
-433.2572698259366
 21
91.35
 31
0.0
  0
LINE
  5
112
330
1F
100
AcDbEntity
  8
1
  6
CONTINUOUS
 62
     7
100
AcDbLine
 10
-486.9500000000002
 20
131.0
 30
0.0
 11
-486.9500000000002
 21
161.3676082057945
 31
0.0
  0
LINE
  5
113
330
1F
100
AcDbEntity
  8
1
  6
CONTINUOUS
 62
     7
100
AcDbLine
 10
-441.9500000000002
 20
138.6323917942055
 30
0.0
 11
-441.9500000000002
 21
169.0
 31
0.0
  0
ARC
  5
114
330
1F
100
AcDbEntity
  8
1
  6
CONTINUOUS
 62
     7
100
AcDbCircle
 10
-464.4265547479605
 20
170.6855079845338
 30
0.0
 40
8.997828770177389
100
AcDbArc
 50
270.0122828270135
 51
320.8376650030002
  0
ARC
  5
115
330
1F
100
AcDbEntity
  8
1
  6
CONTINUOUS
 62
     7
100
AcDbCircle
 10
-464.4257141265128
 20
170.6848667732264
 30
0.0
 40
8.99677204856543
100
AcDbArc
 50
320.8374503879634
 51
333.5476496538964
  0
ARC
  5
116
330
1F
100
AcDbEntity
  8
1
  6
CONTINUOUS
 62
     7
100
AcDbCircle
 10
-464.4735649357328
 20
129.3147437854571
 30
0.0
 40
8.997576975330263
100
AcDbArc
 50
90.01152103548931
 51
140.8384267945234
  0
ARC
  5
117
330
1F
100
AcDbEntity
  8
1
  6
CONTINUOUS
 62
     7
100
AcDbCircle
 10
-464.4742767693215
 20
129.3151273578636
 30
0.0
 40
8.996782813897864
100
AcDbArc
 50
140.8374580236614
 51
153.5476420182003
  0
ARC
  5
118
330
1F
100
AcDbEntity
  8
1
  6
CONTINUOUS
 62
     7
100
AcDbCircle
 10
-477.8840864484679
 20
135.976306493547
 30
0.0
 40
5.976341227779462
100
AcDbArc
 50
270.1953435161538
 51
333.640247339386
  0
ARC
  5
119
330
1F
100
AcDbEntity
  8
1
  6
CONTINUOUS
 62
     7
100
AcDbCircle
 10
-451.0159135515325
 20
164.0236935064531
 30
0.0
 40
5.976341227779374
100
AcDbArc
 50
90.1953435161539
 51
153.6402473393864
  0
LINE
  5
11A
330
1F
100
AcDbEntity
  8
1
  6
CONTINUOUS
 62
     7
100
AcDbLine
 10
-444.4500000000002
 20
137.5
 30
0.0
 11
-444.4500000000002
 21
137.6310194482076
 31
0.0
  0
LWPOLYLINE
  5
11B
330
1F
100
AcDbEntity
  8
1
  6
CONTINUOUS
 62
     7
100
AcDbPolyline
 90
        9
 70
     0
 43
0.0
 10
-444.4500000000002
 20
137.6310194482076
 10
-444.6997913547581
 20
137.7639347051818
 10
-445.4395660773534
 20
137.8917421033703
 10
-446.6408950400671
 20
138.0095300761357
 10
-448.257611844575
 20
138.1127720977412
 10
-450.2275869707453
 20
138.197500635195
 10
-452.475115379254
 20
138.2604596183192
 10
-454.9138258137905
 20
138.2992295687002
 10
-457.4500000000002
 20
138.3123205788872
  0
LINE
  5
11C
330
1F
100
AcDbEntity
  8
1
  6
CONTINUOUS
 62
     7
100
AcDbLine
 10
-457.4500000000002
 20
138.3123205788871
 30
0.0
 11
-464.4753741685216
 21
138.3123205788871
 31
0.0
  0
LINE
  5
11D
330
1F
100
AcDbEntity
  8
1
  6
CONTINUOUS
 62
     7
100
AcDbLine
 10
-442.9500000000002
 20
137.5
 30
0.0
 11
-444.4500000000002
 21
137.5
 31
0.0
  0
LINE
  5
11E
330
1F
100
AcDbEntity
  8
1
  6
CONTINUOUS
 62
     7
100
AcDbLine
 10
-484.4500000000002
 20
162.5
 30
0.0
 11
-484.4500000000002
 21
162.3689805517924
 31
0.0
  0
LWPOLYLINE
  5
11F
330
1F
100
AcDbEntity
  8
1
  6
CONTINUOUS
 62
     7
100
AcDbPolyline
 90
        9
 70
     0
 43
0.0
 10
-484.4500000000002
 20
162.3689805517924
 10
-484.2002086452422
 20
162.2360652948182
 10
-483.460433922647
 20
162.1082578966298
 10
-482.2591049599333
 20
161.9904699238643
 10
-480.6423881554254
 20
161.8872279022589
 10
-478.672413029255
 20
161.802499364805
 10
-476.4248846207464
 20
161.7395403816808
 10
-473.9861741862099
 20
161.7007704312998
 10
-471.4500000000002
 20
161.6876794211129
  0
LINE
  5
120
330
1F
100
AcDbEntity
  8
1
  6
CONTINUOUS
 62
     7
100
AcDbLine
 10
-471.4500000000002
 20
161.6876794211129
 30
0.0
 11
-464.4246258314788
 21
161.6876794211129
 31
0.0
  0
LINE
  5
121
330
1F
100
AcDbEntity
  8
1
  6
CONTINUOUS
 62
     7
100
AcDbLine
 10
-485.9500000000002
 20
162.5
 30
0.0
 11
-484.4500000000002
 21
162.5
 31
0.0
  0
LINE
  5
122
330
1F
100
AcDbEntity
  8
1
  6
CONTINUOUS
 62
     7
100
AcDbLine
 10
-450.9992765135715
 20
170.0
 30
0.0
 11
-442.9500000000002
 21
170.0
 31
0.0
  0
ARC
  5
123
330
1F
100
AcDbEntity
  8
1
  6
CONTINUOUS
 62
     7
100
AcDbCircle
 10
-442.9500000000002
 20
169.0
 30
0.0
 40
1.000000000000001
100
AcDbArc
 50
0.0
 51
90.0
  0
LINE
  5
124
330
1F
100
AcDbEntity
  8
1
  6
CONTINUOUS
 62
     7
100
AcDbLine
 10
-477.9007234864288
 20
130.0
 30
0.0
 11
-485.9500000000002
 21
130.0
 31
0.0
  0
ARC
  5
125
330
1F
100
AcDbEntity
  8
1
  6
CONTINUOUS
 62
     7
100
AcDbCircle
 10
-485.9500000000002
 20
131.0
 30
0.0
 40
1.000000000000001
100
AcDbArc
 50
180.0
 51
270.0000000000007
  0
CIRCLE
  5
126
330
1F
100
AcDbEntity
  8
1
  6
CONTINUOUS
 62
     7
100
AcDbCircle
 10
-499.45
 20
160.0
 30
0.0
 40
5.814446675698193
  0
LINE
  5
127
330
1F
100
AcDbEntity
  8
1
  6
CONTINUOUS
 62
     7
100
AcDbLine
 10
-486.9500000000002
 20
161.3676082057945
 30
0.0
 11
-486.9500000000002
 21
161.5510354332851
 31
0.0
  0
LWPOLYLINE
  5
128
330
1F
100
AcDbEntity
  8
1
  6
CONTINUOUS
 62
     7
100
AcDbPolyline
 90
       33
 70
     0
 43
0.0
 10
486.9500000000002
 20
161.5510354332851
 10
486.9487954562053
 20
161.597598917593
 10
486.9451847266724
 20
161.6440502263886
 10
486.939176509965
 20
161.6902774544005
 10
486.9307852804034
 20
161.7361692361874
 10
486.9200312531947
 20
161.7816150144273
 10
486.9069403357324
 20
161.8265053062599
 10
486.8915440651832
 20
161.8707319670401
 10
486.8738795325115
 20
161.9141884508684
 10
486.8539892931236
 20
161.9567700672689
 10
486.8319212643485
 20
161.998374233398
 10
486.8077286100004
 20
162.0389007211754
 10
486.7814696123027
 20
162.0782518987423
 10
486.7532075314808
 20
162.1163329656652
 10
486.7230104533629
 20
162.1530521813183
 10
486.6909511253551
 20
162.188321085895
 10
486.6571067811867
 20
162.222054713515
 10
486.6215589548472
 20
162.2541717969145
 10
486.5843932841638
 20
162.2845949632266
 10
486.5456993044926
 20
162.3132509203788
 10
486.5055702330197
 20
162.3400706336604
 10
486.4641027441934
 20
162.364989492033
 10
486.4213967368261
 20
162.3879474637841
 10
486.3775550934304
 20
162.4088892411489
 10
486.3326834323652
 20
162.4277643735515
 10
486.2868898533924
 20
162.4445273891445
 10
486.2402846772546
 20
162.4591379043553
 10
486.1929801799034
 20
162.4715607211728
 10
486.1450903220163
 20
162.4817659119433
 10
486.0967304744556
 20
162.4897288914684
 10
486.0480171403298
 20
162.4954304762329
 10
485.9990676743276
 20
162.4988569306197
 10
485.9500000000002
 20
162.5
210
0.0
220
0.0
230
-1.0
  0
LINE
  5
129
330
1F
100
AcDbEntity
  8
1
  6
CONTINUOUS
 62
     7
100
AcDbLine
 10
-441.9500000000002
 20
138.6323917942055
 30
0.0
 11
-441.9500000000002
 21
138.4489645667149
 31
0.0
  0
LWPOLYLINE
  5
12A
330
1F
100
AcDbEntity
  8
1
  6
CONTINUOUS
 62
     7
100
AcDbPolyline
 90
       33
 70
     0
 43
0.0
 10
-442.9500000000002
 20
137.5
 10
-442.9009323256728
 20
137.5011430693804
 10
-442.8519828596706
 20
137.5045695237671
 10
-442.8032695255448
 20
137.5102711085316
 10
-442.7549096779841
 20
137.5182340880567
 10
-442.7070198200969
 20
137.5284392788272
 10
-442.6597153227457
 20
137.5408620956447
 10
-442.613110146608
 20
137.5554726108555
 10
-442.5673165676351
 20
137.5722356264485
 10
-442.5224449065699
 20
137.5911107588511
 10
-442.4786032631742
 20
137.6120525362159
 10
-442.435897255807
 20
137.635010507967
 10
-442.3944297669806
 20
137.6599293663396
 10
-442.3543006955078
 20
137.6867490796212
 10
-442.3156067158366
 20
137.7154050367734
 10
-442.2784410451532
 20
137.7458282030855
 10
-442.2428932188137
 20
137.777945286485
 10
-442.2090488746452
 20
137.811678914105
 10
-442.1769895466375
 20
137.8469478186817
 10
-442.1467924685195
 20
137.8836670343348
 10
-442.1185303876977
 20
137.9217481012577
 10
-442.09227139
 20
137.9610992788246
 10
-442.0680787356519
 20
138.001625766602
 10
-442.0460107068768
 20
138.0432299327311
 10
-442.0261204674889
 20
138.0858115491316
 10
-442.0084559348172
 20
138.1292680329599
 10
-441.993059664268
 20
138.1734946937401
 10
-441.9799687468056
 20
138.2183849855727
 10
-441.969214719597
 20
138.2638307638126
 10
-441.9608234900354
 20
138.3097225455995
 10
-441.954815273328
 20
138.3559497736114
 10
-441.951204543795
 20
138.4024010824071
 10
-441.9500000000002
 20
138.4489645667149
  0
ARC
  5
12B
330
1F
100
AcDbEntity
  8
1
  6
CONTINUOUS
 62
     7
100
AcDbCircle
 10
-499.45
 20
138.5
 30
0.0
 40
2.67099554569833
100
AcDbArc
 50
224.1677565069252
 51
276.0379829668
  0
ARC
  5
12C
330
1F
100
AcDbEntity
  8
1
  6
CONTINUOUS
 62
     7
100
AcDbCircle
 10
-500.2861230628457
 20
136.6831625764043
 30
0.0
 40
2.095995545698421
100
AcDbArc
 50
285.5424212839729
 51
343.9242205568318
  0
ARC
  5
12D
330
1F
100
AcDbEntity
  8
1
  6
CONTINUOUS
 62
     7
100
AcDbCircle
 10
-500.4179921725227
 20
134.9806973483466
 30
0.0
 40
0.1959955456983489
100
AcDbArc
 50
106.0160053866601
 51
254.6209646607273
  0
ARC
  5
12E
330
1F
100
AcDbEntity
  8
1
  6
CONTINUOUS
 62
     7
100
AcDbCircle
 10
-499.45
 20
138.5
 30
0.0
 40
3.845995545698338
100
AcDbArc
 50
254.6209646607257
 51
265.9071914951129
  0
ARC
  5
12F
330
1F
100
AcDbEntity
  8
1
  6
CONTINUOUS
 62
     7
100
AcDbCircle
 10
-500.2861230628457
 20
136.6831625764043
 30
0.0
 40
1.404004454301666
100
AcDbArc
 50
286.016005386661
 51
322.9599334811436
  0
LINE
  5
130
330
1F
100
AcDbEntity
  8
1
  6
CONTINUOUS
 62
     7
100
AcDbLine
 10
-500.4720684941408
 20
135.1690852603098
 30
0.0
 11
-499.8987499919245
 21
135.333655032289
 31
0.0
  0
CIRCLE
  5
131
330
1F
100
AcDbEntity
  8
1
  6
CONTINUOUS
 62
     7
100
AcDbCircle
 10
-499.4500000000001
 20
138.5
 30
0.0
 40
1.929820677897154
  0
ARC
  5
132
330
1F
100
AcDbEntity
  8
1
  6
CONTINUOUS
 62
     7
100
AcDbCircle
 10
-499.1686228048814
 20
135.839839878115
 30
0.0
 40
0.0040044543016709
100
AcDbArc
 50
322.9599334811009
 51
96.0379829668343
  0
LINE
  5
133
330
1F
100
AcDbEntity
  8
1
  6
CONTINUOUS
 62
     7
100
AcDbLine
 10
-426.5979483656988
 20
157.9986458371692
 30
0.0
 11
-426.5772983593505
 21
158.5947589909165
 31
0.0
  0
ARC
  5
134
330
1F
100
AcDbEntity
  8
1
  6
CONTINUOUS
 62
     7
100
AcDbCircle
 10
-429.8414724761718
 20
161.9613131571475
 30
0.0
 40
2.095995545698332
100
AcDbArc
 50
141.542421283973
 51
199.9242205568319
  0
ARC
  5
135
330
1F
100
AcDbEntity
  8
1
  6
CONTINUOUS
 62
     7
100
AcDbCircle
 10
-497.7056519893666
 20
139.4783915462631
 30
0.0
 40
1.404004454301647
100
AcDbArc
 50
70.01600538666098
 51
106.9599334811433
  0
ARC
  5
136
330
1F
100
AcDbEntity
  8
1
  6
CONTINUOUS
 62
     7
100
AcDbCircle
 10
-500.735472079003
 20
141.9161471768798
 30
0.0
 40
0.1959955456983356
100
AcDbArc
 50
322.0160053866603
 51
110.6209646607271
  0
ARC
  5
137
330
1F
100
AcDbEntity
  8
1
  6
CONTINUOUS
 62
     7
100
AcDbCircle
 10
-496.4020703120617
 20
136.4918604088899
 30
0.0
 40
0.1959955456983681
100
AcDbArc
 50
178.0160053866607
 51
326.620964660726
  0
ARC
  5
138
330
1F
100
AcDbEntity
  8
1
  6
CONTINUOUS
 62
     7
100
AcDbCircle
 10
-497.9804611650486
 20
137.1433660727486
 30
0.0
 40
2.095995545698337
100
AcDbArc
 50
357.5424212839729
 51
55.92422055683187
  0
LINE
  5
139
330
1F
100
AcDbEntity
  8
1
  6
CONTINUOUS
 62
     7
100
AcDbLine
 10
-502.9337247025107
 20
138.4427356400742
 30
0.0
 11
-502.6000443881102
 21
137.9483321989309
 31
0.0
  0
ARC
  5
13A
330
1F
100
AcDbEntity
  8
1
  6
CONTINUOUS
 62
     7
100
AcDbCircle
 10
-499.45
 20
138.5
 30
0.0
 40
3.845995545698301
100
AcDbArc
 50
326.6209646607256
 51
337.9071914951128
  0
ARC
  5
13B
330
1F
100
AcDbEntity
  8
1
  6
CONTINUOUS
 62
     7
100
AcDbCircle
 10
-503.0961817514012
 20
138.3330909356906
 30
0.0
 40
0.1959955456983237
100
AcDbArc
 50
34.01600538666128
 51
182.6209646607258
  0
ARC
  5
13C
330
1F
100
AcDbEntity
  8
1
  6
CONTINUOUS
 62
     7
100
AcDbCircle
 10
-499.45
 20
138.5
 30
0.0
 40
3.845995545698369
100
AcDbArc
 50
182.6209646607257
 51
193.9071914951129
  0
CIRCLE
  5
13D
330
1F
100
AcDbEntity
  8
1
  6
CONTINUOUS
 62
     7
100
AcDbCircle
 10
-429.45
 20
160.0
 30
0.0
 40
1.929820677897098
  0
ARC
  5
13E
330
1F
100
AcDbEntity
  8
1
  6
CONTINUOUS
 62
     7
100
AcDbCircle
 10
-501.4362913065676
 20
138.7337666474365
 30
0.0
 40
2.095995545698365
100
AcDbArc
 50
213.5424212839729
 51
271.924220556832
  0
ARC
  5
13F
330
1F
100
AcDbEntity
  8
1
  6
CONTINUOUS
 62
     7
100
AcDbCircle
 10
-496.5982836850116
 20
140.7782041301931
 30
0.0
 40
0.1959955456983366
100
AcDbArc
 50
250.0160053866608
 51
38.62096466072472
  0
ARC
  5
140
330
1F
100
AcDbEntity
  8
1
  6
CONTINUOUS
 62
     7
100
AcDbCircle
 10
-497.9804611650486
 20
137.1433660727486
 30
0.0
 40
1.404004454301654
100
AcDbArc
 50
358.0160053866609
 51
34.95993348114354
  0
LINE
  5
141
330
1F
100
AcDbEntity
  8
1
  6
CONTINUOUS
 62
     7
100
AcDbLine
 10
-432.9337247025107
 20
159.9427356400742
 30
0.0
 11
-432.6000443881102
 21
159.4483321989309
 31
0.0
  0
ARC
  5
142
330
1F
100
AcDbEntity
  8
1
  6
CONTINUOUS
 62
     7
100
AcDbCircle
 10
-429.8414724761718
 20
161.9613131571475
 30
0.0
 40
1.404004454301675
100
AcDbArc
 50
142.0160053866609
 51
178.9599334811435
  0
ARC
  5
143
330
1F
100
AcDbEntity
  8
1
  6
CONTINUOUS
 62
     7
100
AcDbCircle
 10
-427.7056519893666
 20
160.9783915462631
 30
0.0
 40
1.404004454301647
100
AcDbArc
 50
70.01600538666098
 51
106.9599334811433
  0
LINE
  5
144
330
1F
100
AcDbEntity
  8
1
  6
CONTINUOUS
 62
     7
100
AcDbLine
 10
-500.5809917794586
 20
141.7955234189121
 30
0.0
 11
-500.9480845059986
 21
141.3253955161513
 31
0.0
  0
LINE
  5
145
330
1F
100
AcDbEntity
  8
1
  6
CONTINUOUS
 62
     7
100
AcDbLine
 10
-426.6652666581915
 20
162.0940098435347
 30
0.0
 11
-427.2258227546166
 21
162.2978582617122
 31
0.0
  0
ARC
  5
146
330
1F
100
AcDbEntity
  8
1
  6
CONTINUOUS
 62
     7
100
AcDbCircle
 10
-498.1140360443
 20
140.8175041119856
 30
0.0
 40
0.0040044543016488
100
AcDbArc
 50
106.9599334811052
 51
240.0379829668063
  0
ARC
  5
147
330
1F
100
AcDbEntity
  8
1
  6
CONTINUOUS
 62
     7
100
AcDbCircle
 10
-429.4500000000001
 20
160.0
 30
0.0
 40
3.845995545698382
100
AcDbArc
 50
38.62096466072546
 51
49.9071914951129
  0
ARC
  5
148
330
1F
100
AcDbEntity
  8
1
  6
CONTINUOUS
 62
     7
100
AcDbCircle
 10
-499.45
 20
138.5
 30
0.0
 40
2.670995545698386
100
AcDbArc
 50
152.1677565069254
 51
204.0379829667999
  0
ARC
  5
149
330
1F
100
AcDbEntity
  8
1
  6
CONTINUOUS
 62
     7
100
AcDbCircle
 10
-501.8930122831862
 20
137.4103596996246
 30
0.0
 40
0.0040044543016681
100
AcDbArc
 50
250.9599334811965
 51
24.03798296678099
  0
ARC
  5
14A
330
1F
100
AcDbEntity
  8
1
  6
CONTINUOUS
 62
     7
100
AcDbCircle
 10
-429.4500000000001
 20
160.0
 30
0.0
 40
2.670995545698335
100
AcDbArc
 50
8.167756506925402
 51
60.03798296680002
  0
ARC
  5
14B
330
1F
100
AcDbEntity
  8
1
  6
CONTINUOUS
 62
     7
100
AcDbCircle
 10
-431.2412418210611
 20
161.9867253807413
 30
0.0
 40
0.0040044543016401
100
AcDbArc
 50
178.9599334811371
 51
312.0379829668942
  0
ARC
  5
14C
330
1F
100
AcDbEntity
  8
1
  6
CONTINUOUS
 62
     7
100
AcDbCircle
 10
-501.4362913065676
 20
138.7337666474365
 30
0.0
 40
1.40400445430165
100
AcDbArc
 50
214.016005386661
 51
250.9599334811437
  0
ARC
  5
14D
330
1F
100
AcDbEntity
  8
1
  6
CONTINUOUS
 62
     7
100
AcDbCircle
 10
-499.8414724761718
 20
140.4613131571475
 30
0.0
 40
1.404004454301702
100
AcDbArc
 50
142.0160053866609
 51
178.9599334811435
  0
ARC
  5
14E
330
1F
100
AcDbEntity
  8
1
  6
CONTINUOUS
 62
     7
100
AcDbCircle
 10
-429.4500000000001
 20
160.0
 30
0.0
 40
3.845995545698331
100
AcDbArc
 50
110.6209646607257
 51
121.9071914951129
  0
ARC
  5
14F
330
1F
100
AcDbEntity
  8
1
  6
CONTINUOUS
 62
     7
100
AcDbCircle
 10
-431.4362913065677
 20
160.2337666474365
 30
0.0
 40
2.095995545698336
100
AcDbArc
 50
213.5424212839729
 51
271.924220556832
  0
ARC
  5
150
330
1F
100
AcDbEntity
  8
1
  6
CONTINUOUS
 62
     7
100
AcDbCircle
 10
-427.7056519893666
 20
160.9783915462631
 30
0.0
 40
2.095995545698349
100
AcDbArc
 50
69.54242128397287
 51
127.9242205568319
  0
ARC
  5
151
330
1F
100
AcDbEntity
  8
1
  6
CONTINUOUS
 62
     7
100
AcDbCircle
 10
-497.7056519893666
 20
139.4783915462631
 30
0.0
 40
2.095995545698349
100
AcDbArc
 50
69.54242128397287
 51
127.9242205568319
  0
LINE
  5
152
330
1F
100
AcDbEntity
  8
1
  6
CONTINUOUS
 62
     7
100
AcDbLine
 10
-496.5979483656988
 20
136.4986458371692
 30
0.0
 11
-496.5772983593505
 21
137.0947589909165
 31
0.0
  0
ARC
  5
153
330
1F
100
AcDbEntity
  8
1
  6
CONTINUOUS
 62
     7
100
AcDbCircle
 10
-431.4362913065677
 20
160.2337666474365
 30
0.0
 40
1.40400445430165
100
AcDbArc
 50
214.016005386661
 51
250.9599334811437
  0
ARC
  5
154
330
1F
100
AcDbEntity
  8
1
  6
CONTINUOUS
 62
     7
100
AcDbCircle
 10
-428.1140360443001
 20
162.3175041119856
 30
0.0
 40
0.0040044543016488
100
AcDbArc
 50
106.9599334811052
 51
240.0379829668063
  0
ARC
  5
155
330
1F
100
AcDbEntity
  8
1
  6
CONTINUOUS
 62
     7
100
AcDbCircle
 10
-429.4500000000001
 20
160.0
 30
0.0
 40
3.845995545698321
100
AcDbArc
 50
182.6209646607257
 51
193.9071914951129
  0
ARC
  5
156
330
1F
100
AcDbEntity
  8
1
  6
CONTINUOUS
 62
     7
100
AcDbCircle
 10
-499.45
 20
138.5
 30
0.0
 40
2.670995545698331
100
AcDbArc
 50
8.167756506925402
 51
60.03798296680002
  0
ARC
  5
157
330
1F
100
AcDbEntity
  8
1
  6
CONTINUOUS
 62
     7
100
AcDbCircle
 10
-427.9804611650486
 20
158.6433660727486
 30
0.0
 40
1.404004454301655
100
AcDbArc
 50
358.0160053866609
 51
34.95993348114354
  0
ARC
  5
158
330
1F
100
AcDbEntity
  8
1
  6
CONTINUOUS
 62
     7
100
AcDbCircle
 10
-429.1686228048814
 20
157.339839878115
 30
0.0
 40
0.0040044543016542
100
AcDbArc
 50
322.9599334811009
 51
96.03798296683561
  0
ARC
  5
159
330
1F
100
AcDbEntity
  8
1
  6
CONTINUOUS
 62
     7
100
AcDbCircle
 10
-499.8414724761718
 20
140.4613131571475
 30
0.0
 40
2.095995545698385
100
AcDbArc
 50
141.542421283973
 51
199.9242205568319
  0
LINE
  5
15A
330
1F
100
AcDbEntity
  8
1
  6
CONTINUOUS
 62
     7
100
AcDbLine
 10
-430.4720684941408
 20
156.6690852603097
 30
0.0
 11
-429.8987499919245
 21
156.833655032289
 31
0.0
  0
ARC
  5
15B
330
1F
100
AcDbEntity
  8
1
  6
CONTINUOUS
 62
     7
100
AcDbCircle
 10
-430.2861230628456
 20
158.1831625764043
 30
0.0
 40
2.095995545698367
100
AcDbArc
 50
285.5424212839729
 51
343.9242205568318
  0
ARC
  5
15C
330
1F
100
AcDbEntity
  8
1
  6
CONTINUOUS
 62
     7
100
AcDbCircle
 10
-501.2412418210612
 20
140.4867253807413
 30
0.0
 40
0.0040044543015846
100
AcDbArc
 50
178.9599334811371
 51
312.0379829668942
  0
ARC
  5
15D
330
1F
100
AcDbEntity
  8
1
  6
CONTINUOUS
 62
     7
100
AcDbCircle
 10
-426.8330870465716
 20
159.4455709295334
 30
0.0
 40
0.0040044543016336
100
AcDbArc
 50
34.95993348116533
 51
168.0379829668053
  0
ARC
  5
15E
330
1F
100
AcDbEntity
  8
1
  6
CONTINUOUS
 62
     7
100
AcDbCircle
 10
-430.735472079003
 20
163.4161471768798
 30
0.0
 40
0.1959955456983552
100
AcDbArc
 50
322.0160053866603
 51
110.6209646607271
  0
LINE
  5
15F
330
1F
100
AcDbEntity
  8
1
  6
CONTINUOUS
 62
     7
100
AcDbLine
 10
-430.5809917794585
 20
163.2955234189121
 30
0.0
 11
-430.9480845059985
 21
162.8253955161514
 31
0.0
  0
ARC
  5
160
330
1F
100
AcDbEntity
  8
1
  6
CONTINUOUS
 62
     7
100
AcDbCircle
 10
-427.9804611650486
 20
158.6433660727486
 30
0.0
 40
2.095995545698337
100
AcDbArc
 50
357.5424212839729
 51
55.92422055683187
  0
LINE
  5
161
330
1F
100
AcDbEntity
  8
1
  6
CONTINUOUS
 62
     7
100
AcDbLine
 10
-496.6652666581915
 20
140.5940098435347
 30
0.0
 11
-497.2258227546166
 21
140.7978582617122
 31
0.0
  0
ARC
  5
162
330
1F
100
AcDbEntity
  8
1
  6
CONTINUOUS
 62
     7
100
AcDbCircle
 10
-429.4500000000001
 20
160.0
 30
0.0
 40
3.845995545698363
100
AcDbArc
 50
326.6209646607256
 51
337.9071914951128
  0
ARC
  5
163
330
1F
100
AcDbEntity
  8
1
  6
CONTINUOUS
 62
     7
100
AcDbCircle
 10
-430.2861230628456
 20
158.1831625764043
 30
0.0
 40
1.404004454301678
100
AcDbArc
 50
286.016005386661
 51
322.9599334811435
  0
ARC
  5
164
330
1F
100
AcDbEntity
  8
1
  6
CONTINUOUS
 62
     7
100
AcDbCircle
 10
-429.4500000000001
 20
160.0
 30
0.0
 40
2.67099554569832
100
AcDbArc
 50
80.16775650692551
 51
132.0379829667999
  0
ARC
  5
165
330
1F
100
AcDbEntity
  8
1
  6
CONTINUOUS
 62
     7
100
AcDbCircle
 10
-499.45
 20
138.5
 30
0.0
 40
2.670995545698341
100
AcDbArc
 50
80.16775650692551
 51
132.0379829667999
  0
ARC
  5
166
330
1F
100
AcDbEntity
  8
1
  6
CONTINUOUS
 62
     7
100
AcDbCircle
 10
-433.0961817514013
 20
159.8330909356906
 30
0.0
 40
0.1959955456983778
100
AcDbArc
 50
34.01600538666128
 51
182.6209646607258
  0
ARC
  5
167
330
1F
100
AcDbEntity
  8
1
  6
CONTINUOUS
 62
     7
100
AcDbCircle
 10
-430.4179921725228
 20
156.4806973483466
 30
0.0
 40
0.1959955456983609
100
AcDbArc
 50
106.0160053866602
 51
254.6209646607273
  0
ARC
  5
168
330
1F
100
AcDbEntity
  8
1
  6
CONTINUOUS
 62
     7
100
AcDbCircle
 10
-426.4020703120617
 20
157.9918604088899
 30
0.0
 40
0.1959955456983217
100
AcDbArc
 50
178.0160053866607
 51
326.620964660726
  0
ARC
  5
169
330
1F
100
AcDbEntity
  8
1
  6
CONTINUOUS
 62
     7
100
AcDbCircle
 10
-426.5982836850116
 20
162.278204130193
 30
0.0
 40
0.1959955456983366
100
AcDbArc
 50
250.0160053866608
 51
38.62096466072472
  0
ARC
  5
16A
330
1F
100
AcDbEntity
  8
1
  6
CONTINUOUS
 62
     7
100
AcDbCircle
 10
-499.45
 20
138.5
 30
0.0
 40
3.845995545698384
100
AcDbArc
 50
110.6209646607257
 51
121.9071914951129
  0
ARC
  5
16B
330
1F
100
AcDbEntity
  8
1
  6
CONTINUOUS
 62
     7
100
AcDbCircle
 10
-496.8330870465716
 20
137.9455709295334
 30
0.0
 40
0.0040044543016336
100
AcDbArc
 50
34.95993348116533
 51
168.0379829668053
  0
ARC
  5
16C
330
1F
100
AcDbEntity
  8
1
  6
CONTINUOUS
 62
     7
100
AcDbCircle
 10
-429.4500000000001
 20
160.0
 30
0.0
 40
2.670995545698355
100
AcDbArc
 50
296.1677565069253
 51
348.0379829668
  0
ARC
  5
16D
330
1F
100
AcDbEntity
  8
1
  6
CONTINUOUS
 62
     7
100
AcDbCircle
 10
-499.45
 20
138.5
 30
0.0
 40
3.84599554569831
100
AcDbArc
 50
38.62096466072546
 51
49.9071914951129
  0
ARC
  5
16E
330
1F
100
AcDbEntity
  8
1
  6
CONTINUOUS
 62
     7
100
AcDbCircle
 10
-429.4500000000001
 20
160.0
 30
0.0
 40
2.670995545698363
100
AcDbArc
 50
224.1677565069252
 51
276.0379829668
  0
ARC
  5
16F
330
1F
100
AcDbEntity
  8
1
  6
CONTINUOUS
 62
     7
100
AcDbCircle
 10
-429.4500000000001
 20
160.0
 30
0.0
 40
2.670995545698296
100
AcDbArc
 50
152.1677565069254
 51
204.0379829667999
  0
ARC
  5
170
330
1F
100
AcDbEntity
  8
1
  6
CONTINUOUS
 62
     7
100
AcDbCircle
 10
-429.4500000000001
 20
160.0
 30
0.0
 40
3.845995545698358
100
AcDbArc
 50
254.6209646607257
 51
265.9071914951129
  0
ARC
  5
171
330
1F
100
AcDbEntity
  8
1
  6
CONTINUOUS
 62
     7
100
AcDbCircle
 10
-431.8930122831861
 20
158.9103596996246
 30
0.0
 40
0.0040044543016762
100
AcDbArc
 50
250.9599334811965
 51
24.03798296678099
  0
ARC
  5
172
330
1F
100
AcDbEntity
  8
1
  6
CONTINUOUS
 62
     7
100
AcDbCircle
 10
-499.45
 20
138.5
 30
0.0
 40
2.670995545698295
100
AcDbArc
 50
296.1677565069253
 51
348.0379829668
  0
LINE
  5
173
330
1F
100
AcDbEntity
  8
1
  6
CONTINUOUS
 62
     7
100
AcDbLine
 10
-444.4500000000002
 20
137.5
 30
0.0
 11
-445.3772467902998
 21
137.3783257335475
 31
0.0
  0
LINE
  5
174
330
1F
100
AcDbEntity
  8
1
  6
CONTINUOUS
 62
     7
100
AcDbLine
 10
-444.4500000000002
 20
137.5
 30
0.0
 11
-444.4500000000001
 21
132.0
 31
0.0
  0
LWPOLYLINE
  5
175
330
1F
100
AcDbEntity
  8
1
  6
CONTINUOUS
 62
     7
100
AcDbPolyline
 90
        9
 70
     0
 43
0.0
 10
-445.2487711213519
 20
130.0
 10
-445.0929386060702
 20
130.0384294391935
 10
-444.9430946469589
 20
130.1522409349774
 10
-444.8049976633332
 20
130.3370607753949
 10
-444.6839546448281
 20
130.5857864376269
 10
-444.5846172067631
 20
130.8888595339608
 10
-444.5108028311739
 20
131.2346331352698
 10
-444.4653481631189
 20
131.6098193559677
 10
-444.4500000000002
 20
132.0
  0
LINE
  5
176
330
1F
100
AcDbEntity
  8
1
  6
CONTINUOUS
 62
     7
100
AcDbLine
 10
-445.2487711213519
 20
130.0
 30
0.0
 11
-445.3772467902998
 21
130.0
 31
0.0
  0
LINE
  5
177
330
1F
100
AcDbEntity
  8
1
  6
CONTINUOUS
 62
     7
100
AcDbLine
 10
-441.9500000000002
 20
138.4489645667149
 30
0.0
 11
-441.9500000000002
 21
132.0
 31
0.0
  0
ARC
  5
178
330
1F
100
AcDbEntity
  8
1
  6
CONTINUOUS
 62
     7
100
AcDbCircle
 10
-442.9500000000002
 20
131.0
 30
0.0
 40
1.000000000000001
100
AcDbArc
 50
269.9999999999999
 51
0.0000000000001705
  0
LINE
  5
179
330
1F
100
AcDbEntity
  8
1
  6
CONTINUOUS
 62
     7
100
AcDbLine
 10
-441.9500000000002
 20
132.0
 30
0.0
 11
-441.9500000000002
 21
131.0
 31
0.0
  0
LINE
  5
17A
330
1F
100
AcDbEntity
  8
1
  6
CONTINUOUS
 62
     7
100
AcDbLine
 10
-442.9500000000002
 20
130.0
 30
0.0
 11
-445.2487711213519
 21
130.0
 31
0.0
  0
ARC
  5
17B
330
1F
100
AcDbEntity
  8
1
  6
CONTINUOUS
 62
     7
100
AcDbCircle
 10
-483.9715693754076
 20
177.6488940585575
 30
0.0
 40
10.21902996599309
100
AcDbArc
 50
254.1794117158238
 51
258.8368979086392
  0
LWPOLYLINE
  5
17C
330
1F
100
AcDbEntity
  8
1
  6
CONTINUOUS
 62
     7
100
AcDbPolyline
 90
        4
 70
     0
 43
0.0
 10
-486.7575425006127
 20
167.8169600071361
 10
-486.8645459977408
 20
167.8090621348593
 10
-486.9466683054209
 20
167.7360632536267
 10
-486.9500000000002
 20
167.7122063754197
  0
LINE
  5
17D
330
1F
100
AcDbEntity
  8
1
  6
CONTINUOUS
 62
     7
100
AcDbLine
 10
-486.9500000000002
 20
161.5510354332851
 30
0.0
 11
-486.9500000000002
 21
167.7122063754197
 31
0.0
  0
LINE
  5
17E
330
1F
100
AcDbEntity
  8
1
  6
CONTINUOUS
 62
     7
100
AcDbLine
 10
-484.4500000000002
 20
162.5
 30
0.0
 11
-484.4500000000003
 21
168.0
 31
0.0
  0
LWPOLYLINE
  5
17F
330
1F
100
AcDbEntity
  8
1
  6
CONTINUOUS
 62
     7
100
AcDbPolyline
 90
        3
 70
     0
 43
0.0
 10
-486.3912048059637
 20
167.7570633100753
 10
-486.1787450708244
 20
167.6710882042523
 10
-485.9500000000002
 20
167.6232077623711
  0
LINE
  5
180
330
1F
100
AcDbEntity
  8
1
  6
CONTINUOUS
 62
     7
100
AcDbLine
 10
-484.4500000000002
 20
162.5
 30
0.0
 11
-483.5227532097006
 21
162.6216742664524
 31
0.0
  0
LWPOLYLINE
  5
181
330
1F
100
AcDbEntity
  8
1
  6
CONTINUOUS
 62
     7
100
AcDbPolyline
 90
        9
 70
     0
 43
0.0
 10
-483.6512288786485
 20
170.0
 10
-483.8070613939302
 20
169.9615705608065
 10
-483.9569053530415
 20
169.8477590650226
 10
-484.0950023366672
 20
169.6629392246051
 10
-484.2160453551723
 20
169.4142135623731
 10
-484.3153827932373
 20
169.1111404660392
 10
-484.3891971688265
 20
168.7653668647302
 10
-484.4346518368815
 20
168.3901806440323
 10
-484.4500000000002
 20
168.0
  0
LINE
  5
182
330
1F
100
AcDbEntity
  8
1
  6
CONTINUOUS
 62
     7
100
AcDbLine
 10
-483.6512288786485
 20
170.0
 30
0.0
 11
-483.5227532097006
 21
170.0
 31
0.0
  0
LWPOLYLINE
  5
183
330
1F
100
AcDbEntity
  8
1
  6
CONTINUOUS
 62
     7
100
AcDbPolyline
 90
        9
 70
     0
 43
0.0
 10
-490.9500000000002
 20
168.4910041734502
 10
-490.9276996224136
 20
168.297187683511
 10
-490.8616455606674
 20
168.1110807252354
 10
-490.7543468521445
 20
167.9397524977491
 10
-490.6098791958058
 20
167.7897108359399
 10
-490.4337301383788
 20
167.6666550129264
 10
-490.2325906320681
 20
167.5752592554246
 10
-490.0141008813845
 20
167.5189951950974
 10
-489.7865601330021
 20
167.5
  0
LINE
  5
184
330
1F
100
AcDbEntity
  8
1
  6
CONTINUOUS
 62
     7
100
AcDbLine
 10
-487.0065894213483
 20
170.0
 30
0.0
 11
-483.6512288786485
 21
170.0
 31
0.0
  0
LINE
  5
185
330
1F
100
AcDbEntity
  8
1
  6
CONTINUOUS
 62
     7
100
AcDbLine
 10
-490.9500000000002
 20
169.0
 30
0.0
 11
-490.9500000000002
 21
168.4910041734502
 31
0.0
  0
ARC
  5
186
330
1F
100
AcDbEntity
  8
1
  6
CONTINUOUS
 62
     7
100
AcDbCircle
 10
-489.4028988966477
 20
169.0179012227624
 30
0.0
 40
1.547204665766849
100
AcDbArc
 50
155.0089567869901
 51
180.6629293590319
  0
LWPOLYLINE
  5
187
330
1F
100
AcDbEntity
  8
1
  6
CONTINUOUS
 62
     7
100
AcDbPolyline
 90
        6
 70
     0
 43
0.0
 10
490.805244733828
 20
169.671558954847
 10
490.7457007242833
 20
169.7730104533628
 10
490.6784829486598
 20
169.8577286100003
 10
490.5794572369589
 20
169.9415440651831
 10
490.4731970899081
 20
169.9891765099648
 10
490.3912048059638
 20
170.0
210
0.0
220
0.0
230
-1.0
  0
LINE
  5
188
330
1F
100
AcDbEntity
  8
1
  6
CONTINUOUS
 62
     7
100
AcDbLine
 10
-490.3912048059638
 20
170.0
 30
0.0
 11
-487.0065894213483
 21
170.0
 31
0.0
  0
LINE
  5
189
330
1F
100
AcDbEntity
  8
1
  6
CONTINUOUS
 62
     7
100
AcDbLine
 10
-487.9500000000002
 20
167.5
 30
0.0
 11
-486.9500000000002
 21
167.5174550649282
 31
0.0
  0
LINE
  5
18A
330
1F
100
AcDbEntity
  8
1
  6
CONTINUOUS
 62
     7
100
AcDbLine
 10
-489.7865601330021
 20
167.5
 30
0.0
 11
-487.9500000000002
 21
167.5
 31
0.0
  0
LINE
  5
18B
330
1F
100
AcDbEntity
  8
1
  6
CONTINUOUS
 62
     7
100
AcDbLine
 10
-446.9500000000002
 20
137.2293214265532
 30
0.0
 11
-446.9500000000002
 21
130.0
 31
0.0
  0
LINE
  5
18C
330
1F
100
AcDbEntity
  8
1
  6
CONTINUOUS
 62
     7
100
AcDbLine
 10
-446.9500000000001
 20
130.0
 30
0.0
 11
-445.3772467902998
 21
130.0
 31
0.0
  0
LINE
  5
18D
330
1F
100
AcDbEntity
  8
1
  6
CONTINUOUS
 62
     7
100
AcDbLine
 10
-446.9500000000002
 20
137.2293214265532
 30
0.0
 11
-445.3772467902998
 21
137.3783257335475
 31
0.0
  0
LINE
  5
18E
330
1F
100
AcDbEntity
  8
1
  6
CONTINUOUS
 62
     7
100
AcDbLine
 10
-481.9500000000002
 20
162.7706785734468
 30
0.0
 11
-481.9500000000002
 21
170.0
 31
0.0
  0
LINE
  5
18F
330
1F
100
AcDbEntity
  8
1
  6
CONTINUOUS
 62
     7
100
AcDbLine
 10
-481.9500000000003
 20
170.0
 30
0.0
 11
-483.5227532097006
 21
170.0
 31
0.0
  0
LINE
  5
190
330
1F
100
AcDbEntity
  8
1
  6
CONTINUOUS
 62
     7
100
AcDbLine
 10
-481.9500000000003
 20
162.7706785734468
 30
0.0
 11
-483.5227532097007
 21
162.6216742664525
 31
0.0
  0
ARC
  5
191
330
1F
100
AcDbEntity
  8
1
  6
CONTINUOUS
 62
     7
100
AcDbCircle
 10
-499.45
 20
160.0
 30
0.0
 40
8.06982025971287
100
AcDbArc
 50
187.5424085703118
 51
172.4575914296881
  0
ARC
  5
192
330
1F
100
AcDbEntity
  8
1
  6
CONTINUOUS
 62
     7
100
AcDbCircle
 10
-499.45
 20
160.0
 30
0.0
 40
8.06982025971287
100
AcDbArc
 50
172.4575914296881
 51
187.5424085703119
  0
LINE
  5
193
330
1F
100
AcDbEntity
  8
1
  6
CONTINUOUS
 62
     7
100
AcDbLine
 10
-439.95
 20
130.0
 30
0.0
 11
-442.9500000000002
 21
130.0
 31
0.0
  0
LINE
  5
194
330
1F
100
AcDbEntity
  8
1
  6
CONTINUOUS
 62
     7
100
AcDbLine
 10
-439.9500000000001
 20
132.4910321132873
 30
0.0
 11
-440.1057189351069
 21
132.5
 31
0.0
  0
LINE
  5
195
330
1F
100
AcDbEntity
  8
1
  6
CONTINUOUS
 62
     7
100
AcDbLine
 10
-439.1897192228793
 20
132.3007491648148
 30
0.0
 11
-439.95
 21
132.4910321132873
 31
0.0
  0
LWPOLYLINE
  5
196
330
1F
100
AcDbEntity
  8
1
  6
CONTINUOUS
 62
     7
100
AcDbPolyline
 90
        5
 70
     0
 43
0.0
 10
491.5357864376271
 20
130.0
 10
491.6364321235309
 20
130.0299687468055
 10
491.7128855559876
 20
130.0960107068765
 10
491.7825331686441
 20
130.1967924685193
 10
491.8286796564406
 20
130.2928932188134
210
0.0
220
0.0
230
-1.0
  0
ARC
  5
197
330
1F
100
AcDbEntity
  8
1
  6
CONTINUOUS
 62
     7
100
AcDbCircle
 10
-489.9976834677252
 20
130.9710035301691
 30
0.0
 40
1.952531853122297
100
AcDbArc
 50
179.149086140108
 51
200.3221344943855
  0
LINE
  5
198
330
1F
100
AcDbEntity
  8
1
  6
CONTINUOUS
 62
     7
100
AcDbLine
 10
-485.9500000000002
 20
130.0
 30
0.0
 11
-491.5357864376271
 21
130.0
 31
0.0
  0
LWPOLYLINE
  5
199
330
1F
100
AcDbEntity
  8
1
  6
CONTINUOUS
 62
     7
100
AcDbPolyline
 90
        9
 70
     0
 43
0.0
 10
-490.5532388440644
 20
132.5
 10
-490.8266472509119
 20
132.4810821839159
 10
-491.089052431116
 20
132.4250443941797
 10
-491.3305276309222
 20
132.3340065330707
 10
-491.5419378750061
 20
132.211412551005
 10
-491.7152855413977
 20
132.0619001623401
 10
-491.8440129104792
 20
131.8911254012454
 10
-491.9232502426618
 20
131.7055486546673
 10
-491.9500000000001
 20
131.5121902667329
  0
LINE
  5
19A
330
1F
100
AcDbEntity
  8
1
  6
CONTINUOUS
 62
     7
100
AcDbLine
 10
-491.9500000000002
 20
131.0
 30
0.0
 11
-491.9500000000002
 21
131.5121902667329
 31
0.0
  0
ARC
  5
19B
330
1F
100
AcDbEntity
  8
1
  6
CONTINUOUS
 62
     7
100
AcDbCircle
 10
-438.7548949409689
 20
169.0477452155002
 30
0.0
 40
1.805526336982582
100
AcDbArc
 50
358.4846976695293
 51
23.68398768535269
  0
LWPOLYLINE
  5
19C
330
1F
100
AcDbEntity
  8
1
  6
CONTINUOUS
 62
     7
100
AcDbPolyline
 90
        5
 70
     0
 43
0.0
 10
-437.1014392601943
 20
169.7730104533627
 10
-437.1689546407215
 20
169.8819212643483
 10
-437.2439737121054
 20
169.9569403357322
 10
-437.3438890661927
 20
169.9987954562052
 10
-437.3642135623733
 20
170.0
  0
LINE
  5
19D
330
1F
100
AcDbEntity
  8
1
  6
CONTINUOUS
 62
     7
100
AcDbLine
 10
-442.9500000000002
 20
170.0
 30
0.0
 11
-437.3642135623733
 21
170.0
 31
0.0
  0
LINE
  5
19E
330
1F
100
AcDbEntity
  8
1
  6
CONTINUOUS
 62
     7
100
AcDbLine
 10
-436.9500000000002
 20
169.0
 30
0.0
 11
-436.9500000000002
 21
168.4878097332671
 31
0.0
  0
LWPOLYLINE
  5
19F
330
1F
100
AcDbEntity
  8
1
  6
CONTINUOUS
 62
     7
100
AcDbPolyline
 90
        9
 70
     0
 43
0.0
 10
-438.346761155936
 20
167.5
 10
-438.0733527490884
 20
167.5189178160841
 10
-437.8109475688844
 20
167.5749556058203
 10
-437.5694723690781
 20
167.6659934669293
 10
-437.3580621249943
 20
167.788587448995
 10
-437.1847144586026
 20
167.9380998376599
 10
-437.0559870895212
 20
168.1088745987546
 10
-436.9767497573386
 20
168.2944513453327
 10
-436.9500000000003
 20
168.4878097332671
  0
LINE
  5
1A0
330
1F
100
AcDbEntity
  8
1
  6
CONTINUOUS
 62
     7
100
AcDbLine
 10
-438.346761155936
 20
167.5
 30
0.0
 11
-441.9500000000002
 21
167.562894767975
 31
0.0
  0
LINE
  5
1A1
330
1F
100
AcDbEntity
  8
1
  6
CONTINUOUS
 62
     7
100
AcDbLine
 10
-428.9941560814793
 20
153.5509979277122
 30
0.0
 11
-428.9644336208079
 21
153.5444161478954
 31
0.0
  0
LINE
  5
1A2
330
1F
100
AcDbEntity
  8
1
  6
CONTINUOUS
 62
     7
100
AcDbLine
 10
-428.9941560814793
 20
153.5509979277123
 30
0.0
 11
-425.212197228748
 21
155.1175365768505
 31
0.0
  0
LINE
  5
1A3
330
1F
100
AcDbEntity
  8
1
  6
CONTINUOUS
 62
     7
100
AcDbLine
 10
-425.2285601611015
 20
155.0918656022155
 30
0.0
 11
-425.212197228748
 21
155.1175365768505
 31
0.0
  0
LINE
  5
1A4
330
1F
100
AcDbEntity
  8
1
  6
CONTINUOUS
 62
     7
100
AcDbLine
 10
-425.2285601611016
 20
155.0918656022156
 30
0.0
 11
-428.9644336208079
 21
153.5444161478955
 31
0.0
  0
LINE
  5
1A5
330
1F
100
AcDbEntity
  8
1
  6
CONTINUOUS
 62
     7
100
AcDbLine
 10
-435.899002072289
 20
159.5441560814793
 30
0.0
 11
-435.9055838521057
 21
159.5144336208079
 31
0.0
  0
LINE
  5
1A6
330
1F
100
AcDbEntity
  8
1
  6
CONTINUOUS
 62
     7
100
AcDbLine
 10
-435.8990020722878
 20
159.5441560814792
 30
0.0
 11
-434.3324634231495
 21
155.762197228748
 31
0.0
  0
LINE
  5
1A7
330
1F
100
AcDbEntity
  8
1
  6
CONTINUOUS
 62
     7
100
AcDbLine
 10
-434.3581343977852
 20
155.7785601611006
 30
0.0
 11
-434.3324634231503
 21
155.762197228747
 31
0.0
  0
LINE
  5
1A8
330
1F
100
AcDbEntity
  8
1
  6
CONTINUOUS
 62
     7
100
AcDbLine
 10
-433.6878027712522
 20
155.1175365768505
 30
0.0
 11
-433.6714398388986
 21
155.0918656022155
 31
0.0
  0
LINE
  5
1A9
330
1F
100
AcDbEntity
  8
1
  6
CONTINUOUS
 62
     7
100
AcDbLine
 10
-433.6878027712521
 20
155.1175365768505
 30
0.0
 11
-429.9058439185209
 21
153.5509979277123
 31
0.0
  0
LINE
  5
1AA
330
1F
100
AcDbEntity
  8
1
  6
CONTINUOUS
 62
     7
100
AcDbLine
 10
-429.9355663791922
 20
153.5444161478954
 30
0.0
 11
-429.9058439185208
 21
153.5509979277122
 31
0.0
  0
ARC
  5
1AB
330
1F
100
AcDbEntity
  8
1
  6
CONTINUOUS
 62
     7
100
AcDbCircle
 10
-429.4500000000001
 20
160.0
 30
0.0
 40
6.465092528836939
100
AcDbArc
 50
130.9568062262308
 51
139.0431937737691
  0
LINE
  5
1AC
330
1F
100
AcDbEntity
  8
1
  6
CONTINUOUS
 62
     7
100
AcDbLine
 10
-434.3324634231503
 20
164.2378027712529
 30
0.0
 11
-434.3581343977852
 21
164.2214398388994
 31
0.0
  0
ARC
  5
1AD
330
1F
100
AcDbEntity
  8
1
  6
CONTINUOUS
 62
     7
100
AcDbCircle
 10
-429.4500000000001
 20
160.0
 30
0.0
 40
6.473819396627715
100
AcDbArc
 50
139.3014878955369
 51
175.6985121044635
  0
LINE
  5
1AE
330
1F
100
AcDbEntity
  8
1
  6
CONTINUOUS
 62
     7
100
AcDbLine
 10
-435.9055838521057
 20
160.4855663791921
 30
0.0
 11
-435.899002072289
 21
160.4558439185207
 31
0.0
  0
ARC
  5
1AF
330
1F
100
AcDbEntity
  8
1
  6
CONTINUOUS
 62
     7
100
AcDbCircle
 10
-429.4500000000001
 20
160.0
 30
0.0
 40
6.465092528836915
100
AcDbArc
 50
175.9568062262312
 51
184.0431937737689
  0
ARC
  5
1B0
330
1F
100
AcDbEntity
  8
1
  6
CONTINUOUS
 62
     7
100
AcDbCircle
 10
-429.4500000000001
 20
160.0
 30
0.0
 40
6.47381939662772
100
AcDbArc
 50
184.3014878955366
 51
220.6985121044634
  0
ARC
  5
1B1
330
1F
100
AcDbEntity
  8
1
  6
CONTINUOUS
 62
     7
100
AcDbCircle
 10
-429.4500000000001
 20
160.0
 30
0.0
 40
6.465092528836933
100
AcDbArc
 50
220.956806226231
 51
229.043193773769
  0
ARC
  5
1B2
330
1F
100
AcDbEntity
  8
1
  6
CONTINUOUS
 62
     7
100
AcDbCircle
 10
-429.4500000000001
 20
160.0
 30
0.0
 40
6.47381939662774
100
AcDbArc
 50
229.3014878955366
 51
265.6985121044634
  0
ARC
  5
1B3
330
1F
100
AcDbEntity
  8
1
  6
CONTINUOUS
 62
     7
100
AcDbCircle
 10
-429.4500000000001
 20
160.0
 30
0.0
 40
6.465092528836968
100
AcDbArc
 50
265.956806226231
 51
274.0431937737691
  0
ARC
  5
1B4
330
1F
100
AcDbEntity
  8
1
  6
CONTINUOUS
 62
     7
100
AcDbCircle
 10
-429.4500000000001
 20
160.0
 30
0.0
 40
6.473819396627759
100
AcDbArc
 50
274.3014878955366
 51
310.6985121044633
  0
ARC
  5
1B5
330
1F
100
AcDbEntity
  8
1
  6
CONTINUOUS
 62
     7
100
AcDbCircle
 10
-429.4500000000001
 20
160.0
 30
0.0
 40
6.465092528837011
100
AcDbArc
 50
310.9568062262309
 51
319.0431937737692
  0
LINE
  5
1B6
330
1F
100
AcDbEntity
  8
1
  6
CONTINUOUS
 62
     7
100
AcDbLine
 10
-424.5675365768499
 20
155.7621972287471
 30
0.0
 11
-424.5418656022149
 21
155.7785601611006
 31
0.0
  0
ARC
  5
1B7
330
1F
100
AcDbEntity
  8
1
  6
CONTINUOUS
 62
     7
100
AcDbCircle
 10
-429.4500000000001
 20
160.0
 30
0.0
 40
6.473819396627772
100
AcDbArc
 50
319.3014878955368
 51
355.698512104463
  0
LINE
  5
1B8
330
1F
100
AcDbEntity
  8
1
  6
CONTINUOUS
 62
     7
100
AcDbLine
 10
-422.9944161478945
 20
159.5144336208079
 30
0.0
 11
-423.0009979277112
 21
159.5441560814793
 31
0.0
  0
ARC
  5
1B9
330
1F
100
AcDbEntity
  8
1
  6
CONTINUOUS
 62
     7
100
AcDbCircle
 10
-429.4500000000001
 20
160.0
 30
0.0
 40
6.465092528836974
100
AcDbArc
 50
355.9568062262308
 51
4.043193773768962
  0
LINE
  5
1BA
330
1F
100
AcDbEntity
  8
1
  6
CONTINUOUS
 62
     7
100
AcDbLine
 10
-423.0009979277122
 20
160.4558439185208
 30
0.0
 11
-422.9944161478954
 21
160.4855663791921
 31
0.0
  0
ARC
  5
1BB
330
1F
100
AcDbEntity
  8
1
  6
CONTINUOUS
 62
     7
100
AcDbCircle
 10
-429.4500000000001
 20
160.0
 30
0.0
 40
6.473819396627744
100
AcDbArc
 50
4.301487895536696
 51
40.6985121044633
  0
LINE
  5
1BC
330
1F
100
AcDbEntity
  8
1
  6
CONTINUOUS
 62
     7
100
AcDbLine
 10
-424.5418656022155
 20
164.2214398388985
 30
0.0
 11
-424.5675365768505
 21
164.2378027712521
 31
0.0
  0
ARC
  5
1BD
330
1F
100
AcDbEntity
  8
1
  6
CONTINUOUS
 62
     7
100
AcDbCircle
 10
-429.4500000000001
 20
160.0
 30
0.0
 40
6.465092528836974
100
AcDbArc
 50
40.95680622623104
 51
49.04319377376892
  0
LINE
  5
1BE
330
1F
100
AcDbEntity
  8
1
  6
CONTINUOUS
 62
     7
100
AcDbLine
 10
-425.2121972287472
 20
164.8824634231502
 30
0.0
 11
-425.2285601611007
 21
164.9081343977851
 31
0.0
  0
ARC
  5
1BF
330
1F
100
AcDbEntity
  8
1
  6
CONTINUOUS
 62
     7
100
AcDbCircle
 10
-429.4500000000001
 20
160.0
 30
0.0
 40
6.473819396627717
100
AcDbArc
 50
49.3014878955367
 51
85.6985121044632
  0
LINE
  5
1C0
330
1F
100
AcDbEntity
  8
1
  6
CONTINUOUS
 62
     7
100
AcDbLine
 10
-428.9644336208081
 20
166.4555838521056
 30
0.0
 11
-428.9941560814794
 21
166.4490020722889
 31
0.0
  0
ARC
  5
1C1
330
1F
100
AcDbEntity
  8
1
  6
CONTINUOUS
 62
     7
100
AcDbCircle
 10
-429.4500000000001
 20
160.0
 30
0.0
 40
6.465092528836944
100
AcDbArc
 50
85.95680622623087
 51
94.04319377376912
  0
LINE
  5
1C2
330
1F
100
AcDbEntity
  8
1
  6
CONTINUOUS
 62
     7
100
AcDbLine
 10
-429.9058439185208
 20
166.4490020722881
 30
0.0
 11
-429.9355663791922
 21
166.4555838521048
 31
0.0
  0
ARC
  5
1C3
330
1F
100
AcDbEntity
  8
1
  6
CONTINUOUS
 62
     7
100
AcDbCircle
 10
-429.4500000000001
 20
160.0
 30
0.0
 40
6.473819396627686
100
AcDbArc
 50
94.30148789553675
 51
130.698512104463
  0
LINE
  5
1C4
330
1F
100
AcDbEntity
  8
1
  6
CONTINUOUS
 62
     7
100
AcDbLine
 10
-433.6714398388988
 20
164.9081343977847
 30
0.0
 11
-433.6878027712523
 21
164.8824634231497
 31
0.0
  0
LINE
  5
1C5
330
1F
100
AcDbEntity
  8
1
  6
CONTINUOUS
 62
     7
100
AcDbLine
 10
-423.0009979277124
 20
160.4558439185208
 30
0.0
 11
-424.5675365768506
 21
164.237802771252
 31
0.0
  0
LINE
  5
1C6
330
1F
100
AcDbEntity
  8
1
  6
CONTINUOUS
 62
     7
100
AcDbLine
 10
-424.5675365768506
 20
155.762197228748
 30
0.0
 11
-423.0009979277124
 21
159.5441560814791
 31
0.0
  0
CIRCLE
  5
1C7
330
1F
100
AcDbEntity
  8
1
  6
CONTINUOUS
 62
     7
100
AcDbCircle
 10
-429.4500000000001
 20
160.0
 30
0.0
 40
5.284907471163058
  0
LINE
  5
1C8
330
1F
100
AcDbEntity
  8
1
  6
CONTINUOUS
 62
     7
100
AcDbLine
 10
-433.6714398388985
 20
164.9081343977844
 30
0.0
 11
-429.9355663791922
 21
166.4555838521044
 31
0.0
  0
LINE
  5
1C9
330
1F
100
AcDbEntity
  8
1
  6
CONTINUOUS
 62
     7
100
AcDbLine
 10
-435.9055838521045
 20
160.4855663791921
 30
0.0
 11
-434.3581343977845
 21
164.2214398388984
 31
0.0
  0
LINE
  5
1CA
330
1F
100
AcDbEntity
  8
1
  6
CONTINUOUS
 62
     7
100
AcDbLine
 10
-428.9644336208079
 20
166.4555838521044
 30
0.0
 11
-425.2285601611016
 21
164.9081343977844
 31
0.0
  0
LINE
  5
1CB
330
1F
100
AcDbEntity
  8
1
  6
CONTINUOUS
 62
     7
100
AcDbLine
 10
-486.9500000000002
 20
132.4825449350718
 30
0.0
 11
-487.9500000000002
 21
132.5
 31
0.0
  0
LINE
  5
1CC
330
1F
100
AcDbEntity
  8
1
  6
CONTINUOUS
 62
     7
100
AcDbLine
 10
-490.5532388440644
 20
132.5
 30
0.0
 11
-487.9500000000002
 21
132.5
 31
0.0
  0
LINE
  5
1CD
330
1F
100
AcDbEntity
  8
1
  6
CONTINUOUS
 62
     7
100
AcDbLine
 10
-440.9500000000002
 20
132.5
 30
0.0
 11
-441.9500000000002
 21
132.4825449350718
 31
0.0
  0
LINE
  5
1CE
330
1F
100
AcDbEntity
  8
1
  6
CONTINUOUS
 62
     7
100
AcDbLine
 10
-440.1057189351069
 20
132.5
 30
0.0
 11
-440.9500000000002
 21
132.5
 31
0.0
  0
CIRCLE
  5
1CF
330
1F
100
AcDbEntity
  8
1
  6
CONTINUOUS
 62
     7
100
AcDbCircle
 10
-499.45
 20
138.5
 30
0.0
 40
5.499999999999949
  0
CIRCLE
  5
1D0
330
1F
100
AcDbEntity
  8
1
  6
CONTINUOUS
 62
     7
100
AcDbCircle
 10
-499.45
 20
138.5
 30
0.0
 40
6.49999999999995
  0
ARC
  5
1D1
330
1F
100
AcDbEntity
  8
1
  6
CONTINUOUS
 62
     7
100
AcDbCircle
 10
-499.45
 20
138.5
 30
0.0
 40
9.500000000000009
100
AcDbArc
 50
90.0
 51
142.7608398828689
  0
LINE
  5
1D2
330
1F
100
AcDbEntity
  8
1
  6
CONTINUOUS
 62
     7
100
AcDbLine
 10
-507.0131067961165
 20
144.2488621126738
 30
0.0
 11
-507.016543692979
 21
144.2565640328199
 31
0.0
  0
LINE
  5
1D3
330
1F
100
AcDbEntity
  8
1
  6
CONTINUOUS
 62
     7
100
AcDbLine
 10
-508.4499999999999
 20
144.7329768168989
 30
0.0
 11
-508.4426022003012
 21
144.7373667294597
 31
0.0
  0
ARC
  5
1D4
330
1F
100
AcDbEntity
  8
1
  6
CONTINUOUS
 62
     7
100
AcDbCircle
 10
-501.4499999999999
 20
160.0
 30
0.0
 40
14.49999999999999
100
AcDbArc
 50
312.5368983629862
 51
338.9605302186817
  0
ARC
  5
1D5
330
1F
100
AcDbEntity
  8
1
  6
CONTINUOUS
 62
     7
100
AcDbCircle
 10
-495.0273837106676
 20
153.0
 30
0.0
 40
5.000000000000034
100
AcDbArc
 50
270.0
 51
312.5368983629862
  0
ARC
  5
1D6
330
1F
100
AcDbEntity
  8
1
  6
CONTINUOUS
 62
     7
100
AcDbCircle
 10
-487.4500000000002
 20
154.6148351928652
 30
0.0
 40
0.5000000000000109
100
AcDbArc
 50
109.4712206344906
 51
158.9605302186817
  0
LINE
  5
1D7
330
1F
100
AcDbEntity
  8
1
  6
CONTINUOUS
 62
     7
100
AcDbLine
 10
-508.4499999999999
 20
144.7329768168989
 30
0.0
 11
-508.4499999999999
 21
158.9407554465223
 31
0.0
  0
LINE
  5
1D8
330
1F
100
AcDbEntity
  8
1
  6
CONTINUOUS
 62
     7
100
AcDbLine
 10
-500.4499999999999
 20
170.0
 30
0.0
 11
-490.3912048059638
 21
170.0
 31
0.0
  0
LINE
  5
1D9
330
1F
100
AcDbEntity
  8
1
  6
CONTINUOUS
 62
     7
100
AcDbLine
 10
-495.0273837106676
 20
148.0
 30
0.0
 11
-499.45
 21
148.0
 31
0.0
  0
LINE
  5
1DA
330
1F
100
AcDbEntity
  8
1
  6
CONTINUOUS
 62
     7
100
AcDbLine
 10
-508.4499999999999
 20
161.0592445534777
 30
0.0
 11
-508.4499999999999
 21
162.0
 31
0.0
  0
ARC
  5
1DB
330
1F
100
AcDbEntity
  8
1
  6
CONTINUOUS
 62
     7
100
AcDbCircle
 10
-500.4499999999999
 20
162.0
 30
0.0
 40
8.000000000000007
100
AcDbArc
 50
89.9999999999999
 51
179.9999999999999
  0
LINE
  5
1DC
330
1F
100
AcDbEntity
  8
1
  6
CONTINUOUS
 62
     7
100
AcDbLine
 10
-508.4499999999999
 20
158.9407554465223
 30
0.0
 11
-508.4499999999999
 21
161.0592445534777
 31
0.0
  0
LINE
  5
1DD
330
1F
100
AcDbEntity
  8
1
  6
CONTINUOUS
 62
     7
100
AcDbLine
 10
-438.95
 20
131.7658095185962
 30
0.0
 11
-438.95
 21
131.0
 31
0.0
  0
ARC
  5
1DE
330
1F
100
AcDbEntity
  8
1
  6
CONTINUOUS
 62
     7
100
AcDbCircle
 10
-439.95
 20
131.0
 30
0.0
 40
1.000000000000001
100
AcDbArc
 50
270.0
 51
0.0
  0
LINE
  5
1DF
330
1F
100
AcDbEntity
  8
1
  6
CONTINUOUS
 62
     7
100
AcDbLine
 10
-508.4499999999999
 20
138.0
 30
0.0
 11
-508.4499999999999
 21
142.6231056256176
 31
0.0
  0
LINE
  5
1E0
330
1F
100
AcDbEntity
  8
1
  6
CONTINUOUS
 62
     7
100
AcDbLine
 10
-491.5357864376271
 20
130.0
 30
0.0
 11
-500.4499999999999
 21
130.0
 31
0.0
  0
ARC
  5
1E1
330
1F
100
AcDbEntity
  8
1
  6
CONTINUOUS
 62
     7
100
AcDbCircle
 10
-500.4499999999999
 20
138.0
 30
0.0
 40
7.99999999999998
100
AcDbArc
 50
180.0
 51
270.0
  0
LINE
  5
1E2
330
1F
100
AcDbEntity
  8
1
  6
CONTINUOUS
 62
     7
100
AcDbLine
 10
-438.95
 20
143.5
 30
0.0
 11
-438.95
 21
132.0146362045517
 31
0.0
  0
LWPOLYLINE
  5
1E3
330
1F
100
AcDbEntity
  8
1
  6
CONTINUOUS
 62
     7
100
AcDbPolyline
 90
       22
 70
     0
 43
0.0
 10
439.1897192228793
 20
132.3007491648148
 10
439.1699335136498
 20
132.2967291595539
 10
439.1509766669087
 20
132.2918035122164
 10
439.1327459988906
 20
132.2859667081781
 10
439.1153917937838
 20
132.279289895514
 10
439.0986032795151
 20
132.2716527227854
 10
439.0827459874674
 20
132.2632223238639
 10
439.067737074583
 20
132.2539803950169
 10
439.0536745342081
 20
132.2440151912946
 10
439.0373129778361
 20
132.2304998376244
 10
439.0224349425732
 20
132.2159718872177
 10
439.0089282473888
 20
132.2003791001494
 10
438.996889799039
 20
132.1838968216333
 10
438.9860847897782
 20
132.1662095827831
 10
438.9767574905106
 20
132.1477254771647
 10
438.9688341494277
 20
132.1283840710005
 10
438.9623441772602
 20
132.1083547500223
 10
438.9570572077468
 20
132.0867381052555
 10
438.9532643678774
 20
132.0644860655857
 10
438.9509209786149
 20
132.0415297633337
 10
438.9500142888726
 20
132.0180360894243
 10
438.95
 20
132.0146362045517
210
0.0
220
0.0
230
-1.0
  0
ARC
  5
1E4
330
1F
100
AcDbEntity
  8
1
  6
CONTINUOUS
 62
     7
100
AcDbCircle
 10
-432.4500000000001
 20
143.5
 30
0.0
 40
6.500000000000005
100
AcDbArc
 50
90.00000000000006
 51
179.9999999999996
  0
ARC
  5
1E5
330
1F
100
AcDbEntity
  8
1
  6
CONTINUOUS
 62
     7
100
AcDbCircle
 10
-431.4500000000001
 20
160.0
 30
0.0
 40
10.00000000000001
100
AcDbArc
 50
270.0000000000001
 51
90.0
  0
LINE
  5
1E6
330
1F
100
AcDbEntity
  8
1
  6
CONTINUOUS
 62
     7
100
AcDbLine
 10
-431.45
 20
150.0
 30
0.0
 11
-432.4500000000001
 21
150.0
 31
0.0
  0
LINE
  5
1E7
330
1F
100
AcDbEntity
  8
1
  6
CONTINUOUS
 62
     7
100
AcDbLine
 10
-437.3642135623733
 20
170.0
 30
0.0
 11
-431.4500000000001
 21
170.0
 31
0.0
  0
LINE
  5
1E8
330
1F
100
AcDbEntity
  8
1
  6
CONTINUOUS
 62
     7
100
AcDbLine
 10
-438.95
 20
132.0146362045517
 30
0.0
 11
-438.95
 21
131.7658095185962
 31
0.0
  0
LWPOLYLINE
  5
1E9
330
1F
100
AcDbEntity
  8
1
  6
CONTINUOUS
 62
     7
100
AcDbPolyline
 90
       36
 70
     0
 43
0.0
 10
487.6166666666668
 20
155.0862397136563
 10
487.606446835329
 20
155.0897357877631
 10
487.5963002321981
 20
155.0929786404324
 10
487.5862315910009
 20
155.0959769516716
 10
487.5762448044575
 20
155.0987394001821
 10
487.566342891801
 20
155.1012746232373
 10
487.5565279710256
 20
155.1035911713841
 10
487.5468012363829
 20
155.1056974584914
 10
487.5355651224192
 20
155.1079000041294
 10
487.5244481115496
 20
155.1098401657464
 10
487.5134471993999
 20
155.1115299738563
 10
487.5025576196801
 20
155.112980730301
 10
487.4917728688249
 20
155.1142028671926
 10
487.481123131765
 20
155.1152033769384
 10
487.4633369797934
 20
155.11642783907
 10
487.4460899480828
 20
155.1170903786498
 10
487.4293073587246
 20
155.1172449460767
 10
487.4129121445258
 20
155.1169305244247
 10
487.3968268141284
 20
155.1161717990908
 10
487.3809752271746
 20
155.1149799406366
 10
487.3653960459761
 20
155.1133725232391
 10
487.3302316954746
 20
155.1081006926159
 10
487.2960885724607
 20
155.1006074990908
 10
487.2625448033039
 20
155.090677725088
 10
487.2299893822442
 20
155.0783232558443
 10
487.1982961926687
 20
155.063355635235
 10
487.1673943233654
 20
155.0455336220284
 10
487.1272668252554
 20
155.0167128321954
 10
487.0898431142001
 20
154.9826510843452
 10
487.0557381805467
 20
154.9434938628773
 10
487.0253648938326
 20
154.8991942676006
 10
486.9992395318741
 20
154.8497689572459
 10
486.9783360175888
 20
154.796456418944
 10
486.9628788683941
 20
154.7392835373408
 10
486.9532930000681
 20
154.6786258408205
 10
486.9500000000002
 20
154.6148351928652
210
0.0
220
0.0
230
-1.0
  0
LWPOLYLINE
  5
1EA
330
1F
100
AcDbEntity
  8
1
  6
CONTINUOUS
 62
     7
100
AcDbPolyline
 90
       13
 70
     0
 43
0.0
 10
-508.4426022003013
 20
144.7373667294597
 10
-508.4194584540771
 20
144.584840445827
 10
-508.3643248699866
 20
144.438643193835
 10
-508.2794891992939
 20
144.304841383886
 10
-508.1684716722917
 20
144.1889870812934
 10
-508.0358789274187
 20
144.0958876250243
 10
-507.8872128602013
 20
144.0294061486348
 10
-507.7286423237771
 20
143.9923012807203
 10
-507.5667471542138
 20
143.9861126764631
 10
-507.4082451422176
 20
144.0110971301104
 10
-507.2597132804559
 20
144.0662179193748
 10
-507.1273148532516
 20
144.1491878239095
 10
-507.0165436929791
 20
144.2565640328199
  0
LINE
  5
1EB
330
1F
100
AcDbEntity
  8
1
  6
CONTINUOUS
 62
     7
100
AcDbLine
 10
-508.4439005756793
 20
144.6343772431867
 30
0.0
 11
-508.4418494159134
 21
144.6044436351598
 31
0.0
  0
LINE
  5
1EC
330
1F
100
AcDbEntity
  8
1
  6
CONTINUOUS
 62
     7
100
AcDbLine
 10
-508.4418494159134
 20
144.6044436351598
 30
0.0
 11
-508.4333053684167
 21
142.6231056256176
 31
0.0
  0
LINE
  5
1ED
330
1F
100
AcDbEntity
  8
1
  6
CONTINUOUS
 62
     7
100
AcDbLine
 10
-384.0000000000001
 20
87.35000000000001
 30
0.0
 11
-366.0000000000001
 21
87.35000000000001
 31
0.0
  0
ARC
  5
1EE
330
1F
100
AcDbEntity
  8
1
  6
CONTINUOUS
 62
     7
100
AcDbCircle
 10
-366.0000000000001
 20
86.35000000000001
 30
0.0
 40
1.000000000000001
100
AcDbArc
 50
0.0
 51
90.0
  0
ARC
  5
1EF
330
1F
100
AcDbEntity
  8
1
  6
CONTINUOUS
 62
     7
100
AcDbCircle
 10
-384.0000000000001
 20
86.35000000000001
 30
0.0
 40
1.000000000000001
100
AcDbArc
 50
90.0
 51
180.0
  0
LINE
  5
1F0
330
1F
100
AcDbEntity
  8
1
  6
CONTINUOUS
 62
     7
100
AcDbLine
 10
-385.0000000000001
 20
86.35000000000001
 30
0.0
 11
-385.0000000000001
 21
85.35000000000001
 31
0.0
  0
LINE
  5
1F1
330
1F
100
AcDbEntity
  8
1
  6
CONTINUOUS
 62
     7
100
AcDbLine
 10
-365.0000000000001
 20
86.35000000000001
 30
0.0
 11
-365.0000000000001
 21
85.35000000000001
 31
0.0
  0
LINE
  5
1F2
330
1F
100
AcDbEntity
  8
1
  6
CONTINUOUS
 62
     7
100
AcDbLine
 10
-385.0000000000001
 20
85.35000000000001
 30
0.0
 11
-365.0000000000001
 21
85.35000000000001
 31
0.0
  0
LINE
  5
1F3
330
1F
100
AcDbEntity
  8
1
  6
CONTINUOUS
 62
     7
100
AcDbLine
 10
-381.465092528837
 20
91.35000000000001
 30
0.0
 11
-381.4490020722878
 21
91.35000000000001
 31
0.0
  0
LINE
  5
1F4
330
1F
100
AcDbEntity
  8
1
  6
CONTINUOUS
 62
     7
100
AcDbLine
 10
-381.4490020722878
 20
91.35000000000478
 30
0.0
 11
-381.4555838521046
 21
90.3500000000028
 31
0.0
  0
LINE
  5
1F5
330
1F
100
AcDbEntity
  8
1
  6
CONTINUOUS
 62
     7
100
AcDbLine
 10
-379.9081343977844
 20
90.35000000000001
 30
0.0
 11
-381.4555838521045
 21
90.35000000000001
 31
0.0
  0
LINE
  5
1F6
330
1F
100
AcDbEntity
  8
1
  6
CONTINUOUS
 62
     7
100
AcDbLine
 10
-379.9081343977845
 20
90.34999999999329
 30
0.0
 11
-379.8824634231496
 21
91.34999999999341
 31
0.0
  0
LINE
  5
1F7
330
1F
100
AcDbEntity
  8
1
  6
CONTINUOUS
 62
     7
100
AcDbLine
 10
-379.8824634231495
 20
91.35000000000001
 30
0.0
 11
-379.2378027712521
 21
91.35000000000001
 31
0.0
  0
LINE
  5
1F8
330
1F
100
AcDbEntity
  8
1
  6
CONTINUOUS
 62
     7
100
AcDbLine
 10
-379.237802771253
 20
91.34999999994132
 30
0.0
 11
-379.2214398388994
 21
90.34999999993948
 31
0.0
  0
LINE
  5
1F9
330
1F
100
AcDbEntity
  8
1
  6
CONTINUOUS
 62
     7
100
AcDbLine
 10
-375.4855663791922
 20
90.35000000000001
 30
0.0
 11
-379.2214398388985
 21
90.35000000000001
 31
0.0
  0
LINE
  5
1FA
330
1F
100
AcDbEntity
  8
1
  6
CONTINUOUS
 62
     7
100
AcDbLine
 10
-375.4855663791922
 20
90.34999999994021
 30
0.0
 11
-375.4558439185208
 21
91.34999999994037
 31
0.0
  0
LINE
  5
1FB
330
1F
100
AcDbEntity
  8
1
  6
CONTINUOUS
 62
     7
100
AcDbLine
 10
-375.4558439185209
 20
91.35000000000001
 30
0.0
 11
-374.5441560814792
 21
91.35000000000001
 31
0.0
  0
LINE
  5
1FC
330
1F
100
AcDbEntity
  8
1
  6
CONTINUOUS
 62
     7
100
AcDbLine
 10
-374.5441560814794
 20
91.34999999999596
 30
0.0
 11
-374.5144336208081
 21
90.34999999999754
 31
0.0
  0
LINE
  5
1FD
330
1F
100
AcDbEntity
  8
1
  6
CONTINUOUS
 62
     7
100
AcDbLine
 10
-370.7785601611016
 20
90.35000000000001
 30
0.0
 11
-374.5144336208079
 21
90.35000000000001
 31
0.0
  0
LINE
  5
1FE
330
1F
100
AcDbEntity
  8
1
  6
CONTINUOUS
 62
     7
100
AcDbLine
 10
-370.7785601611016
 20
90.34999999999317
 30
0.0
 11
-370.762197228748
 21
91.34999999999332
 31
0.0
  0
LINE
  5
1FF
330
1F
100
AcDbEntity
  8
1
  6
CONTINUOUS
 62
     7
100
AcDbLine
 10
-370.7621972287481
 20
91.35000000000001
 30
0.0
 11
-370.1175365768506
 21
91.35000000000001
 31
0.0
  0
LINE
  5
200
330
1F
100
AcDbEntity
  8
1
  6
CONTINUOUS
 62
     7
100
AcDbLine
 10
-370.1175365768501
 20
91.34999999995192
 30
0.0
 11
-370.0918656022149
 21
90.34999999994065
 31
0.0
  0
LINE
  5
201
330
1F
100
AcDbEntity
  8
1
  6
CONTINUOUS
 62
     7
100
AcDbLine
 10
-368.5444161478956
 20
90.35000000000001
 30
0.0
 11
-370.0918656022157
 21
90.35000000000001
 31
0.0
  0
LINE
  5
202
330
1F
100
AcDbEntity
  8
1
  6
CONTINUOUS
 62
     7
100
AcDbLine
 10
-368.5444161478944
 20
90.34999999994018
 30
0.0
 11
-368.5509979277111
 21
91.34999999994044
 31
0.0
  0
LINE
  5
203
330
1F
100
AcDbEntity
  8
1
  6
CONTINUOUS
 62
     7
100
AcDbLine
 10
-368.5509979277123
 20
91.35000000000001
 30
0.0
 11
-368.5349074711631
 21
91.35000000000001
 31
0.0
  0
LINE
  5
204
330
1F
100
AcDbEntity
  8
1
  6
CONTINUOUS
 62
     7
100
AcDbLine
 10
-379.2378027712521
 20
91.35000000000001
 30
0.0
 11
-375.4558439185209
 21
91.35000000000001
 31
0.0
  0
LINE
  5
205
330
1F
100
AcDbEntity
  8
1
  6
CONTINUOUS
 62
     7
100
AcDbLine
 10
-374.5441560814792
 20
91.35000000000001
 30
0.0
 11
-370.7621972287481
 21
91.35000000000001
 31
0.0
  0
LINE
  5
206
330
1F
100
AcDbEntity
  8
1
  6
CONTINUOUS
 62
     7
100
AcDbLine
 10
-370.1175365768506
 20
91.35000000000001
 30
0.0
 11
-368.5509979277123
 21
91.35000000000001
 31
0.0
  0
LINE
  5
207
330
1F
100
AcDbEntity
  8
1
  6
CONTINUOUS
 62
     7
100
AcDbLine
 10
-381.4490020722878
 20
91.35000000000001
 30
0.0
 11
-379.8824634231495
 21
91.35000000000001
 31
0.0
  0
LINE
  5
208
330
1F
100
AcDbEntity
  8
1
  6
CONTINUOUS
 62
     7
100
AcDbLine
 10
-376.438987709766
 20
91.35000000241884
 30
0.0
 11
-376.4258745648906
 21
98.35000000000001
 31
0.0
  0
LINE
  5
209
330
1F
100
AcDbEntity
  8
1
  6
CONTINUOUS
 62
     7
100
AcDbLine
 10
-374.6765661736281
 20
98.35000000000001
 30
0.0
 11
-376.4258745648906
 21
98.35000000000001
 31
0.0
  0
LINE
  5
20A
330
1F
100
AcDbEntity
  8
1
  6
CONTINUOUS
 62
     7
100
AcDbLine
 10
-374.6408252845749
 20
91.35000002146609
 30
0.0
 11
-374.6765661736281
 21
98.35000000000001
 31
0.0
  0
LINE
  5
20B
330
1F
100
AcDbEntity
  8
1
  6
CONTINUOUS
 62
     7
100
AcDbLine
 10
-376.4258745648906
 20
98.35000000000001
 30
0.0
 11
-377.0631571141543
 21
98.35000000000001
 31
0.0
  0
LINE
  5
20C
330
1F
100
AcDbEntity
  8
1
  6
CONTINUOUS
 62
     7
100
AcDbLine
 10
-377.0631571141543
 20
98.35000000000001
 30
0.0
 11
-377.1081395911102
 21
98.35000000000001
 31
0.0
  0
LINE
  5
20D
330
1F
100
AcDbEntity
  8
1
  6
CONTINUOUS
 62
     7
100
AcDbLine
 10
-372.6593793182948
 20
98.35000000000001
 30
0.0
 11
-372.821795869807
 21
98.35000000000001
 31
0.0
  0
LINE
  5
20E
330
1F
100
AcDbEntity
  8
1
  6
CONTINUOUS
 62
     7
100
AcDbLine
 10
-372.088411310123
 20
91.35000000241884
 30
0.0
 11
-372.1420322011027
 21
98.35000000000001
 31
0.0
  0
LINE
  5
20F
330
1F
100
AcDbEntity
  8
1
  6
CONTINUOUS
 62
     7
100
AcDbLine
 10
-372.1420322011027
 20
98.35000000000001
 30
0.0
 11
-372.6593793182948
 21
98.35000000000001
 31
0.0
  0
LINE
  5
210
330
1F
100
AcDbEntity
  8
1
  6
CONTINUOUS
 62
     7
100
AcDbLine
 10
-372.821795869807
 20
98.35000000000001
 30
0.0
 11
-374.6765661736281
 21
98.35000000000001
 31
0.0
  0
LINE
  5
211
330
1F
100
AcDbEntity
  8
1
  6
CONTINUOUS
 62
     7
100
AcDbLine
 10
-377.3726969361647
 20
91.35000002146609
 30
0.0
 11
-377.329628831025
 21
98.35000000000001
 31
0.0
  0
LINE
  5
212
330
1F
100
AcDbEntity
  8
1
  6
CONTINUOUS
 62
     7
100
AcDbLine
 10
-377.1081395911102
 20
98.35000000000001
 30
0.0
 11
-377.329628831025
 21
98.35000000000001
 31
0.0
  0
LINE
  5
213
330
1F
100
AcDbEntity
  8
1
  6
CONTINUOUS
 62
     7
100
AcDbLine
 10
-372.021608453737
 20
98.35000000000001
 30
0.0
 11
-372.1420322011027
 21
98.35000000000001
 31
0.0
  0
LINE
  5
214
330
1F
100
AcDbEntity
  8
1
  6
CONTINUOUS
 62
     7
100
AcDbLine
 10
-378.8009320039058
 20
91.35000000241884
 30
0.0
 11
-378.7392067436938
 21
98.35000000000001
 31
0.0
  0
LINE
  5
215
330
1F
100
AcDbEntity
  8
1
  6
CONTINUOUS
 62
     7
100
AcDbLine
 10
-377.329628831025
 20
98.35000000000001
 30
0.0
 11
-378.7392067436938
 21
98.35000000000001
 31
0.0
  0
LINE
  5
216
330
1F
100
AcDbEntity
  8
1
  6
CONTINUOUS
 62
     7
100
AcDbLine
 10
-371.4838528231202
 20
98.35000000000001
 30
0.0
 11
-371.645396955431
 21
98.35000000000001
 31
0.0
  0
LINE
  5
217
330
1F
100
AcDbEntity
  8
1
  6
CONTINUOUS
 62
     7
100
AcDbLine
 10
-371.645396955431
 20
98.35000000000001
 30
0.0
 11
-372.021608453737
 21
98.35000000000001
 31
0.0
  0
LINE
  5
218
330
1F
100
AcDbEntity
  8
1
  6
CONTINUOUS
 62
     7
100
AcDbLine
 10
-384.0000000000001
 20
87.35000000000001
 30
0.0
 11
-391.5
 21
87.35000000000001
 31
0.0
  0
LINE
  5
219
330
1F
100
AcDbEntity
  8
1
  6
CONTINUOUS
 62
     7
100
AcDbLine
 10
-385.0000000000001
 20
85.35000000000001
 30
0.0
 11
-391.5
 21
85.35000000000001
 31
0.0
  0
ARC
  5
21A
330
1F
100
AcDbEntity
  8
1
  6
CONTINUOUS
 62
     7
100
AcDbCircle
 10
-365.9522547844997
 20
90.54510505903204
 30
0.0
 40
1.805526336981795
100
AcDbArc
 50
66.3160123146431
 51
91.51530233047595
  0
LWPOLYLINE
  5
21B
330
1F
100
AcDbEntity
  8
1
  6
CONTINUOUS
 62
     7
100
AcDbPolyline
 90
        5
 70
     0
 43
0.0
 10
365.2269895466374
 20
92.1985607398059
 10
365.1180787356517
 20
92.13104535927866
 10
365.0430596642678
 20
92.05602628789481
 10
365.0012045437949
 20
91.95611093380742
 10
365.0000000000001
 20
91.93578643762692
210
0.0
220
0.0
230
-1.0
  0
LINE
  5
21C
330
1F
100
AcDbEntity
  8
1
  6
CONTINUOUS
 62
     7
100
AcDbLine
 10
-365.0000000000001
 20
91.93578643762692
 30
0.0
 11
-365.0000000000001
 21
86.35000000000001
 31
0.0
  0
LINE
  5
21D
330
1F
100
AcDbEntity
  8
1
  6
CONTINUOUS
 62
     7
100
AcDbLine
 10
-367.5000000000001
 20
87.35000000000001
 30
0.0
 11
-367.437105232025
 21
90.9532388440642
 31
0.0
  0
LWPOLYLINE
  5
21E
330
1F
100
AcDbEntity
  8
1
  6
CONTINUOUS
 62
     7
100
AcDbPolyline
 90
        9
 70
     0
 43
0.0
 10
-366.4249149420919
 20
92.35000000000002
 10
-366.6187402487774
 20
92.32325024266169
 10
-366.8057000881336
 20
92.24401291047911
 10
-366.9787217938136
 20
92.11528554139765
 10
-367.1312599772505
 20
91.94193787500592
 10
-367.2575441388532
 20
91.73052763092211
 10
-367.3527969652534
 20
91.48905243111587
 10
-367.4134150544476
 20
91.22664725091181
 10
-367.4371052320251
 20
90.9532388440642
  0
LINE
  5
21F
330
1F
100
AcDbEntity
  8
1
  6
CONTINUOUS
 62
     7
100
AcDbLine
 10
-366.0000000000001
 20
92.35000000000001
 30
0.0
 11
-366.4249149420918
 21
92.35000000000001
 31
0.0
  0
LINE
  5
220
330
1F
100
AcDbEntity
  8
1
  6
CONTINUOUS
 62
     7
100
AcDbLine
 10
-402.6992508351852
 20
86.99959459660668
 30
0.0
 11
-402.9853637954483
 21
86.35000000000001
 31
0.0
  0
LINE
  5
221
330
1F
100
AcDbEntity
  8
1
  6
CONTINUOUS
 62
     7
100
AcDbLine
 10
-402.6992508351852
 20
86.99959459660668
 30
0.0
 11
-402.5089678867128
 21
87.35000000000001
 31
0.0
  0
LINE
  5
222
330
1F
100
AcDbEntity
  8
1
  6
CONTINUOUS
 62
     7
100
AcDbLine
 10
-402.5089678867128
 20
87.35000000000001
 30
0.0
 11
-391.5
 21
87.35000000000001
 31
0.0
  0
LINE
  5
223
330
1F
100
AcDbEntity
  8
1
  6
CONTINUOUS
 62
     7
100
AcDbLine
 10
-404.0000000000001
 20
85.35000000000001
 30
0.0
 11
-391.5
 21
85.35000000000001
 31
0.0
  0
LINE
  5
224
330
1F
100
AcDbEntity
  8
1
  6
CONTINUOUS
 62
     7
100
AcDbLine
 10
-405.0000000000001
 20
85.35000000000001
 30
0.0
 11
-405.0000000000001
 21
87.07301603505138
 31
0.0
  0
LINE
  5
225
330
1F
100
AcDbEntity
  8
1
  6
CONTINUOUS
 62
     7
100
AcDbLine
 10
-404.0000000000001
 20
85.35000000000001
 30
0.0
 11
-405.0000000000001
 21
85.35000000000001
 31
0.0
  0
LWPOLYLINE
  5
226
330
1F
100
AcDbEntity
  8
1
  6
CONTINUOUS
 62
     7
100
AcDbPolyline
 90
        9
 70
     0
 43
0.0
 10
-402.553653409556
 20
90.4238017748222
 10
-402.5792280054643
 20
90.80050256987519
 10
-402.6418178969442
 20
91.1622284084556
 10
-402.7390451230989
 20
91.49523633815991
 10
-402.8672157561
 20
91.78687447836532
 10
-403.0214602435931
 20
92.02606269972411
 10
-403.1959184162899
 20
92.20371358853504
 10
-403.3839621318016
 20
92.31307770240565
 10
-403.5784470958687
 20
92.35000000000002
  0
LINE
  5
227
330
1F
100
AcDbEntity
  8
1
  6
CONTINUOUS
 62
     7
100
AcDbLine
 10
-402.553653409556
 20
90.4238017748222
 30
0.0
 11
-402.5000000000001
 21
87.35000000000001
 31
0.0
  0
ARC
  5
228
330
1F
100
AcDbEntity
  8
1
  6
CONTINUOUS
 62
     7
100
AcDbCircle
 10
-404.0532119189147
 20
89.75521373739316
 30
0.0
 40
2.595331820197145
100
AcDbArc
 50
88.82518605299165
 51
106.1017231157476
  0
LWPOLYLINE
  5
229
330
1F
100
AcDbEntity
  8
1
  6
CONTINUOUS
 62
     7
100
AcDbPolyline
 90
        4
 70
     0
 43
0.0
 10
-404.7730104533628
 20
92.24873280223589
 10
-404.8819212643484
 20
92.20358537228141
 10
-404.9700312531946
 20
92.14031764868507
 10
-405.0000000000001
 20
92.0730160350516
  0
LINE
  5
22A
330
1F
100
AcDbEntity
  8
1
  6
CONTINUOUS
 62
     7
100
AcDbLine
 10
-405.0000000000001
 20
87.07301603505138
 30
0.0
 11
-405.0000000000001
 21
92.0730160350516
 31
0.0
  0
LINE
  5
22B
330
1F
100
AcDbEntity
  8
1
  6
CONTINUOUS
 62
     7
100
AcDbLine
 10
-404.0000000000001
 20
92.35000000000001
 30
0.0
 11
-403.5784470958687
 21
92.35000000000001
 31
0.0
  0
LINE
  5
22C
330
1F
100
AcDbEntity
  8
1
  6
CONTINUOUS
 62
     7
100
AcDbLine
 10
-365.0000000000001
 20
111.8360758700093
 30
0.0
 11
-365.0000000000001
 21
98.85000000000001
 31
0.0
  0
LINE
  5
22D
330
1F
100
AcDbEntity
  8
1
  6
CONTINUOUS
 62
     7
100
AcDbLine
 10
-365.0000000000001
 20
98.85000000000001
 30
0.0
 11
-365.0000000000001
 21
91.93578643762692
 31
0.0
  0
LINE
  5
22E
330
1F
100
AcDbEntity
  8
1
  6
CONTINUOUS
 62
     7
100
AcDbLine
 10
-397.5000000000001
 20
96.35000000000002
 30
0.0
 11
-397.3662377405491
 21
98.90233595624295
 31
0.0
  0
ARC
  5
22F
330
1F
100
AcDbEntity
  8
1
  6
CONTINUOUS
 62
     7
100
AcDbCircle
 10
-395.6076954061904
 20
113.35
 30
0.0
 40
1.000000000000006
100
AcDbArc
 50
90.0
 51
122.6217565329777
  0
LINE
  5
230
330
1F
100
AcDbEntity
  8
1
  6
CONTINUOUS
 62
     7
100
AcDbLine
 10
-397.3662377405491
 20
98.90233595624295
 30
0.0
 11
-396.641175319734
 21
112.7373511149506
 31
0.0
  0
LINE
  5
231
330
1F
100
AcDbEntity
  8
1
  6
CONTINUOUS
 62
     7
100
AcDbLine
 10
-405.0000000000001
 20
92.0730160350516
 30
0.0
 11
-405.0000000000001
 21
94.35000000000001
 31
0.0
  0
LINE
  5
232
330
1F
100
AcDbEntity
  8
1
  6
CONTINUOUS
 62
     7
100
AcDbLine
 10
-403.0000000000001
 20
96.35000000000002
 30
0.0
 11
-397.5000000000001
 21
96.35000000000002
 31
0.0
  0
ARC
  5
233
330
1F
100
AcDbEntity
  8
1
  6
CONTINUOUS
 62
     7
100
AcDbCircle
 10
-403.0000000000001
 20
94.35000000000001
 30
0.0
 40
2.000000000000002
100
AcDbArc
 50
90.0
 51
180.0
  0
LINE
  5
234
330
1F
100
AcDbEntity
  8
1
  6
CONTINUOUS
 62
     7
100
AcDbLine
 10
-365.0000000000001
 20
111.8360758700093
 30
0.0
 11
-365.019215137816
 21
112.0107989752964
 31
0.0
  0
LINE
  5
235
330
1F
100
AcDbEntity
  8
1
  6
CONTINUOUS
 62
     7
100
AcDbLine
 10
-370.937766610361
 20
114.3377681583696
 30
0.0
 11
-371.5495658565372
 21
114.35
 31
0.0
  0
LINE
  5
236
330
1F
100
AcDbEntity
  8
1
  6
CONTINUOUS
 62
     7
100
AcDbLine
 10
-400.0032015491025
 20
111.85
 30
0.0
 11
-401.6772241409803
 21
111.8051322827088
 31
0.0
  0
LINE
  5
237
330
1F
100
AcDbEntity
  8
1
  6
CONTINUOUS
 62
     7
100
AcDbLine
 10
-396.6876794211129
 20
111.85
 30
0.0
 11
-396.7360428290913
 21
111.85
 31
0.0
  0
LINE
  5
238
330
1F
100
AcDbEntity
  8
1
  6
CONTINUOUS
 62
     7
100
AcDbLine
 10
-396.7360428290913
 20
111.85
 30
0.0
 11
-400.0032015491025
 21
111.85
 31
0.0
  0
LINE
  5
239
330
1F
100
AcDbEntity
  8
1
  6
CONTINUOUS
 62
     7
100
AcDbLine
 10
-398.4504341434629
 20
114.35
 30
0.0
 11
-395.665047833336
 21
114.35
 31
0.0
  0
LINE
  5
23A
330
1F
100
AcDbEntity
  8
1
  6
CONTINUOUS
 62
     7
100
AcDbLine
 10
-398.4504341434629
 20
114.35
 30
0.0
 11
-398.5869845407118
 21
114.3316304332978
 31
0.0
  0
LINE
  5
23B
330
1F
100
AcDbEntity
  8
1
  6
CONTINUOUS
 62
     7
100
AcDbLine
 10
-405.0000000000001
 20
98.85000000000001
 30
0.0
 11
-405.0000000000001
 21
110.1577103543231
 31
0.0
  0
ARC
  5
23C
330
1F
100
AcDbEntity
  8
1
  6
CONTINUOUS
 62
     7
100
AcDbCircle
 10
-402.2903526075507
 20
108.2878607187843
 30
0.0
 40
3.570311719011483
100
AcDbArc
 50
80.11159881277193
 51
136.5958215099863
  0
ARC
  5
23D
330
1F
100
AcDbEntity
  8
1
  6
CONTINUOUS
 62
     7
100
AcDbCircle
 10
-403.6322583813259
 20
110.1896248594091
 30
0.0
 40
1.368113910128981
100
AcDbArc
 50
156.2253690957136
 51
181.3366813351514
  0
LINE
  5
23E
330
1F
100
AcDbEntity
  8
1
  6
CONTINUOUS
 62
     7
100
AcDbLine
 10
-405.0000000000001
 20
110.1577103543231
 30
0.0
 11
-405.0000000000001
 21
111.8360758700093
 31
0.0
  0
LINE
  5
23F
330
1F
100
AcDbEntity
  8
1
  6
CONTINUOUS
 62
     7
100
AcDbLine
 10
-404.9726476040984
 20
112.0621591094954
 30
0.0
 11
-405.0000000000001
 21
111.8360758700093
 31
0.0
  0
LINE
  5
240
330
1F
100
AcDbEntity
  8
1
  6
CONTINUOUS
 62
     7
100
AcDbLine
 10
-405.0000000000001
 20
98.85000000000001
 30
0.0
 11
-405.0000000000001
 21
94.35000000000001
 31
0.0
  0
LINE
  5
241
330
1F
100
AcDbEntity
  8
1
  6
CONTINUOUS
 62
     7
100
AcDbLine
 10
-368.5000000000001
 20
87.35000000000001
 30
0.0
 11
-368.5349074711631
 21
91.35000000000001
 31
0.0
  0
LINE
  5
242
330
1F
100
AcDbEntity
  8
1
  6
CONTINUOUS
 62
     7
100
AcDbLine
 10
-381.465092528837
 20
91.35000000000001
 30
0.0
 11
-381.5000000000001
 21
87.35000000000001
 31
0.0
  0
LINE
  5
243
330
1F
100
AcDbEntity
  8
1
  6
CONTINUOUS
 62
     7
100
AcDbLine
 10
-377.1081395911102
 20
98.35000000000001
 30
0.0
 11
-377.1692276656455
 21
91.35000000000001
 31
0.0
  0
LINE
  5
244
330
1F
100
AcDbEntity
  8
1
  6
CONTINUOUS
 62
     7
100
AcDbLine
 10
-372.821795869807
 20
98.35000000000001
 30
0.0
 11
-372.8828839443423
 21
91.35000000000001
 31
0.0
  0
LINE
  5
245
330
1F
100
AcDbEntity
  8
1
  6
CONTINUOUS
 62
     7
100
AcDbLine
 10
-371.9605203792017
 20
91.35000000000001
 30
0.0
 11
-372.021608453737
 21
98.35000000000001
 31
0.0
  0
LINE
  5
246
330
1F
100
AcDbEntity
  8
1
  6
CONTINUOUS
 62
     7
100
AcDbLine
 10
-371.4227647485849
 20
91.35000000000001
 30
0.0
 11
-371.4838528231202
 21
98.35000000000001
 31
0.0
  0
LWPOLYLINE
  5
247
330
1F
100
AcDbEntity
  8
1
  6
CONTINUOUS
 62
     7
100
AcDbPolyline
 90
        4
 70
     0
 43
0.0
 10
-396.1467816470389
 20
114.1922505710521
 10
-396.2411382954676
 20
114.1221511693344
 10
-396.3265338410889
 20
114.0358884638297
 10
-396.4303460074664
 20
113.8785986964992
  0
ARC
  5
248
330
1F
100
AcDbEntity
  8
1
  6
CONTINUOUS
 62
     7
100
AcDbCircle
 10
-393.9654182803744
 20
112.863416135157
 30
0.0
 40
2.665795253323242
100
AcDbArc
 50
157.6156452739965
 51
180.620525832521
  0
ARC
  5
249
330
1F
100
AcDbEntity
  8
1
  6
CONTINUOUS
 62
     7
100
AcDbCircle
 10
-366.9333451431102
 20
111.8983678324051
 30
0.0
 40
1.917429429392322
100
AcDbArc
 50
3.361489573339563
 51
16.66814153691879
  0
LINE
  5
24A
330
1F
100
AcDbEntity
  8
1
  6
CONTINUOUS
 62
     7
100
AcDbLine
 10
-365.0964820155622
 20
112.4483400747543
 30
0.0
 11
-365.1634688273505
 21
112.6335651429448
 31
0.0
  0
ARC
  5
24B
330
1F
100
AcDbEntity
  8
1
  6
CONTINUOUS
 62
     7
100
AcDbCircle
 10
-368.2336847967469
 20
110.4677773362037
 30
0.0
 40
3.757241397962805
100
AcDbArc
 50
35.19985901560242
 51
96.72451994926608
  0
LINE
  5
24C
330
1F
100
AcDbEntity
  8
1
  6
CONTINUOUS
 62
     7
100
AcDbLine
 10
-368.6736418247382
 20
114.1991712762864
 30
0.0
 11
-370.9410045316007
 21
114.3378868759567
 31
0.0
  0
LINE
  5
24D
330
1F
100
AcDbEntity
  8
1
  6
CONTINUOUS
 62
     7
100
AcDbLine
 10
-398.5869851503216
 20
114.3316302677461
 30
0.0
 11
-401.3263581752619
 21
114.1991712762864
 31
0.0
  0
ARC
  5
24E
330
1F
100
AcDbEntity
  8
1
  6
CONTINUOUS
 62
     7
100
AcDbCircle
 10
-401.7783389928256
 20
110.4744490564041
 30
0.0
 40
3.752045078984337
100
AcDbArc
 50
83.08120314759431
 51
144.1098123730701
  0
ARC
  5
24F
330
1F
100
AcDbEntity
  8
1
  6
CONTINUOUS
 62
     7
100
AcDbCircle
 10
-403.1636164197043
 20
111.9227754438583
 30
0.0
 40
1.816990291281194
100
AcDbArc
 50
155.5777733284584
 51
176.0806786138619
  0
ENDSEC
  0
SECTION
  2
OBJECTS
  0
DICTIONARY
  5
C
330
0
100
AcDbDictionary
  3
ACAD_GROUP
350
D
  3
ACAD_LAYOUT
350
1A
  3
ACAD_MATERIAL
350
43
  3
ACAD_MLEADERSTYLE
350
6B
  3
ACAD_MLINESTYLE
350
17
  3
ACAD_PLOTSETTINGS
350
19
  3
ACAD_SCALELIST
350
47
  3
ACAD_VISUALSTYLE
350
2A
  3
ACDBHEADERROUNDTRIPXREC
350
250
  3
ACDBVARIABLEDICTIONARY
350
271
  0
DICTIONARY
  5
278
330
8
100
AcDbDictionary
280
     1
  3
ACAD_XREC_ROUNDTRIP
360
279
  0
DICTIONARY
  5
D
102
{ACAD_REACTORS
330
C
102
}
330
C
100
AcDbDictionary
  0
DICTIONARY
  5
1A
102
{ACAD_REACTORS
330
C
102
}
330
C
100
AcDbDictionary
  0
DICTIONARY
  5
43
102
{ACAD_REACTORS
330
C
102
}
330
C
100
AcDbDictionary
  3
BYBLOCK
350
45
  3
BYLAYER
350
44
  3
GLOBAL
350
46
  0
DICTIONARY
  5
6B
102
{ACAD_REACTORS
330
C
102
}
330
C
100
AcDbDictionary
  3
STANDARD
350
6C
  0
DICTIONARY
  5
17
102
{ACAD_REACTORS
330
C
102
}
330
C
100
AcDbDictionary
  3
STANDARD
350
18
  0
DICTIONARY
  5
19
102
{ACAD_REACTORS
330
C
102
}
330
C
100
AcDbDictionary
  0
DICTIONARY
  5
47
102
{ACAD_REACTORS
330
C
102
}
330
C
100
AcDbDictionary
  3
A0
350
48
  3
A1
350
49
  3
A2
350
4A
  3
A3
350
4B
  3
A4
350
4C
  3
A5
350
4D
  3
A6
350
4E
  3
A7
350
4F
  3
A8
350
50
  3
A9
350
51
  3
B0
350
52
  3
B1
350
53
  3
B2
350
54
  3
B3
350
55
  3
B4
350
56
  3
B5
350
57
  3
B6
350
58
  3
B7
350
59
  3
B8
350
5A
  3
B9
350
5B
  3
C0
350
5C
  3
C1
350
5D
  3
C2
350
5E
  3
C3
350
5F
  3
C4
350
60
  3
C5
350
61
  3
C6
350
62
  3
C7
350
63
  3
C8
350
64
  3
C9
350
65
  3
D0
350
66
  3
D1
350
67
  3
D2
350
68
  0
DICTIONARY
  5
2A
102
{ACAD_REACTORS
330
C
102
}
330
C
100
AcDbDictionary
  3
2DWIREFRAME
350
2F
  3
BASIC
350
32
  3
BRIGHTEN
350
36
  3
COLORCHANGE
350
3A
  3
CONCEPTUAL
350
34
  3
DIM
350
35
  3
EDGECOLOROFF
350
3D
  3
FACEPATTERN
350
39
  3
FLAT
350
2B
  3
FLATWITHEDGES
350
2C
  3
GOURAUD
350
2D
  3
GOURAUDWITHEDGES
350
2E
  3
HIDDEN
350
31
  3
JITTEROFF
350
3B
  3
LINEPATTERN
350
38
  3
OVERHANGOFF
350
3C
  3
REALISTIC
350
33
  3
SHADED
350
42
  3
SHADED_WITH_EDGES
350
41
  3
SHADES_OF_GRAY
350
3E
  3
SKETCHY
350
3F
  3
THICKEN
350
37
  3
WIREFRAME
350
30
  3
X-RAY
350
40
  0
DICTIONARY
  5
250
102
{ACAD_REACTORS
330
C
102
}
330
C
100
AcDbDictionary
  3
CEPSNID
350
25A
  3
CEPSNTYPE
350
259
  3
DIMSTYLEDATA
350
270
  3
FINGERPRINTGUID
350
25B
  3
HYPERLINKBASE
350
253
  3
INSUNITS
350
258
  3
LAYOUTDICT
350
255
  3
LWETCUNION
350
257
  3
PLOTSETDICT
350
256
  3
PSVPSCALE
350
25D
  3
PUCSBASE
350
260
  3
PUCSORGBACK
350
266
  3
PUCSORGBOTTOM
350
262
  3
PUCSORGFRONT
350
265
  3
PUCSORGLEFT
350
263
  3
PUCSORGRIGHT
350
264
  3
PUCSORGTOP
350
261
  3
PUCSORTHOREF
350
25E
  3
PUCSORTHOVIEW
350
25F
  3
STYLESHEET
350
254
  3
TSTACKALIGN
350
251
  3
TSTACKSIZE
350
252
  3
UCSBASE
350
269
  3
UCSORGBACK
350
26F
  3
UCSORGBOTTOM
350
26B
  3
UCSORGFRONT
350
26E
  3
UCSORGLEFT
350
26C
  3
UCSORGRIGHT
350
26D
  3
UCSORGTOP
350
26A
  3
UCSORTHOREF
350
267
  3
UCSORTHOVIEW
350
268
  3
VERSIONGUID
350
25C
  0
DICTIONARY
  5
271
102
{ACAD_REACTORS
330
C
102
}
330
C
100
AcDbDictionary
  3
CANNOSCALE
350
27A
  3
CMLEADERSTYLE
350
273
  3
CTABLESTYLE
350
272
  3
DIMASSOC
350
276
  3
HIDETEXT
350
277
  3
MSLTSCALE
350
27B
  0
XRECORD
  5
279
102
{ACAD_REACTORS
330
278
102
}
330
278
100
AcDbXrecord
102
VTR_0.000_0.000_1.000_1.000_VISUALSTYLE
340
2F
102
VTR_0.000_0.000_1.000_1.000_GRIDDISPLAY
 70
     3
102
VTR_0.000_0.000_1.000_1.000_GRIDMAJOR
 70
     5
102
VTR_0.000_0.000_1.000_1.000_DEFAULTLIGHTING
280
     1
102
VTR_0.000_0.000_1.000_1.000_DEFAULTLIGHTINGTYPE
 70
     1
102
VTR_0.000_0.000_1.000_1.000_BRIGHTNESS
141
0.0
102
VTR_0.000_0.000_1.000_1.000_CONTRAST
142
0.0
  0
MATERIAL
  5
45
102
{ACAD_REACTORS
330
43
102
}
102
{ACAD_XDICTIONARY
360
27E
102
}
330
43
100
AcDbMaterial
  1
BYBLOCK
  0
MATERIAL
  5
44
102
{ACAD_REACTORS
330
43
102
}
102
{ACAD_XDICTIONARY
360
27C
102
}
330
43
100
AcDbMaterial
  1
BYLAYER
  0
MATERIAL
  5
46
102
{ACAD_REACTORS
330
43
102
}
102
{ACAD_XDICTIONARY
360
280
102
}
330
43
100
AcDbMaterial
  1
GLOBAL
  0
ACAD_PROXY_OBJECT
  5
6C
102
{ACAD_REACTORS
330
6B
102
}
330
6B
100
AcDbProxyObject
 90
      499
 91
      505
 93
      610
310
40901902A4063FBFFFFFE056BD1B81E855B9FC0AD7A3703D0AD73F4214DD185B99185C9900AD7A3703D0AC73F90141901A02B5E8DC0F42B1CFC02B5E8DC0F42B1CFE5764000000000000300FC0
340
14
340
0
340
11
340
0
 94
        0
1001
ACAD_MLEADERVER
1070
     2
  0
MLINESTYLE
  5
18
102
{ACAD_REACTORS
330
17
102
}
330
17
100
AcDbMlineStyle
  2
Standard
 70
     0
  3

 62
   256
 51
90.0
 52
90.0
 71
     2
 49
0.5
 62
   256
  6
BYLAYER
 49
-0.5
 62
   256
  6
BYLAYER
  0
ACAD_PROXY_OBJECT
  5
48
102
{ACAD_REACTORS
330
47
102
}
330
47
100
AcDbProxyObject
 90
      499
 91
      503
 93
       41
310
903313A31580
  0
ACAD_PROXY_OBJECT
  5
49
102
{ACAD_REACTORS
330
47
102
}
330
47
100
AcDbProxyObject
 90
      499
 91
      503
 93
      105
310
903313A324000000000000004000
  0
ACAD_PROXY_OBJECT
  5
4A
102
{ACAD_REACTORS
330
47
102
}
330
47
100
AcDbProxyObject
 90
      499
 91
      503
 93
      105
310
903313A344000000000000104000
  0
ACAD_PROXY_OBJECT
  5
4B
102
{ACAD_REACTORS
330
47
102
}
330
47
100
AcDbProxyObject
 90
      499
 91
      503
 93
      105
310
903313A354000000000000144000
  0
ACAD_PROXY_OBJECT
  5
4C
102
{ACAD_REACTORS
330
47
102
}
330
47
100
AcDbProxyObject
 90
      499
 91
      503
 93
      105
310
903313A384000000000000204000
  0
ACAD_PROXY_OBJECT
  5
4D
102
{ACAD_REACTORS
330
47
102
}
330
47
100
AcDbProxyObject
 90
      499
 91
      503
 93
      113
310
904313A31304000000000000244000
  0
ACAD_PROXY_OBJECT
  5
4E
102
{ACAD_REACTORS
330
47
102
}
330
47
100
AcDbProxyObject
 90
      499
 91
      503
 93
      113
310
904313A31364000000000000304000
  0
ACAD_PROXY_OBJECT
  5
4F
102
{ACAD_REACTORS
330
47
102
}
330
47
100
AcDbProxyObject
 90
      499
 91
      503
 93
      113
310
904313A32304000000000000344000
  0
ACAD_PROXY_OBJECT
  5
50
102
{ACAD_REACTORS
330
47
102
}
330
47
100
AcDbProxyObject
 90
      499
 91
      503
 93
      113
310
904313A333040000000000003E4000
  0
ACAD_PROXY_OBJECT
  5
51
102
{ACAD_REACTORS
330
47
102
}
330
47
100
AcDbProxyObject
 90
      499
 91
      503
 93
      113
310
904313A34304000000000000444000
  0
ACAD_PROXY_OBJECT
  5
52
102
{ACAD_REACTORS
330
47
102
}
330
47
100
AcDbProxyObject
 90
      499
 91
      503
 93
      113
310
904313A35304000000000000494000
  0
ACAD_PROXY_OBJECT
  5
53
102
{ACAD_REACTORS
330
47
102
}
330
47
100
AcDbProxyObject
 90
      499
 91
      503
 93
      121
310
905313A3130304000000000000594000
  0
ACAD_PROXY_OBJECT
  5
54
102
{ACAD_REACTORS
330
47
102
}
330
47
100
AcDbProxyObject
 90
      499
 91
      503
 93
      105
310
903323A310000000000000010100
  0
ACAD_PROXY_OBJECT
  5
55
102
{ACAD_REACTORS
330
47
102
}
330
47
100
AcDbProxyObject
 90
      499
 91
      503
 93
      105
310
903343A310000000000000410100
  0
ACAD_PROXY_OBJECT
  5
56
102
{ACAD_REACTORS
330
47
102
}
330
47
100
AcDbProxyObject
 90
      499
 91
      503
 93
      105
310
903383A310000000000000810100
  0
ACAD_PROXY_OBJECT
  5
57
102
{ACAD_REACTORS
330
47
102
}
330
47
100
AcDbProxyObject
 90
      499
 91
      503
 93
      113
310
90431303A310000000000000910100
  0
ACAD_PROXY_OBJECT
  5
58
102
{ACAD_REACTORS
330
47
102
}
330
47
100
AcDbProxyObject
 90
      499
 91
      503
 93
      121
310
9053130303A310000000000001650100
  0
ACAD_PROXY_OBJECT
  5
59
102
{ACAD_REACTORS
330
47
102
}
330
47
100
AcDbProxyObject
 90
      499
 91
      503
 93
      257
310
90E312F31323822203D2031272D3022000000000000200FC000000000000284000
  0
ACAD_PROXY_OBJECT
  5
5A
102
{ACAD_REACTORS
330
47
102
}
330
47
100
AcDbProxyObject
 90
      499
 91
      503
 93
      249
310
90D312F363422203D2031272D3022000000000000240FC000000000000284000
  0
ACAD_PROXY_OBJECT
  5
5B
102
{ACAD_REACTORS
330
47
102
}
330
47
100
AcDbProxyObject
 90
      499
 91
      503
 93
      249
310
90D312F333222203D2031272D3022000000000000280FC000000000000284000
  0
ACAD_PROXY_OBJECT
  5
5C
102
{ACAD_REACTORS
330
47
102
}
330
47
100
AcDbProxyObject
 90
      499
 91
      503
 93
      249
310
90D312F313622203D2031272D30220000000000002C0FC000000000000284000
  0
ACAD_PROXY_OBJECT
  5
5D
102
{ACAD_REACTORS
330
47
102
}
330
47
100
AcDbProxyObject
 90
      499
 91
      503
 93
      249
310
90D332F333222203D2031272D30220000000000002E0FC000000000000284000
  0
ACAD_PROXY_OBJECT
  5
5E
102
{ACAD_REACTORS
330
47
102
}
330
47
100
AcDbProxyObject
 90
      499
 91
      503
 93
      241
310
90C312F3822203D2031272D3022000000000000300FC000000000000284000
  0
ACAD_PROXY_OBJECT
  5
5F
102
{ACAD_REACTORS
330
47
102
}
330
47
100
AcDbProxyObject
 90
      499
 91
      503
 93
      249
310
90D332F313622203D2031272D3022000000000000320FC000000000000284000
  0
ACAD_PROXY_OBJECT
  5
60
102
{ACAD_REACTORS
330
47
102
}
330
47
100
AcDbProxyObject
 90
      499
 91
      503
 93
      241
310
90C312F3422203D2031272D3022000000000000340FC000000000000284000
  0
ACAD_PROXY_OBJECT
  5
61
102
{ACAD_REACTORS
330
47
102
}
330
47
100
AcDbProxyObject
 90
      499
 91
      503
 93
      241
310
90C332F3822203D2031272D3022000000000000360FC000000000000284000
  0
ACAD_PROXY_OBJECT
  5
62
102
{ACAD_REACTORS
330
47
102
}
330
47
100
AcDbProxyObject
 90
      499
 91
      503
 93
      241
310
90C312F3222203D2031272D3022000000000000380FC000000000000284000
  0
ACAD_PROXY_OBJECT
  5
63
102
{ACAD_REACTORS
330
47
102
}
330
47
100
AcDbProxyObject
 90
      499
 91
      503
 93
      241
310
90C332F3422203D2031272D30220000000000003A0FC000000000000284000
  0
ACAD_PROXY_OBJECT
  5
64
102
{ACAD_REACTORS
330
47
102
}
330
47
100
AcDbProxyObject
 90
      499
 91
      503
 93
      161
310
90A3122203D2031272D30224000000000000284000
  0
ACAD_PROXY_OBJECT
  5
65
102
{ACAD_REACTORS
330
47
102
}
330
47
100
AcDbProxyObject
 90
      499
 91
      503
 93
      257
310
90E312D312F3222203D2031272D30220000000000003E0FC000000000000284000
  0
ACAD_PROXY_OBJECT
  5
66
102
{ACAD_REACTORS
330
47
102
}
330
47
100
AcDbProxyObject
 90
      499
 91
      503
 93
      225
310
90A3322203D2031272D302200000000000002100000000000000284000
  0
ACAD_PROXY_OBJECT
  5
67
102
{ACAD_REACTORS
330
47
102
}
330
47
100
AcDbProxyObject
 90
      499
 91
      503
 93
      225
310
90A3622203D2031272D302200000000000006100000000000000284000
  0
ACAD_PROXY_OBJECT
  5
68
102
{ACAD_REACTORS
330
47
102
}
330
47
100
AcDbProxyObject
 90
      499
 91
      503
 93
      249
310
90D31272D3022203D2031272D30220000000000000A100000000000000284000
  0
ACAD_PROXY_OBJECT
  5
2F
102
{ACAD_REACTORS
330
2A
102
}
330
2A
100
AcDbProxyObject
 90
      499
 91
      501
 93
      436
310
42CC9915DA5C99599C985B595049028333333333333E33F0000000000000F90107901411070040501600405405064090741402480A0340
1001
ACAD
1000
AcDbSavedByObjectVersion
1070
     0
  0
ACAD_PROXY_OBJECT
  5
32
102
{ACAD_REACTORS
330
2A
102
}
330
2A
100
AcDbProxyObject
 90
      499
 91
      501
 93
      388
310
4150985CDA58D07406404333333333333E33F0000000000000F90107A41107004050150841D405064090741402480A0350
1001
ACAD
1000
AcDbSavedByObjectVersion
1070
     0
  0
ACAD_PROXY_OBJECT
  5
36
102
{ACAD_REACTORS
330
2A
102
}
330
2A
100
AcDbProxyObject
 90
      499
 91
      501
 93
      428
310
42109C9A59DA1D195B90C409028333333333333E33F0000000000000F9010790141107004050150841D405064090741402480A029950
1001
ACAD
1000
AcDbSavedByObjectVersion
1070
     0
  0
ACAD_PROXY_OBJECT
  5
3A
102
{ACAD_REACTORS
330
2A
102
}
330
2A
100
AcDbProxyObject
 90
      499
 91
      501
 93
      452
310
42D0DBDB1BDC90DA185B99D95104090240C333333333333E33F0000000000000F90108901411070040501508421405064090741402480A0350
1001
ACAD
1000
AcDbSavedByObjectVersion
1070
     0
  0
ACAD_PROXY_OBJECT
  5
34
102
{ACAD_REACTORS
330
2A
102
}
330
2A
100
AcDbProxyObject
 90
      499
 91
      501
 93
      500
310
4290DBDB98D95C1D1D585B10940D028333333333333E33F0000000000000F90107902409070040501000000000018199010841D405064090740C02480A0340
1001
ACAD
1000
AcDbSavedByObjectVersion
1070
     0
  0
ACAD_PROXY_OBJECT
  5
35
102
{ACAD_REACTORS
330
2A
102
}
330
2A
100
AcDbProxyObject
 90
      499
 91
      501
 93
      412
310
40D11A5B50B409028333333333333E33F0000000000000F9010790141107004050150841D405064090741402480A02677FFFFFD0
1001
ACAD
1000
AcDbSavedByObjectVersion
1070
     0
  0
ACAD_PROXY_OBJECT
  5
3D
102
{ACAD_REACTORS
330
2A
102
}
330
2A
100
AcDbProxyObject
 90
      499
 91
      501
 93
      452
310
43115919D950DBDB1BDC93D999916409028333333333333E33F0000000000000F9010790141107004050150841D405064090741402480A0350
1001
ACAD
1000
AcDbSavedByObjectVersion
1070
     0
  0
ACAD_PROXY_OBJECT
  5
39
102
{ACAD_REACTORS
330
2A
102
}
330
2A
100
AcDbProxyObject
 90
      499
 91
      501
 93
      444
310
42D19858D95C185D1D195C9B90F409028333333333333E33F0000000000000F9010790141107004050150841D405064090741402480A0350
1001
ACAD
1000
AcDbSavedByObjectVersion
1070
     0
  0
ACAD_PROXY_OBJECT
  5
2B
102
{ACAD_REACTORS
330
2A
102
}
330
2A
100
AcDbProxyObject
 90
      499
 91
      501
 93
      380
310
41119B185D240901404333333333333E33F0000000000000F9010740A907004050150841D405064090741402480A1B50
1001
ACAD
1000
AcDbSavedByObjectVersion
1070
     0
  0
ACAD_PROXY_OBJECT
  5
2C
102
{ACAD_REACTORS
330
2A
102
}
330
2A
100
AcDbProxyObject
 90
      499
 91
      501
 93
      468
310
43519B185D15DA5D1A115919D95CD0140901404333333333333E33F0000000000000F90107409019070040501600405405064090741402480A1B50
1001
ACAD
1000
AcDbSavedByObjectVersion
1070
     0
  0
ACAD_PROXY_OBJECT
  5
2D
102
{ACAD_REACTORS
330
2A
102
}
330
2A
100
AcDbProxyObject
 90
      499
 91
      501
 93
      404
310
41D1DBDD5C985D5910240902404333333333333E33F0000000000000F9010740A9070040501641D405064090741402480A1B50
1001
ACAD
1000
AcDbSavedByObjectVersion
1070
     0
  0
ACAD_PROXY_OBJECT
  5
2E
102
{ACAD_REACTORS
330
2A
102
}
330
2A
100
AcDbProxyObject
 90
      499
 91
      501
 93
      492
310
4411DBDD5C985D5915DA5D1A115919D95CD0340902404333333333333E33F0000000000000F90107409019070040501600405405064090741402480A1B50
1001
ACAD
1000
AcDbSavedByObjectVersion
1070
     0
  0
ACAD_PROXY_OBJECT
  5
31
102
{ACAD_REACTORS
330
2A
102
}
330
2A
100
AcDbProxyObject
 90
      499
 91
      501
 93
      476
310
41921A5919195B90640502408333333333333E33F0000000000000F901079024090700405020000000000001110200405405064090740C02480A0340
1001
ACAD
1000
AcDbSavedByObjectVersion
1070
     0
  0
ACAD_PROXY_OBJECT
  5
3B
102
{ACAD_REACTORS
330
2A
102
}
330
2A
100
AcDbProxyObject
 90
      499
 91
      501
 93
      428
310
42529A5D1D195C93D999914409028333333333333E33F0000000000000F9010790141107004050150A41D405064090741402480A0350
1001
ACAD
1000
AcDbSavedByObjectVersion
1070
     0
  0
ACAD_PROXY_OBJECT
  5
38
102
{ACAD_REACTORS
330
2A
102
}
330
2A
100
AcDbProxyObject
 90
      499
 91
      501
 93
      444
310
42D31A5B995C185D1D195C9B90E409028333333333333E33F0000000000000F9010790141107004050750841D405064090741402483A0350
1001
ACAD
1000
AcDbSavedByObjectVersion
1070
     0
  0
ACAD_PROXY_OBJECT
  5
3C
102
{ACAD_REACTORS
330
2A
102
}
330
2A
100
AcDbProxyObject
 90
      499
 91
      501
 93
      444
310
42D3DD995C9A185B99D3D999915409028333333333333E33F0000000000000F9010790141107004050150941D405064090741402480A0350
1001
ACAD
1000
AcDbSavedByObjectVersion
1070
     0
  0
ACAD_PROXY_OBJECT
  5
33
102
{ACAD_REACTORS
330
2A
102
}
330
2A
100
AcDbProxyObject
 90
      499
 91
      501
 93
      428
310
425499585B1A5CDD1A58D08409038333333333333E33F0000000000000F9010740A907004050150800405405064090740C02480A1B40
1001
ACAD
1000
AcDbSavedByObjectVersion
1070
     0
  0
ACAD_PROXY_OBJECT
  5
42
102
{ACAD_REACTORS
330
2A
102
}
330
2A
100
AcDbProxyObject
 90
      499
 91
      501
 93
      420
310
4194DA1859195911B40902404333333333333E33F0000000000000F9010740A41107004050150800405405064090840C02480A0B40
1001
ACAD
1000
AcDbSavedByObjectVersion
1070
     0
  0
ACAD_PROXY_OBJECT
  5
41
102
{ACAD_REACTORS
330
2A
102
}
330
2A
100
AcDbProxyObject
 90
      499
 91
      501
 93
      516
310
4454DA18591959081DDA5D1A08195919D95CD1A40902404333333333333E33F0000000000000F901074090142907004050250800405405064090740C02480A0B40
1001
ACAD
1000
AcDbSavedByObjectVersion
1070
     0
  0
ACAD_PROXY_OBJECT
  5
3E
102
{ACAD_REACTORS
330
2A
102
}
330
2A
100
AcDbProxyObject
 90
      499
 91
      501
 93
      532
310
4394DA1859195CC81BD98811DC985E5174090240C333333333333E33F0000000000000F901079024090741D01000000000000111010841D405064090740C02480A0340
1001
ACAD
1000
AcDbSavedByObjectVersion
1070
     0
  0
ACAD_PROXY_OBJECT
  5
3F
102
{ACAD_REACTORS
330
2A
102
}
330
2A
100
AcDbProxyObject
 90
      499
 91
      501
 93
      476
310
41D4DAD95D18DA1E51840502408333333333333E33F0000000000000F901079024090741D01000000000000111010B41D405064090741802480A0340
1001
ACAD
1000
AcDbSavedByObjectVersion
1070
     0
  0
ACAD_PROXY_OBJECT
  5
37
102
{ACAD_REACTORS
330
2A
102
}
330
2A
100
AcDbProxyObject
 90
      499
 91
      501
 93
      412
310
41D51A1A58DAD95B90D409028333333333333E33F0000000000000F9010790141107004050150C41D405064090741402480A0350
1001
ACAD
1000
AcDbSavedByObjectVersion
1070
     0
  0
ACAD_PROXY_OBJECT
  5
30
102
{ACAD_REACTORS
330
2A
102
}
330
2A
100
AcDbProxyObject
 90
      499
 91
      501
 93
      420
310
4255DA5C99599C985B595059028333333333333E33F0000000000000F90107901411070040501600405405064090740C02480A0340
1001
ACAD
1000
AcDbSavedByObjectVersion
1070
     0
  0
ACAD_PROXY_OBJECT
  5
40
102
{ACAD_REACTORS
330
2A
102
}
330
2A
100
AcDbProxyObject
 90
      499
 91
      501
 93
      404
310
41560B54985E51940902404000000000000E03F0000000000000F9010740501907004050150841D405064090740C02480A1B40
1001
ACAD
1000
AcDbSavedByObjectVersion
1070
     0
  0
XRECORD
  5
25A
102
{ACAD_REACTORS
330
250
102
}
330
250
100
AcDbXrecord
340
0
  0
XRECORD
  5
259
102
{ACAD_REACTORS
330
250
102
}
330
250
100
AcDbXrecord
 90
        0
  0
XRECORD
  5
270
102
{ACAD_REACTORS
330
250
102
}
330
250
100
AcDbXrecord
1000
DSTYLE
1002
{
1070
   179
 70
     2
1070
   171
 70
     2
1070
   143
 40
25.4
1070
   274
 70
     2
1070
    41
 40
3.0
1070
   141
 40
0.09
1070
    43
 40
0.38
1070
   278
 70
    46
1070
    44
 40
1.5
1070
    42
 40
0.0625
1070
   147
 40
1.5
1070
   272
 70
     4
1070
    73
 70
     1
1070
   172
 70
     0
1070
    74
 70
     1
1070
   283
 70
     1
1070
   340
340
6F
1070
   140
 40
3.0
1070
   284
 70
     0
1070
    78
 70
     0
1002
}
  0
XRECORD
  5
25B
102
{ACAD_REACTORS
330
250
102
}
330
250
100
AcDbXrecord
  1
{27D8FA16-25A1-4231-96AA-07A3CB8D05D6}
  0
XRECORD
  5
253
102
{ACAD_REACTORS
330
250
102
}
330
250
100
AcDbXrecord
  1

  0
XRECORD
  5
258
102
{ACAD_REACTORS
330
250
102
}
330
250
100
AcDbXrecord
 90
        4
  0
XRECORD
  5
255
102
{ACAD_REACTORS
330
250
102
}
330
250
100
AcDbXrecord
340
1A
  0
XRECORD
  5
257
102
{ACAD_REACTORS
330
250
102
}
330
250
100
AcDbXrecord
 90
    10269
  0
XRECORD
  5
256
102
{ACAD_REACTORS
330
250
102
}
330
250
100
AcDbXrecord
340
19
  0
XRECORD
  5
25D
102
{ACAD_REACTORS
330
250
102
}
330
250
100
AcDbXrecord
 40
0.0
  0
XRECORD
  5
260
102
{ACAD_REACTORS
330
250
102
}
330
250
100
AcDbXrecord
340
0
  0
XRECORD
  5
266
102
{ACAD_REACTORS
330
250
102
}
330
250
100
AcDbXrecord
 10
0.0
 20
0.0
 30
0.0
  0
XRECORD
  5
262
102
{ACAD_REACTORS
330
250
102
}
330
250
100
AcDbXrecord
 10
0.0
 20
0.0
 30
0.0
  0
XRECORD
  5
265
102
{ACAD_REACTORS
330
250
102
}
330
250
100
AcDbXrecord
 10
0.0
 20
0.0
 30
0.0
  0
XRECORD
  5
263
102
{ACAD_REACTORS
330
250
102
}
330
250
100
AcDbXrecord
 10
0.0
 20
0.0
 30
0.0
  0
XRECORD
  5
264
102
{ACAD_REACTORS
330
250
102
}
330
250
100
AcDbXrecord
 10
0.0
 20
0.0
 30
0.0
  0
XRECORD
  5
261
102
{ACAD_REACTORS
330
250
102
}
330
250
100
AcDbXrecord
 10
0.0
 20
0.0
 30
0.0
  0
XRECORD
  5
25E
102
{ACAD_REACTORS
330
250
102
}
330
250
100
AcDbXrecord
340
0
  0
XRECORD
  5
25F
102
{ACAD_REACTORS
330
250
102
}
330
250
100
AcDbXrecord
 70
     0
  0
XRECORD
  5
254
102
{ACAD_REACTORS
330
250
102
}
330
250
100
AcDbXrecord
  1

  0
XRECORD
  5
251
102
{ACAD_REACTORS
330
250
102
}
330
250
100
AcDbXrecord
 90
        1
  0
XRECORD
  5
252
102
{ACAD_REACTORS
330
250
102
}
330
250
100
AcDbXrecord
 90
       70
  0
XRECORD
  5
269
102
{ACAD_REACTORS
330
250
102
}
330
250
100
AcDbXrecord
340
0
  0
XRECORD
  5
26F
102
{ACAD_REACTORS
330
250
102
}
330
250
100
AcDbXrecord
 10
0.0
 20
0.0
 30
0.0
  0
XRECORD
  5
26B
102
{ACAD_REACTORS
330
250
102
}
330
250
100
AcDbXrecord
 10
0.0
 20
0.0
 30
0.0
  0
XRECORD
  5
26E
102
{ACAD_REACTORS
330
250
102
}
330
250
100
AcDbXrecord
 10
0.0
 20
0.0
 30
0.0
  0
XRECORD
  5
26C
102
{ACAD_REACTORS
330
250
102
}
330
250
100
AcDbXrecord
 10
0.0
 20
0.0
 30
0.0
  0
XRECORD
  5
26D
102
{ACAD_REACTORS
330
250
102
}
330
250
100
AcDbXrecord
 10
0.0
 20
0.0
 30
0.0
  0
XRECORD
  5
26A
102
{ACAD_REACTORS
330
250
102
}
330
250
100
AcDbXrecord
 10
0.0
 20
0.0
 30
0.0
  0
XRECORD
  5
267
102
{ACAD_REACTORS
330
250
102
}
330
250
100
AcDbXrecord
340
0
  0
XRECORD
  5
268
102
{ACAD_REACTORS
330
250
102
}
330
250
100
AcDbXrecord
 70
     0
  0
XRECORD
  5
25C
102
{ACAD_REACTORS
330
250
102
}
330
250
100
AcDbXrecord
  1
{FAEB1C32-E019-11D5-929B-00C0DF256EC4}
  0
DICTIONARYVAR
  5
27A
102
{ACAD_REACTORS
330
271
102
}
330
271
100
DictionaryVariables
280
     0
  1
1:1
  0
DICTIONARYVAR
  5
273
102
{ACAD_REACTORS
330
271
102
}
330
271
100
DictionaryVariables
280
     0
  1
Standard
  0
DICTIONARYVAR
  5
272
102
{ACAD_REACTORS
330
271
102
}
330
271
100
DictionaryVariables
280
     0
  1
Standard
  0
DICTIONARYVAR
  5
276
102
{ACAD_REACTORS
330
271
102
}
330
271
100
DictionaryVariables
280
     0
  1
2
  0
DICTIONARYVAR
  5
277
102
{ACAD_REACTORS
330
271
102
}
330
271
100
DictionaryVariables
280
     0
  1
1
  0
DICTIONARYVAR
  5
27B
102
{ACAD_REACTORS
330
271
102
}
330
271
100
DictionaryVariables
280
     0
  1
1
  0
DICTIONARY
  5
27E
330
45
100
AcDbDictionary
280
     1
  3
ACAD_XREC_ROUNDTRIP
360
27F
  0
DICTIONARY
  5
27C
330
44
100
AcDbDictionary
280
     1
  3
ACAD_XREC_ROUNDTRIP
360
27D
  0
DICTIONARY
  5
280
330
46
100
AcDbDictionary
280
     1
  3
ACAD_XREC_ROUNDTRIP
360
281
  0
XRECORD
  5
27F
102
{ACAD_REACTORS
330
27E
102
}
330
27E
100
AcDbXrecord
102
MATERIAL
148
0.0
149
0.0
149
0.0
 93
        0
 94
      127
282
     0
 72
     1
 77
     1
171
     1
175
     1
179
     1
273
     0
  0
XRECORD
  5
27D
102
{ACAD_REACTORS
330
27C
102
}
330
27C
100
AcDbXrecord
102
MATERIAL
148
0.0
149
0.0
149
0.0
 93
        0
 94
      127
282
     0
 72
     1
 77
     1
171
     1
175
     1
179
     1
273
     0
  0
XRECORD
  5
281
102
{ACAD_REACTORS
330
280
102
}
330
280
100
AcDbXrecord
102
MATERIAL
148
0.0
149
0.0
149
0.0
 93
        0
 94
      127
282
     0
 72
     1
 77
     1
171
     1
175
     1
179
     1
273
     0
  0
ENDSEC
  0
EOF
