  0
SECTION
  2
HEADER
  9
$ACADVER
  1
AC1014
  9
$ACADMAINTVER
 70
     9
  9
$DWGCODEPAGE
  3
ANSI_932
  9
$INSBASE
 10
0.0
 20
0.0
 30
0.0
  9
$EXTMIN
 10
-465.9500000000002
 20
203.4727272727273
 30
0.0
  9
$EXTMAX
 10
-320.0000000000001
 20
305.0000000000001
 30
0.0
  9
$LIMMIN
 10
0.0
 20
0.0
  9
$LIMMAX
 10
12.0
 20
9.0
  9
$ORTHOMODE
 70
     0
  9
$REGENMODE
 70
     1
  9
$FILLMODE
 70
     1
  9
$QTEXTMODE
 70
     0
  9
$MIRRTEXT
 70
     1
  9
$DRAGMODE
 70
     2
  9
$LTSCALE
 40
1.0
  9
$OSMODE
 70
    37
  9
$ATTMODE
 70
     1
  9
$TEXTSIZE
 40
0.2
  9
$TRACEWID
 40
0.05
  9
$TEXTSTYLE
  7
STANDARD
  9
$CLAYER
  8
0
  9
$CELTYPE
  6
BYLAYER
  9
$CECOLOR
 62
   256
  9
$CELTSCALE
 40
1.0
  9
$DELOBJ
 70
     1
  9
$DISPSILH
 70
     0
  9
$DIMSCALE
 40
1.0
  9
$DIMASZ
 40
3.0
  9
$DIMEXO
 40
0.0625
  9
$DIMDLI
 40
0.38
  9
$DIMRND
 40
0.0
  9
$DIMDLE
 40
0.0
  9
$DIMEXE
 40
1.5
  9
$DIMTP
 40
0.0
  9
$DIMTM
 40
0.0
  9
$DIMTXT
 40
3.0
  9
$DIMCEN
 40
0.09
  9
$DIMTSZ
 40
0.0
  9
$DIMTOL
 70
     0
  9
$DIMLIM
 70
     0
  9
$DIMTIH
 70
     1
  9
$DIMTOH
 70
     1
  9
$DIMSE1
 70
     0
  9
$DIMSE2
 70
     0
  9
$DIMTAD
 70
     1
  9
$DIMZIN
 70
     0
  9
$DIMBLK
  1

  9
$DIMASO
 70
     1
  9
$DIMSHO
 70
     1
  9
$DIMPOST
  1

  9
$DIMAPOST
  1

  9
$DIMALT
 70
     0
  9
$DIMALTD
 70
     2
  9
$DIMALTF
 40
25.4
  9
$DIMLFAC
 40
1.0
  9
$DIMTOFL
 70
     0
  9
$DIMTVP
 40
0.0
  9
$DIMTIX
 70
     0
  9
$DIMSOXD
 70
     0
  9
$DIMSAH
 70
     0
  9
$DIMBLK1
  1

  9
$DIMBLK2
  1

  9
$DIMSTYLE
  2
STANDARD
  9
$DIMCLRD
 70
     0
  9
$DIMCLRE
 70
     0
  9
$DIMCLRT
 70
     0
  9
$DIMTFAC
 40
1.0
  9
$DIMGAP
 40
1.5
  9
$DIMJUST
 70
     0
  9
$DIMSD1
 70
     0
  9
$DIMSD2
 70
     0
  9
$DIMTOLJ
 70
     1
  9
$DIMTZIN
 70
     0
  9
$DIMALTZ
 70
     0
  9
$DIMALTTZ
 70
     0
  9
$DIMFIT
 70
     3
  9
$DIMUPT
 70
     0
  9
$DIMUNIT
 70
     2
  9
$DIMDEC
 70
     2
  9
$DIMTDEC
 70
     4
  9
$DIMALTU
 70
     2
  9
$DIMALTTD
 70
     2
  9
$DIMTXSTY
  7
ＭＳ_ゴシック
  9
$DIMAUNIT
 70
     0
  9
$LUNITS
 70
     2
  9
$LUPREC
 70
     4
  9
$SKETCHINC
 40
0.1
  9
$FILLETRAD
 40
0.5
  9
$AUNITS
 70
     0
  9
$AUPREC
 70
     0
  9
$MENU
  1
.
  9
$ELEVATION
 40
0.0
  9
$PELEVATION
 40
0.0
  9
$THICKNESS
 40
0.0
  9
$LIMCHECK
 70
     0
  9
$CHAMFERA
 40
0.0
  9
$CHAMFERB
 40
0.0
  9
$CHAMFERC
 40
0.0
  9
$CHAMFERD
 40
0.0
  9
$SKPOLY
 70
     0
  9
$TDCREATE
 40
2459788.478101377
  9
$TDUPDATE
 40
2459788.478101632
  9
$TDINDWG
 40
0.0000000116
  9
$TDUSRTIMER
 40
0.0000000116
  9
$USRTIMER
 70
     1
  9
$ANGBASE
 50
0.0
  9
$ANGDIR
 70
     0
  9
$PDMODE
 70
     0
  9
$PDSIZE
 40
0.0
  9
$PLINEWID
 40
0.0
  9
$COORDS
 70
     1
  9
$SPLFRAME
 70
     0
  9
$SPLINETYPE
 70
     6
  9
$SPLINESEGS
 70
     8
  9
$ATTDIA
 70
     0
  9
$ATTREQ
 70
     1
  9
$HANDLING
 70
     1
  9
$HANDSEED
  5
284
  9
$SURFTAB1
 70
     6
  9
$SURFTAB2
 70
     6
  9
$SURFTYPE
 70
     6
  9
$SURFU
 70
     6
  9
$SURFV
 70
     6
  9
$UCSNAME
  2

  9
$UCSORG
 10
0.0
 20
0.0
 30
0.0
  9
$UCSXDIR
 10
1.0
 20
0.0
 30
0.0
  9
$UCSYDIR
 10
0.0
 20
1.0
 30
0.0
  9
$PUCSNAME
  2

  9
$PUCSORG
 10
0.0
 20
0.0
 30
0.0
  9
$PUCSXDIR
 10
1.0
 20
0.0
 30
0.0
  9
$PUCSYDIR
 10
0.0
 20
1.0
 30
0.0
  9
$USERI1
 70
     0
  9
$USERI2
 70
     0
  9
$USERI3
 70
     0
  9
$USERI4
 70
     0
  9
$USERI5
 70
     0
  9
$USERR1
 40
0.0
  9
$USERR2
 40
0.0
  9
$USERR3
 40
0.0
  9
$USERR4
 40
0.0
  9
$USERR5
 40
0.0
  9
$WORLDVIEW
 70
     1
  9
$SHADEDGE
 70
     3
  9
$SHADEDIF
 70
    70
  9
$TILEMODE
 70
     1
  9
$MAXACTVP
 70
    64
  9
$PINSBASE
 10
0.0
 20
0.0
 30
0.0
  9
$PLIMCHECK
 70
     0
  9
$PEXTMIN
 10
1.000000000000000E+20
 20
1.000000000000000E+20
 30
1.000000000000000E+20
  9
$PEXTMAX
 10
-1.000000000000000E+20
 20
-1.000000000000000E+20
 30
-1.000000000000000E+20
  9
$PLIMMIN
 10
0.0
 20
0.0
  9
$PLIMMAX
 10
12.0
 20
9.0
  9
$UNITMODE
 70
     0
  9
$VISRETAIN
 70
     1
  9
$PLINEGEN
 70
     0
  9
$PSLTSCALE
 70
     1
  9
$TREEDEPTH
 70
  3020
  9
$PICKSTYLE
 70
     1
  9
$CMLSTYLE
  2
STANDARD
  9
$CMLJUST
 70
     0
  9
$CMLSCALE
 40
1.0
  9
$PROXYGRAPHICS
 70
     1
  9
$MEASUREMENT
 70
     1
  0
ENDSEC
  0
SECTION
  2
CLASSES
  0
CLASS
  1
ACDBDICTIONARYWDFLT
  2
AcDbDictionaryWithDefault
  3
ObjectDBX Classes
 90
        0
280
     0
281
     0
  0
CLASS
  1
VISUALSTYLE
  2
AcDbVisualStyle
  3
ObjectDBX Classes
 90
     4095
280
     0
281
     0
  0
CLASS
  1
MATERIAL
  2
AcDbMaterial
  3
ObjectDBX Classes
 90
     1153
280
     0
281
     0
  0
CLASS
  1
SCALE
  2
AcDbScale
  3
ObjectDBX Classes
 90
     1153
280
     0
281
     0
  0
CLASS
  1
TABLESTYLE
  2
AcDbTableStyle
  3
ObjectDBX Classes
 90
     4095
280
     0
281
     0
  0
CLASS
  1
MLEADERSTYLE
  2
AcDbMLeaderStyle
  3
ACDB_MLEADERSTYLE_CLASS
 90
     4095
280
     0
281
     0
  0
CLASS
  1
SUN
  2
AcDbSun
  3
SCENEOE
 90
     1153
280
     0
281
     0
  0
CLASS
  1
DICTIONARYVAR
  2
AcDbDictionaryVar
  3
ObjectDBX Classes
 90
        0
280
     0
281
     0
  0
CLASS
  1
XRECORD
  2
AcDbXrecord
  3
ObjectDBX Classes
 90
        0
280
     0
281
     0
  0
CLASS
  1
LWPOLYLINE
  2
AcDbPolyline
  3
ObjectDBX Classes
 90
        0
280
     0
281
     1
  0
CLASS
  1
HATCH
  2
AcDbHatch
  3
ObjectDBX Classes
 90
        0
280
     0
281
     1
  0
CLASS
  1
ACDBPLACEHOLDER
  2
AcDbPlaceHolder
  3
ObjectDBX Classes
 90
        0
280
     0
281
     0
  0
CLASS
  1
LAYOUT
  2
AcDbLayout
  3
ObjectDBX Classes
 90
        0
280
     0
281
     0
  0
ENDSEC
  0
SECTION
  2
TABLES
  0
TABLE
  2
VPORT
  5
8
102
{ACAD_XDICTIONARY
360
279
102
}
330
0
100
AcDbSymbolTable
 70
     1
  0
VPORT
  5
29
330
8
100
AcDbSymbolTableRecord
100
AcDbViewportTableRecord
  2
*ACTIVE
 70
     0
 10
0.0
 20
0.0
 11
1.0
 21
1.0
 12
-392.9750000000001
 22
254.2363636363637
 13
0.0
 23
0.0
 14
0.5
 24
0.5
 15
0.5
 25
0.5
 16
0.0
 26
0.0
 36
1.0
 17
0.0
 27
0.0
 37
0.0
 40
101.5272727272728
 41
1.6
 42
50.0
 43
0.0
 44
0.0
 50
0.0
 51
0.0
 71
     0
 72
   100
 73
     1
 74
     3
 75
     0
 76
     0
 77
     0
 78
     0
  0
ENDTAB
  0
TABLE
  2
LTYPE
  5
5
330
0
100
AcDbSymbolTable
 70
     2
  0
LTYPE
  5
14
330
5
100
AcDbSymbolTableRecord
100
AcDbLinetypeTableRecord
  2
BYBLOCK
 70
     0
  3

 72
    65
 73
     0
 40
0.0
  0
LTYPE
  5
15
330
5
100
AcDbSymbolTableRecord
100
AcDbLinetypeTableRecord
  2
BYLAYER
 70
     0
  3

 72
    65
 73
     0
 40
0.0
  0
LTYPE
  5
16
330
5
100
AcDbSymbolTableRecord
100
AcDbLinetypeTableRecord
  2
CONTINUOUS
 70
     0
  3
Solid line
 72
    65
 73
     0
 40
0.0
  0
LTYPE
  5
24E
330
5
100
AcDbSymbolTableRecord
100
AcDbLinetypeTableRecord
  2
CENTER
 70
     0
  3

 72
    65
 73
     0
 40
0.0
  0
ENDTAB
  0
TABLE
  2
LAYER
  5
2
330
0
100
AcDbSymbolTable
 70
     2
  0
LAYER
  5
10
330
2
100
AcDbSymbolTableRecord
100
AcDbLayerTableRecord
  2
0
 70
     0
 62
     7
  6
CONTINUOUS
  0
LAYER
  5
6E
330
2
100
AcDbSymbolTableRecord
100
AcDbLayerTableRecord
  2
1
 70
     0
 62
     7
  6
CONTINUOUS
  0
ENDTAB
  0
TABLE
  2
STYLE
  5
3
330
0
100
AcDbSymbolTable
 70
     2
  0
STYLE
  5
11
330
3
100
AcDbSymbolTableRecord
100
AcDbTextStyleTableRecord
  2
STANDARD
 70
     0
 40
0.0
 41
1.0
 50
0.0
 71
     0
 42
0.2
  3
txt
  4

  0
STYLE
  5
6F
330
3
100
AcDbSymbolTableRecord
100
AcDbTextStyleTableRecord
  2
ＭＳ_ゴシック
 70
     0
 40
0.0
 41
1.0
 50
0.0
 71
     0
 42
0.2
  3
ＭＳ ゴシック.shx
  4

  0
ENDTAB
  0
TABLE
  2
VIEW
  5
6
330
0
100
AcDbSymbolTable
 70
     0
  0
ENDTAB
  0
TABLE
  2
UCS
  5
7
330
0
100
AcDbSymbolTable
 70
     0
  0
ENDTAB
  0
TABLE
  2
APPID
  5
9
330
0
100
AcDbSymbolTable
 70
     2
  0
APPID
  5
12
330
9
100
AcDbSymbolTableRecord
100
AcDbRegAppTableRecord
  2
ACAD
 70
     0
  0
APPID
  5
283
330
9
100
AcDbSymbolTableRecord
100
AcDbRegAppTableRecord
  2
ACAD_MLEADERVER
 70
     0
  0
ENDTAB
  0
TABLE
  2
DIMSTYLE
  5
A
330
0
100
AcDbSymbolTable
 70
     1
  0
DIMSTYLE
105
27
330
A
100
AcDbSymbolTableRecord
100
AcDbDimStyleTableRecord
  2
STANDARD
 70
     0
  3

  4

  5

  6

  7

 40
1.0
 41
0.18
 42
0.0625
 43
0.38
 44
0.18
 45
0.0
 46
0.0
 47
0.0
 48
0.0
140
0.18
141
0.09
142
0.0
143
25.4
144
1.0
145
0.0
146
1.0
147
0.09
 71
     0
 72
     0
 73
     1
 74
     1
 75
     0
 76
     0
 77
     0
 78
     0
170
     0
171
     2
172
     0
173
     0
174
     0
175
     0
176
     0
177
     0
178
     0
270
     2
271
     4
272
     4
273
     2
274
     2
340
11
275
     0
280
     0
281
     0
282
     0
283
     1
284
     0
285
     0
286
     0
287
     3
288
     0
  0
ENDTAB
  0
TABLE
  2
BLOCK_RECORD
  5
1
330
0
100
AcDbSymbolTable
 70
     0
  0
BLOCK_RECORD
  5
1F
330
1
100
AcDbSymbolTableRecord
100
AcDbBlockTableRecord
  2
*MODEL_SPACE
  0
BLOCK_RECORD
  5
1B
330
1
100
AcDbSymbolTableRecord
100
AcDbBlockTableRecord
  2
*PAPER_SPACE
  0
ENDTAB
  0
ENDSEC
  0
SECTION
  2
BLOCKS
  0
BLOCK
  5
20
330
1F
100
AcDbEntity
  8
0
100
AcDbBlockBegin
  2
*MODEL_SPACE
 70
     0
 10
0.0
 20
0.0
 30
0.0
  3
*MODEL_SPACE
  1

  0
ENDBLK
  5
21
330
1F
100
AcDbEntity
  8
0
100
AcDbBlockEnd
  0
BLOCK
  5
1C
330
1B
100
AcDbEntity
 67
     1
  8
0
100
AcDbBlockBegin
  2
*PAPER_SPACE
 70
     0
 10
0.0
 20
0.0
 30
0.0
  3
*PAPER_SPACE
  1

  0
ENDBLK
  5
1D
330
1B
100
AcDbEntity
 67
     1
  8
0
100
AcDbBlockEnd
  0
ENDSEC
  0
SECTION
  2
ENTITIES
  0
LINE
  5
70
330
1F
100
AcDbEntity
  8
1
  6
CONTINUOUS
 62
     7
100
AcDbLine
 10
-350.4504720683414
 20
252.1
 30
0.0
 11
-327.3615059454263
 21
252.1
 31
0.0
  0
LINE
  5
71
330
1F
100
AcDbEntity
  8
1
  6
CONTINUOUS
 62
     7
100
AcDbLine
 10
-425.7354397604944
 20
252.1
 30
0.0
 11
-413.2000000000002
 21
252.1
 31
0.0
  0
ARC
  5
72
330
1F
100
AcDbEntity
  8
1
  6
CONTINUOUS
 62
     7
100
AcDbCircle
 10
-425.6997050211326
 20
233.5990255149763
 30
0.0
 40
18.50100899591954
100
AcDbArc
 50
89.88933300767779
 51
114.5307425789219
  0
ARC
  5
73
330
1F
100
AcDbEntity
  8
1
  6
CONTINUOUS
 62
     7
100
AcDbCircle
 10
-425.696976115632
 20
233.5899688677324
 30
0.0
 40
16.01031520839889
100
AcDbArc
 50
96.69651473340464
 51
116.8543463923647
  0
LINE
  5
74
330
1F
100
AcDbEntity
  8
1
  6
CONTINUOUS
 62
     7
100
AcDbLine
 10
-397.2000000000002
 20
231.1
 30
0.0
 11
-395.7000000000002
 21
231.1
 31
0.0
  0
LINE
  5
75
330
1F
100
AcDbEntity
  8
1
  6
CONTINUOUS
 62
     7
100
AcDbLine
 10
-397.8406406406409
 20
229.1
 30
0.0
 11
-397.2000000000002
 21
231.1
 31
0.0
  0
LINE
  5
76
330
1F
100
AcDbEntity
  8
1
  6
CONTINUOUS
 62
     7
100
AcDbLine
 10
-394.7000000000002
 20
229.1
 30
0.0
 11
-394.7000000000002
 21
224.6
 31
0.0
  0
LINE
  5
77
330
1F
100
AcDbEntity
  8
1
  6
CONTINUOUS
 62
     7
100
AcDbLine
 10
-394.7000000000002
 20
230.1
 30
0.0
 11
-394.7000000000002
 21
229.1
 31
0.0
  0
ARC
  5
78
330
1F
100
AcDbEntity
  8
1
  6
CONTINUOUS
 62
     7
100
AcDbCircle
 10
-395.7000000000002
 20
230.1
 30
0.0
 40
1.000000000000001
100
AcDbArc
 50
0.0000000000000994
 51
90.0
  0
LINE
  5
79
330
1F
100
AcDbEntity
  8
1
  6
CONTINUOUS
 62
     7
100
AcDbLine
 10
-400.0102546185417
 20
222.8376764445599
 30
0.0
 11
-396.8205116208826
 21
218.4278472426337
 31
0.0
  0
ARC
  5
7A
330
1F
100
AcDbEntity
  8
1
  6
CONTINUOUS
 62
     7
100
AcDbCircle
 10
-399.2000000000002
 20
223.4237544710479
 30
0.0
 40
1.000000000000001
100
AcDbArc
 50
179.9999999999999
 51
215.8791842007856
  0
ARC
  5
7B
330
1F
100
AcDbEntity
  8
1
  6
CONTINUOUS
 62
     7
100
AcDbCircle
 10
-413.2000000000002
 20
233.6
 30
0.0
 40
15.99999999999999
100
AcDbArc
 50
324.3409123038613
 51
342.2386816989592
  0
LINE
  5
7C
330
1F
100
AcDbEntity
  8
1
  6
CONTINUOUS
 62
     7
100
AcDbLine
 10
-395.2000000000002
 20
217.6
 30
0.0
 11
-392.45
 21
217.6
 31
0.0
  0
ARC
  5
7D
330
1F
100
AcDbEntity
  8
1
  6
CONTINUOUS
 62
     7
100
AcDbCircle
 10
-395.2000000000002
 20
219.6
 30
0.0
 40
1.999999999999999
100
AcDbArc
 50
215.8790676790651
 51
270.0
  0
LINE
  5
7E
330
1F
100
AcDbEntity
  8
1
  6
CONTINUOUS
 62
     7
100
AcDbLine
 10
-400.2000000000002
 20
224.2726209469112
 30
0.0
 11
-400.2000000000002
 21
223.4237544710479
 31
0.0
  0
LINE
  5
7F
330
1F
100
AcDbEntity
  8
1
  6
CONTINUOUS
 62
     7
100
AcDbLine
 10
-397.8406406406409
 20
229.1
 30
0.0
 11
-397.9626310772166
 21
228.719161105815
 31
0.0
  0
LINE
  5
80
330
1F
100
AcDbEntity
  8
1
  6
CONTINUOUS
 62
     7
100
AcDbLine
 10
-391.45
 20
217.6
 30
0.0
 11
-392.45
 21
217.6
 31
0.0
  0
LINE
  5
81
330
1F
100
AcDbEntity
  8
1
  6
CONTINUOUS
 62
     7
100
AcDbLine
 10
-391.45
 20
219.3035599320188
 30
0.0
 11
-391.45
 21
217.6
 31
0.0
  0
ARC
  5
82
330
1F
100
AcDbEntity
  8
1
  6
CONTINUOUS
 62
     7
100
AcDbCircle
 10
-392.45
 20
219.3035599320188
 30
0.0
 40
1.0
100
AcDbArc
 50
0.0
 51
33.02386755579681
  0
LINE
  5
83
330
1F
100
AcDbEntity
  8
1
  6
CONTINUOUS
 62
     7
100
AcDbLine
 10
-394.7000000000002
 20
224.6
 30
0.0
 11
-391.6115563836995
 21
219.8485482826142
 31
0.0
  0
LINE
  5
84
330
1F
100
AcDbEntity
  8
1
  6
CONTINUOUS
 62
     7
100
AcDbLine
 10
-441.7000000000002
 20
233.6
 30
0.0
 11
-441.7000000000002
 21
219.6
 31
0.0
  0
LINE
  5
85
330
1F
100
AcDbEntity
  8
1
  6
CONTINUOUS
 62
     7
100
AcDbLine
 10
-443.7000000000002
 20
217.6
 30
0.0
 11
-457.95
 21
217.6
 31
0.0
  0
ARC
  5
86
330
1F
100
AcDbEntity
  8
1
  6
CONTINUOUS
 62
     7
100
AcDbCircle
 10
-443.7000000000002
 20
219.6
 30
0.0
 40
2.0
100
AcDbArc
 50
270.0
 51
0.0
  0
ARC
  5
87
330
1F
100
AcDbEntity
  8
1
  6
CONTINUOUS
 62
     7
100
AcDbCircle
 10
-425.7000000000002
 20
233.6
 30
0.0
 40
16.0
100
AcDbArc
 50
116.8609122061135
 51
180.0
  0
LINE
  5
88
330
1F
100
AcDbEntity
  8
1
  6
CONTINUOUS
 62
     7
100
AcDbLine
 10
-444.2000000000002
 20
224.6
 30
0.0
 11
-444.2000000000002
 21
233.6
 31
0.0
  0
ARC
  5
89
330
1F
100
AcDbEntity
  8
1
  6
CONTINUOUS
 62
     7
100
AcDbCircle
 10
-464.9500000000001
 20
218.6
 30
0.0
 40
1.000000000000001
100
AcDbArc
 50
90.0
 51
180.0
  0
LINE
  5
8A
330
1F
100
AcDbEntity
  8
1
  6
CONTINUOUS
 62
     7
100
AcDbLine
 10
-464.9500000000001
 20
219.6
 30
0.0
 11
-457.95
 21
219.6
 31
0.0
  0
LINE
  5
8B
330
1F
100
AcDbEntity
  8
1
  6
CONTINUOUS
 62
     7
100
AcDbLine
 10
-457.95
 20
219.6
 30
0.0
 11
-449.2000000000002
 21
219.6
 31
0.0
  0
LINE
  5
8C
330
1F
100
AcDbEntity
  8
1
  6
CONTINUOUS
 62
     7
100
AcDbLine
 10
-449.2000000000002
 20
219.6
 30
0.0
 11
-444.2000000000002
 21
224.6
 31
0.0
  0
LINE
  5
8D
330
1F
100
AcDbEntity
  8
1
  6
CONTINUOUS
 62
     7
100
AcDbLine
 10
-457.95
 20
217.6
 30
0.0
 11
-465.9500000000001
 21
217.6
 31
0.0
  0
LINE
  5
8E
330
1F
100
AcDbEntity
  8
1
  6
CONTINUOUS
 62
     7
100
AcDbLine
 10
-465.9500000000001
 20
218.6
 30
0.0
 11
-465.9500000000001
 21
217.6
 31
0.0
  0
ARC
  5
8F
330
1F
100
AcDbEntity
  8
1
  6
CONTINUOUS
 62
     7
100
AcDbCircle
 10
-425.7000000000002
 20
233.6
 30
0.0
 40
18.5
100
AcDbArc
 50
114.531164506328
 51
180.0
  0
LINE
  5
90
330
1F
100
AcDbEntity
  8
1
  6
CONTINUOUS
 62
     7
100
AcDbLine
 10
-450.4761806033724
 20
222.6
 30
0.0
 11
-463.4238193966278
 21
222.6
 31
0.0
  0
LINE
  5
91
330
1F
100
AcDbEntity
  8
1
  6
CONTINUOUS
 62
     7
100
AcDbLine
 10
-419.4649262829499
 20
249.6
 30
0.0
 11
-425.7000000000002
 21
249.6
 31
0.0
  0
LINE
  5
92
330
1F
100
AcDbEntity
  8
1
  6
CONTINUOUS
 62
     7
100
AcDbLine
 10
-425.7000000000002
 20
249.6
 30
0.0
 11
-427.5639441423146
 21
249.4910576184951
 31
0.0
  0
LINE
  5
93
330
1F
100
AcDbEntity
  8
1
  6
CONTINUOUS
 62
     7
100
AcDbLine
 10
-457.2343113221717
 20
230.6
 30
0.0
 11
-457.9445125060165
 21
230.6
 31
0.0
  0
LINE
  5
94
330
1F
100
AcDbEntity
  8
1
  6
CONTINUOUS
 62
     7
100
AcDbLine
 10
-457.2271546494343
 20
222.6000000134254
 30
0.0
 11
-457.2343113221717
 21
230.6
 31
0.0
  0
LINE
  5
95
330
1F
100
AcDbEntity
  8
1
  6
CONTINUOUS
 62
     7
100
AcDbLine
 10
-455.8529792574171
 20
230.6
 30
0.0
 11
-457.2343113221717
 21
230.6
 31
0.0
  0
LINE
  5
96
330
1F
100
AcDbEntity
  8
1
  6
CONTINUOUS
 62
     7
100
AcDbLine
 10
-455.7940660902207
 20
222.6000001189724
 30
0.0
 11
-455.8529792574171
 21
230.6
 31
0.0
  0
LINE
  5
97
330
1F
100
AcDbEntity
  8
1
  6
CONTINUOUS
 62
     7
100
AcDbLine
 10
-457.9445125060165
 20
230.6
 30
0.0
 11
-458.0179921725227
 21
230.6
 31
0.0
  0
LINE
  5
98
330
1F
100
AcDbEntity
  8
1
  6
CONTINUOUS
 62
     7
100
AcDbLine
 10
-458.855204687282
 20
222.6000001189724
 30
0.0
 11
-458.8266106276554
 21
230.6
 31
0.0
  0
LINE
  5
99
330
1F
100
AcDbEntity
  8
1
  6
CONTINUOUS
 62
     7
100
AcDbLine
 10
-458.0179921725227
 20
230.6
 30
0.0
 11
-458.8266106276554
 21
230.6
 31
0.0
  0
LINE
  5
9A
330
1F
100
AcDbEntity
  8
1
  6
CONTINUOUS
 62
     7
100
AcDbLine
 10
-454.4309155681951
 20
230.6
 30
0.0
 11
-455.8529792574171
 21
230.6
 31
0.0
  0
LINE
  5
9B
330
1F
100
AcDbEntity
  8
1
  6
CONTINUOUS
 62
     7
100
AcDbLine
 10
-453.8185653891045
 20
230.6
 30
0.0
 11
-454.0020703120617
 21
230.6
 31
0.0
  0
LINE
  5
9C
330
1F
100
AcDbEntity
  8
1
  6
CONTINUOUS
 62
     7
100
AcDbLine
 10
-453.4123608757042
 20
222.6000000134254
 30
0.0
 11
-453.4816600908795
 21
230.6
 31
0.0
  0
LINE
  5
9D
330
1F
100
AcDbEntity
  8
1
  6
CONTINUOUS
 62
     7
100
AcDbLine
 10
-453.4816600908796
 20
230.6
 30
0.0
 11
-453.8185653891045
 21
230.6
 31
0.0
  0
LINE
  5
9E
330
1F
100
AcDbEntity
  8
1
  6
CONTINUOUS
 62
     7
100
AcDbLine
 10
-458.8266106276554
 20
230.6
 30
0.0
 11
-460.594053969609
 21
230.6
 31
0.0
  0
LINE
  5
9F
330
1F
100
AcDbEntity
  8
1
  6
CONTINUOUS
 62
     7
100
AcDbLine
 10
-453.4804611650486
 20
230.6
 30
0.0
 11
-453.4816600908795
 21
230.6
 31
0.0
  0
LINE
  5
A0
330
1F
100
AcDbEntity
  8
1
  6
CONTINUOUS
 62
     7
100
AcDbLine
 10
-454.2511317523947
 20
230.6
 30
0.0
 11
-453.9982836850116
 21
230.6
 31
0.0
  0
ARC
  5
A1
330
1F
100
AcDbEntity
  8
1
  6
CONTINUOUS
 62
     7
100
AcDbCircle
 10
-413.2000000000002
 20
233.6
 30
0.0
 40
16.0
100
AcDbArc
 50
0.0
 51
90.0
  0
LINE
  5
A2
330
1F
100
AcDbEntity
  8
1
  6
CONTINUOUS
 62
     7
100
AcDbLine
 10
-397.2000000000002
 20
231.1
 30
0.0
 11
-397.2000000000002
 21
233.6
 31
0.0
  0
LINE
  5
A3
330
1F
100
AcDbEntity
  8
1
  6
CONTINUOUS
 62
     7
100
AcDbLine
 10
-413.2000000000002
 20
249.6
 30
0.0
 11
-419.4649262829498
 21
249.6
 31
0.0
  0
LINE
  5
A4
330
1F
100
AcDbEntity
  8
1
  6
CONTINUOUS
 62
     7
100
AcDbLine
 10
-394.7000000000002
 20
233.6
 30
0.0
 11
-394.7000000000002
 21
230.1
 31
0.0
  0
LINE
  5
A5
330
1F
100
AcDbEntity
  8
1
  6
CONTINUOUS
 62
     7
100
AcDbLine
 10
-460.594053969609
 20
230.6
 30
0.0
 11
-460.6960771418507
 21
230.6
 31
0.0
  0
ARC
  5
A6
330
1F
100
AcDbEntity
  8
1
  6
CONTINUOUS
 62
     7
100
AcDbCircle
 10
-413.2000000000002
 20
233.6
 30
0.0
 40
18.50000000000001
100
AcDbArc
 50
0.0
 51
90.0
  0
LINE
  5
A7
330
1F
100
AcDbEntity
  8
1
  6
CONTINUOUS
 62
     7
100
AcDbLine
 10
-454.4309155681951
 20
230.6
 30
0.0
 11
-454.2511317523947
 21
230.6
 31
0.0
  0
LINE
  5
A8
330
1F
100
AcDbEntity
  8
1
  6
CONTINUOUS
 62
     7
100
AcDbLine
 10
-460.6960771418507
 20
230.6
 30
0.0
 11
-460.6961817514013
 21
230.6
 31
0.0
  0
LINE
  5
A9
330
1F
100
AcDbEntity
  8
1
  6
CONTINUOUS
 62
     7
100
AcDbLine
 10
-465.9500000000001
 20
220.1
 30
0.0
 11
-465.9500000000001
 21
218.6145246360307
 31
0.0
  0
LINE
  5
AA
330
1F
100
AcDbEntity
  8
1
  6
CONTINUOUS
 62
     7
100
AcDbLine
 10
-465.9500000000001
 20
218.6145246360307
 30
0.0
 11
-465.9500000000001
 21
218.6
 31
0.0
  0
LINE
  5
AB
330
1F
100
AcDbEntity
  8
1
  6
CONTINUOUS
 62
     7
100
AcDbLine
 10
-384.9500000000001
 20
217.6
 30
0.0
 11
-391.4500000000001
 21
217.6
 31
0.0
  0
LINE
  5
AC
330
1F
100
AcDbEntity
  8
1
  6
CONTINUOUS
 62
     7
100
AcDbLine
 10
-384.9500000000001
 20
219.6
 30
0.0
 11
-391.4949485426978
 21
219.6
 31
0.0
  0
LINE
  5
AD
330
1F
100
AcDbEntity
  8
1
  6
CONTINUOUS
 62
     7
100
AcDbLine
 10
-465.9500000000001
 20
220.1
 30
0.0
 11
-465.9500000000001
 21
221.1
 31
0.0
  0
LINE
  5
AE
330
1F
100
AcDbEntity
  8
1
  6
CONTINUOUS
 62
     7
100
AcDbLine
 10
-465.0646429878817
 20
222.0934067572397
 30
0.0
 11
-464.9500000000001
 21
222.1
 31
0.0
  0
LINE
  5
AF
330
1F
100
AcDbEntity
  8
1
  6
CONTINUOUS
 62
     7
100
AcDbLine
 10
-465.1113888033428
 20
222.086890902864
 30
0.0
 11
-465.0646429878817
 21
222.0934067572398
 31
0.0
  0
LWPOLYLINE
  5
B0
330
1F
100
AcDbEntity
  8
1
  6
CONTINUOUS
 62
     7
100
AcDbPolyline
 90
       37
 70
     0
 43
0.0
 10
465.9500000000001
 20
221.1
 10
465.9495384858927
 20
221.130371916496
 10
465.9481556902663
 20
221.1607059963204
 10
465.9458401031961
 20
221.1911160033342
 10
465.9426022003013
 20
221.2214119926409
 10
465.9379387782561
 20
221.2548432786606
 10
465.9321615775802
 20
221.2880389202409
 10
465.9252399377806
 20
221.3211482583768
 10
465.9172243909219
 20
221.3539231726448
 10
465.9086967862845
 20
221.3844275155245
 10
465.8992338048561
 20
221.4145691037805
 10
465.8888615927068
 20
221.4442948006291
 10
465.8714302166986
 20
221.4885417237945
 10
465.8520289358892
 20
221.5316755712554
 10
465.8329791458313
 20
221.5694038646258
 10
465.81244818703
 20
221.6061315212129
 10
465.7905214732488
 20
221.6417709308193
 10
465.7672844182515
 20
221.6762344832474
 10
465.7419815648271
 20
221.7105397271733
 10
465.7153769978221
 20
221.743573239799
 10
465.6875645663343
 20
221.7752717831821
 10
465.6586381194615
 20
221.8055721193798
 10
465.6383990315754
 20
221.8253321813667
 10
465.617671346733
 20
221.8444561590529
 10
465.5870553429082
 20
221.8708168770233
 10
465.5555483350839
 20
221.8958073681406
 10
465.5232306122755
 20
221.9193940841563
 10
465.4897091054227
 20
221.9418506120605
 10
465.4554452583554
 20
221.9628577227204
 10
465.4205173823335
 20
221.9823907257685
 10
465.3788487723141
 20
222.0033730324918
 10
465.3363730609433
 20
222.0223368673799
 10
465.2932073942185
 20
222.0392564641478
 10
465.249468918137
 20
222.0541060565105
 10
465.2039227250103
 20
222.0672213769404
 10
465.1578553403
 20
222.0781540507044
 10
465.1113882619445
 20
222.0868879025538
210
0.0
220
0.0
230
-1.0
  0
LINE
  5
B1
330
1F
100
AcDbEntity
  8
1
  6
CONTINUOUS
 62
     7
100
AcDbLine
 10
-397.2000000000002
 20
233.5977915095482
 30
0.0
 11
-397.6564221286263
 21
233.6000000000007
 31
0.0
  0
ARC
  5
B2
330
1F
100
AcDbEntity
  8
1
  6
CONTINUOUS
 62
     7
100
AcDbCircle
 10
-441.2000000000002
 20
222.3928932188134
 30
0.0
 40
0.4999999999999993
100
AcDbArc
 50
134.9999999999999
 51
179.9999999999999
  0
LINE
  5
B3
330
1F
100
AcDbEntity
  8
1
  6
CONTINUOUS
 62
     7
100
AcDbLine
 10
-463.4281828305232
 20
222.1
 30
0.0
 11
-464.9500000000002
 21
222.1
 31
0.0
  0
LINE
  5
B4
330
1F
100
AcDbEntity
  8
1
  6
CONTINUOUS
 62
     7
100
AcDbLine
 10
-397.6564221286264
 20
233.6000000000007
 30
0.0
 11
-398.5348622970993
 21
233.6000000000007
 31
0.0
  0
ARC
  5
B5
330
1F
100
AcDbEntity
  8
1
  6
CONTINUOUS
 62
     7
100
AcDbCircle
 10
-444.0750407210061
 20
225.889519639712
 30
0.0
 40
4.006586190838973
100
AcDbArc
 50
329.2884651330545
 51
359.4961644238025
  0
ARC
  5
B6
330
1F
100
AcDbEntity
  8
1
  6
CONTINUOUS
 62
     7
100
AcDbCircle
 10
-444.0674415898516
 20
225.889412659641
 30
0.0
 40
3.999999999999996
100
AcDbArc
 50
315.0
 51
329.2341913838782
  0
ARC
  5
B7
330
1F
100
AcDbEntity
  8
1
  6
CONTINUOUS
 62
     7
100
AcDbCircle
 10
-425.7000000000002
 20
233.6
 30
0.0
 40
14.30000000000001
100
AcDbArc
 50
90.0
 51
180.000000000002
  0
LINE
  5
B8
330
1F
100
AcDbEntity
  8
1
  6
CONTINUOUS
 62
     7
100
AcDbLine
 10
-440.0000000000002
 20
233.5999999999995
 30
0.0
 11
-440.0365386312023
 21
229.4130875729848
 31
0.0
  0
LINE
  5
B9
330
1F
100
AcDbEntity
  8
1
  6
CONTINUOUS
 62
     7
100
AcDbLine
 10
-440.0686094382542
 20
225.8542878187459
 30
0.0
 11
-440.0365386312022
 21
229.4130875729848
 31
0.0
  0
LINE
  5
BA
330
1F
100
AcDbEntity
  8
1
  6
CONTINUOUS
 62
     7
100
AcDbLine
 10
-398.9000000000002
 20
233.6000000000014
 30
0.0
 11
-398.5348762004242
 21
233.6000000000007
 31
0.0
  0
ARC
  5
BB
330
1F
100
AcDbEntity
  8
1
  6
CONTINUOUS
 62
     7
100
AcDbCircle
 10
-413.2000000000002
 20
233.6
 30
0.0
 40
14.29999999999999
100
AcDbArc
 50
0.0000000000057828
 51
89.99999999999996
  0
LINE
  5
BC
330
1F
100
AcDbEntity
  8
1
  6
CONTINUOUS
 62
     7
100
AcDbLine
 10
-398.8634613687981
 20
229.4130875729844
 30
0.0
 11
-398.8378036535219
 21
226.5482402121735
 31
0.0
  0
LINE
  5
BD
330
1F
100
AcDbEntity
  8
1
  6
CONTINUOUS
 62
     7
100
AcDbLine
 10
-398.8634613687981
 20
229.4130875729844
 30
0.0
 11
-398.9000000000002
 21
233.6000000000014
 31
0.0
  0
LINE
  5
BE
330
1F
100
AcDbEntity
  8
1
  6
CONTINUOUS
 62
     7
100
AcDbLine
 10
-413.2000000000002
 20
247.9
 30
0.0
 11
-425.7000000000002
 21
247.9
 31
0.0
  0
LINE
  5
BF
330
1F
100
AcDbEntity
  8
1
  6
CONTINUOUS
 62
     7
100
AcDbLine
 10
-441.2390144651054
 20
223.0609855348948
 30
0.0
 11
-441.5535533905935
 21
222.7464466094067
 31
0.0
  0
LINE
  5
C0
330
1F
100
AcDbEntity
  8
1
  6
CONTINUOUS
 62
     7
100
AcDbLine
 10
-450.471817169477
 20
222.1
 30
0.0
 11
-449.8231242204222
 21
222.1
 31
0.0
  0
LINE
  5
C1
330
1F
100
AcDbEntity
  8
1
  6
CONTINUOUS
 62
     7
100
AcDbLine
 10
-449.8231242204222
 20
222.1
 30
0.0
 11
-446.7000000000002
 21
222.1
 31
0.0
  0
LINE
  5
C2
330
1F
100
AcDbEntity
  8
1
  6
CONTINUOUS
 62
     7
100
AcDbLine
 10
-384.9500000000001
 20
219.6
 30
0.0
 11
-383.9500000000001
 21
219.6
 31
0.0
  0
LINE
  5
C3
330
1F
100
AcDbEntity
  8
1
  6
CONTINUOUS
 62
     7
100
AcDbLine
 10
-383.9500000000001
 20
217.6
 30
0.0
 11
-373.9500000000001
 21
217.6
 31
0.0
  0
LINE
  5
C4
330
1F
100
AcDbEntity
  8
1
  6
CONTINUOUS
 62
     7
100
AcDbLine
 10
-384.9500000000001
 20
217.6
 30
0.0
 11
-383.9500000000001
 21
217.6
 31
0.0
  0
LINE
  5
C5
330
1F
100
AcDbEntity
  8
1
  6
CONTINUOUS
 62
     7
100
AcDbLine
 10
-383.9500000000001
 20
219.6
 30
0.0
 11
-374.9500000000001
 21
219.6
 31
0.0
  0
LINE
  5
C6
330
1F
100
AcDbEntity
  8
1
  6
CONTINUOUS
 62
     7
100
AcDbLine
 10
-464.4586513684422
 20
226.1
 30
0.0
 11
-460.7354526564598
 21
226.1
 31
0.0
  0
LINE
  5
C7
330
1F
100
AcDbEntity
  8
1
  6
CONTINUOUS
 62
     7
100
AcDbLine
 10
-453.4411902599902
 20
226.1
 30
0.0
 11
-449.4413486315579
 21
226.1
 31
0.0
  0
LINE
  5
C8
330
1F
100
AcDbEntity
  8
1
  6
CONTINUOUS
 62
     7
100
AcDbLine
 10
-388.4150925288371
 20
223.6
 30
0.0
 11
-388.3990020722878
 21
223.6
 31
0.0
  0
LINE
  5
C9
330
1F
100
AcDbEntity
  8
1
  6
CONTINUOUS
 62
     7
100
AcDbLine
 10
-386.8581343977849
 20
222.5999999999666
 30
0.0
 11
-386.8324634231499
 21
223.5999999999668
 31
0.0
  0
LINE
  5
CA
330
1F
100
AcDbEntity
  8
1
  6
CONTINUOUS
 62
     7
100
AcDbLine
 10
-386.8324634231496
 20
223.6
 30
0.0
 11
-386.1878027712522
 21
223.6
 31
0.0
  0
LINE
  5
CB
330
1F
100
AcDbEntity
  8
1
  6
CONTINUOUS
 62
     7
100
AcDbLine
 10
-386.1878027712527
 20
223.5999999999704
 30
0.0
 11
-386.1714398388991
 21
222.5999999999698
 31
0.0
  0
LINE
  5
CC
330
1F
100
AcDbEntity
  8
1
  6
CONTINUOUS
 62
     7
100
AcDbLine
 10
-382.4355663791923
 20
222.6
 30
0.0
 11
-386.1714398388986
 21
222.6
 31
0.0
  0
LINE
  5
CD
330
1F
100
AcDbEntity
  8
1
  6
CONTINUOUS
 62
     7
100
AcDbLine
 10
-382.4355663791922
 20
222.5999999999666
 30
0.0
 11
-382.4058439185209
 21
223.5999999999668
 31
0.0
  0
LINE
  5
CE
330
1F
100
AcDbEntity
  8
1
  6
CONTINUOUS
 62
     7
100
AcDbLine
 10
-382.4058439185209
 20
223.6
 30
0.0
 11
-381.4941560814793
 21
223.6
 31
0.0
  0
LINE
  5
CF
330
1F
100
AcDbEntity
  8
1
  6
CONTINUOUS
 62
     7
100
AcDbLine
 10
-381.4941560814793
 20
223.5999999999664
 30
0.0
 11
-381.464433620808
 21
222.5999999999666
 31
0.0
  0
LINE
  5
D0
330
1F
100
AcDbEntity
  8
1
  6
CONTINUOUS
 62
     7
100
AcDbLine
 10
-377.7285601611017
 20
222.6
 30
0.0
 11
-381.464433620808
 21
222.6
 31
0.0
  0
LINE
  5
D1
330
1F
100
AcDbEntity
  8
1
  6
CONTINUOUS
 62
     7
100
AcDbLine
 10
-377.7285601611011
 20
222.5999999999669
 30
0.0
 11
-377.7121972287475
 21
223.5999999999671
 31
0.0
  0
LINE
  5
D2
330
1F
100
AcDbEntity
  8
1
  6
CONTINUOUS
 62
     7
100
AcDbLine
 10
-377.7121972287481
 20
223.6
 30
0.0
 11
-377.0675365768507
 21
223.6
 31
0.0
  0
LINE
  5
D3
330
1F
100
AcDbEntity
  8
1
  6
CONTINUOUS
 62
     7
100
AcDbLine
 10
-377.0675365768504
 20
223.5999999999778
 30
0.0
 11
-377.0418656022156
 21
222.5999999999836
 31
0.0
  0
LINE
  5
D4
330
1F
100
AcDbEntity
  8
1
  6
CONTINUOUS
 62
     7
100
AcDbLine
 10
-375.4944161478957
 20
222.6
 30
0.0
 11
-377.0418656022158
 21
222.6
 31
0.0
  0
LINE
  5
D5
330
1F
100
AcDbEntity
  8
1
  6
CONTINUOUS
 62
     7
100
AcDbLine
 10
-375.4944161478953
 20
222.5999999999799
 30
0.0
 11
-375.500997927712
 21
223.5999999999801
 31
0.0
  0
LINE
  5
D6
330
1F
100
AcDbEntity
  8
1
  6
CONTINUOUS
 62
     7
100
AcDbLine
 10
-375.5009979277124
 20
223.6
 30
0.0
 11
-375.4849074711631
 21
223.6
 31
0.0
  0
LINE
  5
D7
330
1F
100
AcDbEntity
  8
1
  6
CONTINUOUS
 62
     7
100
AcDbLine
 10
-388.3990020722883
 20
223.5999999999771
 30
0.0
 11
-388.4055838521051
 21
222.5999999999738
 31
0.0
  0
LINE
  5
D8
330
1F
100
AcDbEntity
  8
1
  6
CONTINUOUS
 62
     7
100
AcDbLine
 10
-386.8581343977845
 20
222.6
 30
0.0
 11
-388.4055838521045
 21
222.6
 31
0.0
  0
LINE
  5
D9
330
1F
100
AcDbEntity
  8
1
  6
CONTINUOUS
 62
     7
100
AcDbLine
 10
-381.4941560814793
 20
223.6
 30
0.0
 11
-377.712197228748
 21
223.6
 31
0.0
  0
LINE
  5
DA
330
1F
100
AcDbEntity
  8
1
  6
CONTINUOUS
 62
     7
100
AcDbLine
 10
-386.1878027712521
 20
223.6
 30
0.0
 11
-382.4058439185209
 21
223.6
 31
0.0
  0
LINE
  5
DB
330
1F
100
AcDbEntity
  8
1
  6
CONTINUOUS
 62
     7
100
AcDbLine
 10
-461.9755177166426
 20
232.1
 30
0.0
 11
-451.9244822833575
 21
232.1
 31
0.0
  0
LINE
  5
DC
330
1F
100
AcDbEntity
  8
1
  6
CONTINUOUS
 62
     7
100
AcDbLine
 10
-388.3990020722878
 20
223.6
 30
0.0
 11
-386.8324634231496
 21
223.6
 31
0.0
  0
LINE
  5
DD
330
1F
100
AcDbEntity
  8
1
  6
CONTINUOUS
 62
     7
100
AcDbLine
 10
-377.0675365768507
 20
223.6
 30
0.0
 11
-375.5009979277124
 21
223.6
 31
0.0
  0
LINE
  5
DE
330
1F
100
AcDbEntity
  8
1
  6
CONTINUOUS
 62
     7
100
AcDbLine
 10
-382.2280435458511
 20
223.6000000024188
 30
0.0
 11
-382.2343113221717
 21
230.6
 31
0.0
  0
LINE
  5
DF
330
1F
100
AcDbEntity
  8
1
  6
CONTINUOUS
 62
     7
100
AcDbLine
 10
-380.8529792574171
 20
230.6
 30
0.0
 11
-382.2343113221717
 21
230.6
 31
0.0
  0
LINE
  5
E0
330
1F
100
AcDbEntity
  8
1
  6
CONTINUOUS
 62
     7
100
AcDbLine
 10
-380.8014053870776
 20
223.6000000214661
 30
0.0
 11
-380.8529792574171
 21
230.6
 31
0.0
  0
LINE
  5
E1
330
1F
100
AcDbEntity
  8
1
  6
CONTINUOUS
 62
     7
100
AcDbLine
 10
-382.2343113221717
 20
230.6
 30
0.0
 11
-382.9445125060165
 21
230.6
 31
0.0
  0
LINE
  5
E2
330
1F
100
AcDbEntity
  8
1
  6
CONTINUOUS
 62
     7
100
AcDbLine
 10
-382.9445125060165
 20
230.6
 30
0.0
 11
-383.0179921725227
 21
230.6
 31
0.0
  0
LINE
  5
E3
330
1F
100
AcDbEntity
  8
1
  6
CONTINUOUS
 62
     7
100
AcDbLine
 10
-383.8516336272925
 20
223.6000000214661
 30
0.0
 11
-383.8266106276554
 21
230.6
 31
0.0
  0
LINE
  5
E4
330
1F
100
AcDbEntity
  8
1
  6
CONTINUOUS
 62
     7
100
AcDbLine
 10
-383.0179921725227
 20
230.6
 30
0.0
 11
-383.8266106276554
 21
230.6
 31
0.0
  0
LINE
  5
E5
330
1F
100
AcDbEntity
  8
1
  6
CONTINUOUS
 62
     7
100
AcDbLine
 10
-379.4309155681951
 20
230.6
 30
0.0
 11
-380.8529792574171
 21
230.6
 31
0.0
  0
LINE
  5
E6
330
1F
100
AcDbEntity
  8
1
  6
CONTINUOUS
 62
     7
100
AcDbLine
 10
-378.8185653891045
 20
230.6
 30
0.0
 11
-379.0020703120617
 21
230.6
 31
0.0
  0
LINE
  5
E7
330
1F
100
AcDbEntity
  8
1
  6
CONTINUOUS
 62
     7
100
AcDbLine
 10
-378.421019030535
 20
223.6000000024188
 30
0.0
 11
-378.4816600908796
 21
230.6
 31
0.0
  0
LINE
  5
E8
330
1F
100
AcDbEntity
  8
1
  6
CONTINUOUS
 62
     7
100
AcDbLine
 10
-378.4816600908796
 20
230.6
 30
0.0
 11
-378.8185653891044
 21
230.6
 31
0.0
  0
LINE
  5
E9
330
1F
100
AcDbEntity
  8
1
  6
CONTINUOUS
 62
     7
100
AcDbLine
 10
-385.6508213311537
 20
223.6000000024188
 30
0.0
 11
-385.5940539696091
 21
230.6
 31
0.0
  0
LINE
  5
EA
330
1F
100
AcDbEntity
  8
1
  6
CONTINUOUS
 62
     7
100
AcDbLine
 10
-383.8266106276554
 20
230.6
 30
0.0
 11
-385.594053969609
 21
230.6
 31
0.0
  0
LINE
  5
EB
330
1F
100
AcDbEntity
  8
1
  6
CONTINUOUS
 62
     7
100
AcDbLine
 10
-378.4804611650486
 20
230.6
 30
0.0
 11
-378.4816600908796
 21
230.6
 31
0.0
  0
LINE
  5
EC
330
1F
100
AcDbEntity
  8
1
  6
CONTINUOUS
 62
     7
100
AcDbLine
 10
-379.2511317523947
 20
230.6
 30
0.0
 11
-378.9982836850116
 21
230.6
 31
0.0
  0
ARC
  5
ED
330
1F
100
AcDbEntity
  8
1
  6
CONTINUOUS
 62
     7
100
AcDbCircle
 10
-464.9500000000001
 20
221.1
 30
0.0
 40
1.000000000000001
100
AcDbArc
 50
99.13921356368274
 51
101.9078347862831
  0
ARC
  5
EE
330
1F
100
AcDbEntity
  8
1
  6
CONTINUOUS
 62
     7
100
AcDbCircle
 10
-464.9500000000001
 20
221.1
 30
0.0
 40
1.0
100
AcDbArc
 50
94.58543264829363
 51
99.13921356368263
  0
ARC
  5
EF
330
1F
100
AcDbEntity
  8
1
  6
CONTINUOUS
 62
     7
100
AcDbCircle
 10
-464.9500000000001
 20
221.1
 30
0.0
 40
1.000000000000001
100
AcDbArc
 50
90.00000000000006
 51
94.58543264829353
  0
LINE
  5
F0
330
1F
100
AcDbEntity
  8
1
  6
CONTINUOUS
 62
     7
100
AcDbLine
 10
-385.5940539696091
 20
230.6
 30
0.0
 11
-385.6960771418507
 21
230.6
 31
0.0
  0
LINE
  5
F1
330
1F
100
AcDbEntity
  8
1
  6
CONTINUOUS
 62
     7
100
AcDbLine
 10
-379.4309155681951
 20
230.6
 30
0.0
 11
-379.2511317523947
 21
230.6
 31
0.0
  0
LINE
  5
F2
330
1F
100
AcDbEntity
  8
1
  6
CONTINUOUS
 62
     7
100
AcDbLine
 10
-385.6960771418507
 20
230.6
 30
0.0
 11
-385.6961817514013
 21
230.6
 31
0.0
  0
ARC
  5
F3
330
1F
100
AcDbEntity
  8
1
  6
CONTINUOUS
 62
     7
100
AcDbCircle
 10
-425.7000000000002
 20
233.6
 30
0.0
 40
16.0
100
AcDbArc
 50
206.1507855859123
 51
215.6590876961387
  0
LINE
  5
F4
330
1F
100
AcDbEntity
  8
1
  6
CONTINUOUS
 62
     7
100
AcDbLine
 10
-438.7000000000003
 20
224.2726209469112
 30
0.0
 11
-438.7000000000003
 21
223.4237544710479
 31
0.0
  0
ARC
  5
F5
330
1F
100
AcDbEntity
  8
1
  6
CONTINUOUS
 62
     7
100
AcDbCircle
 10
-439.7000000000003
 20
223.4237544710479
 30
0.0
 40
1.0
100
AcDbArc
 50
324.1208157992143
 51
0.0
  0
LINE
  5
F6
330
1F
100
AcDbEntity
  8
1
  6
CONTINUOUS
 62
     7
100
AcDbLine
 10
-438.8897453814586
 20
222.8376764445599
 30
0.0
 11
-442.079488378698
 21
218.427847243214
 31
0.0
  0
LINE
  5
F7
330
1F
100
AcDbEntity
  8
1
  6
CONTINUOUS
 62
     7
100
AcDbLine
 10
-394.7000000000002
 20
224.6
 30
0.0
 11
-389.7000000000002
 21
219.6
 31
0.0
  0
LINE
  5
F8
330
1F
100
AcDbEntity
  8
1
  6
CONTINUOUS
 62
     7
100
AcDbLine
 10
-448.2000000000002
 20
222.1
 30
0.0
 11
-444.5653405547147
 21
230.2779837518924
 31
0.0
  0
LINE
  5
F9
330
1F
100
AcDbEntity
  8
1
  6
CONTINUOUS
 62
     7
100
AcDbLine
 10
-444.5653405547146
 20
230.2779837518925
 30
0.0
 11
-444.2001543027194
 21
230.8507236149797
 31
0.0
  0
LINE
  5
FA
330
1F
100
AcDbEntity
  8
1
  6
CONTINUOUS
 62
     7
100
AcDbLine
 10
-450.4500000000001
 20
219.6
 30
0.0
 11
-450.4761806033724
 21
222.6
 31
0.0
  0
LINE
  5
FB
330
1F
100
AcDbEntity
  8
1
  6
CONTINUOUS
 62
     7
100
AcDbLine
 10
-463.4238193966278
 20
222.6
 30
0.0
 11
-463.4500000000001
 21
219.6
 31
0.0
  0
LINE
  5
FC
330
1F
100
AcDbEntity
  8
1
  6
CONTINUOUS
 62
     7
100
AcDbLine
 10
-458.0179921725227
 20
230.6
 30
0.0
 11
-458.0878071148488
 21
222.6
 31
0.0
  0
LINE
  5
FD
330
1F
100
AcDbEntity
  8
1
  6
CONTINUOUS
 62
     7
100
AcDbLine
 10
-454.0020703120617
 20
230.6
 30
0.0
 11
-454.0718852543877
 21
222.6
 31
0.0
  0
LINE
  5
FE
330
1F
100
AcDbEntity
  8
1
  6
CONTINUOUS
 62
     7
100
AcDbLine
 10
-453.4106462227225
 20
222.6
 30
0.0
 11
-453.4804611650486
 21
230.6
 31
0.0
  0
LINE
  5
FF
330
1F
100
AcDbEntity
  8
1
  6
CONTINUOUS
 62
     7
100
AcDbLine
 10
-460.6961817514013
 20
230.6
 30
0.0
 11
-460.7659966937273
 21
222.6
 31
0.0
  0
LINE
  5
100
330
1F
100
AcDbEntity
  8
1
  6
CONTINUOUS
 62
     7
100
AcDbLine
 10
-373.9500000000001
 20
217.6
 30
0.0
 11
-373.9500000000001
 21
218.6
 31
0.0
  0
ARC
  5
101
330
1F
100
AcDbEntity
  8
1
  6
CONTINUOUS
 62
     7
100
AcDbCircle
 10
-374.9500000000001
 20
218.6
 30
0.0
 40
1.000000000000001
100
AcDbArc
 50
0.0
 51
90.0
  0
LINE
  5
102
330
1F
100
AcDbEntity
  8
1
  6
CONTINUOUS
 62
     7
100
AcDbLine
 10
-448.8801797402872
 20
222.1
 30
0.0
 11
-448.9414247839798
 21
225.6087262032186
 31
0.0
  0
LINE
  5
103
330
1F
100
AcDbEntity
  8
1
  6
CONTINUOUS
 62
     7
100
AcDbLine
 10
-464.9585752160204
 20
225.6087262032187
 30
0.0
 11
-465.019820259713
 21
222.1
 31
0.0
  0
ARC
  5
104
330
1F
100
AcDbEntity
  8
1
  6
CONTINUOUS
 62
     7
100
AcDbCircle
 10
-449.4413486315579
 20
225.6
 30
0.0
 40
0.4999999999999986
100
AcDbArc
 50
0.9999999999986544
 51
90.0
  0
ARC
  5
105
330
1F
100
AcDbEntity
  8
1
  6
CONTINUOUS
 62
     7
100
AcDbCircle
 10
-464.4586513684422
 20
225.6
 30
0.0
 40
0.5000000000000004
100
AcDbArc
 50
90.0
 51
179.0000000000013
  0
LINE
  5
106
330
1F
100
AcDbEntity
  8
1
  6
CONTINUOUS
 62
     7
100
AcDbLine
 10
-375.4500000000001
 20
219.6
 30
0.0
 11
-375.4849074711631
 21
223.6
 31
0.0
  0
LINE
  5
107
330
1F
100
AcDbEntity
  8
1
  6
CONTINUOUS
 62
     7
100
AcDbLine
 10
-388.4150925288371
 20
223.6
 30
0.0
 11
-388.4500000000001
 21
219.6
 31
0.0
  0
LINE
  5
108
330
1F
100
AcDbEntity
  8
1
  6
CONTINUOUS
 62
     7
100
AcDbLine
 10
-451.1355533243018
 20
226.1
 30
0.0
 11
-451.4251675159802
 21
231.6261679781215
 31
0.0
  0
LINE
  5
109
330
1F
100
AcDbEntity
  8
1
  6
CONTINUOUS
 62
     7
100
AcDbLine
 10
-462.4748324840199
 20
231.6261679781215
 30
0.0
 11
-462.7644466756983
 21
226.1
 31
0.0
  0
ARC
  5
10A
330
1F
100
AcDbEntity
  8
1
  6
CONTINUOUS
 62
     7
100
AcDbCircle
 10
-451.9244822833575
 20
231.6
 30
0.0
 40
0.5000000000000001
100
AcDbArc
 50
2.999999999999194
 51
90.00000000000004
  0
ARC
  5
10B
330
1F
100
AcDbEntity
  8
1
  6
CONTINUOUS
 62
     7
100
AcDbCircle
 10
-461.9755177166426
 20
231.6
 30
0.0
 40
0.5000000000000004
100
AcDbArc
 50
90.0
 51
177.0000000000009
  0
LINE
  5
10C
330
1F
100
AcDbEntity
  8
1
  6
CONTINUOUS
 62
     7
100
AcDbLine
 10
-383.0179921725227
 20
230.6
 30
0.0
 11
-383.0790802470581
 21
223.6
 31
0.0
  0
LINE
  5
10D
330
1F
100
AcDbEntity
  8
1
  6
CONTINUOUS
 62
     7
100
AcDbLine
 10
-379.0020703120617
 20
230.6
 30
0.0
 11
-379.063158386597
 21
223.6
 31
0.0
  0
LINE
  5
10E
330
1F
100
AcDbEntity
  8
1
  6
CONTINUOUS
 62
     7
100
AcDbLine
 10
-378.4193730905133
 20
223.6
 30
0.0
 11
-378.4804611650486
 21
230.6
 31
0.0
  0
LINE
  5
10F
330
1F
100
AcDbEntity
  8
1
  6
CONTINUOUS
 62
     7
100
AcDbLine
 10
-385.6961817514013
 20
230.6
 30
0.0
 11
-385.7572698259366
 21
223.6
 31
0.0
  0
LINE
  5
110
330
1F
100
AcDbEntity
  8
1
  6
CONTINUOUS
 62
     7
100
AcDbLine
 10
-340.0000000000001
 20
218.6
 30
0.0
 11
-340.0000000000001
 21
217.6
 31
0.0
  0
LINE
  5
111
330
1F
100
AcDbEntity
  8
1
  6
CONTINUOUS
 62
     7
100
AcDbLine
 10
-320.0000000000001
 20
218.6
 30
0.0
 11
-320.0000000000001
 21
217.6
 31
0.0
  0
LINE
  5
112
330
1F
100
AcDbEntity
  8
1
  6
CONTINUOUS
 62
     7
100
AcDbLine
 10
-340.0000000000001
 20
217.6
 30
0.0
 11
-320.0000000000001
 21
217.6
 31
0.0
  0
LINE
  5
113
330
1F
100
AcDbEntity
  8
1
  6
CONTINUOUS
 62
     7
100
AcDbLine
 10
-339.0000000000001
 20
219.6
 30
0.0
 11
-321.0000000000001
 21
219.6
 31
0.0
  0
ARC
  5
114
330
1F
100
AcDbEntity
  8
1
  6
CONTINUOUS
 62
     7
100
AcDbCircle
 10
-321.0000000000001
 20
218.6
 30
0.0
 40
1.000000000000001
100
AcDbArc
 50
0.0
 51
90.0
  0
ARC
  5
115
330
1F
100
AcDbEntity
  8
1
  6
CONTINUOUS
 62
     7
100
AcDbCircle
 10
-339.0000000000001
 20
218.6
 30
0.0
 40
1.000000000000001
100
AcDbArc
 50
90.0
 51
180.0
  0
LINE
  5
116
330
1F
100
AcDbEntity
  8
1
  6
CONTINUOUS
 62
     7
100
AcDbLine
 10
-336.465092528837
 20
223.6
 30
0.0
 11
-336.4490020722878
 21
223.6
 31
0.0
  0
LINE
  5
117
330
1F
100
AcDbEntity
  8
1
  6
CONTINUOUS
 62
     7
100
AcDbLine
 10
-336.4490020722884
 20
223.5999999999772
 30
0.0
 11
-336.4555838521051
 21
222.5999999999738
 31
0.0
  0
LINE
  5
118
330
1F
100
AcDbEntity
  8
1
  6
CONTINUOUS
 62
     7
100
AcDbLine
 10
-334.9081343977844
 20
222.6
 30
0.0
 11
-336.4555838521045
 21
222.6
 31
0.0
  0
LINE
  5
119
330
1F
100
AcDbEntity
  8
1
  6
CONTINUOUS
 62
     7
100
AcDbLine
 10
-334.9081343977849
 20
222.5999999999669
 30
0.0
 11
-334.8824634231499
 21
223.5999999999671
 31
0.0
  0
LINE
  5
11A
330
1F
100
AcDbEntity
  8
1
  6
CONTINUOUS
 62
     7
100
AcDbLine
 10
-334.8824634231495
 20
223.6
 30
0.0
 11
-334.2378027712521
 21
223.6
 31
0.0
  0
LINE
  5
11B
330
1F
100
AcDbEntity
  8
1
  6
CONTINUOUS
 62
     7
100
AcDbLine
 10
-334.2378027712525
 20
223.599999999985
 30
0.0
 11
-334.2214398388989
 21
222.5999999999789
 31
0.0
  0
LINE
  5
11C
330
1F
100
AcDbEntity
  8
1
  6
CONTINUOUS
 62
     7
100
AcDbLine
 10
-330.4855663791922
 20
222.6
 30
0.0
 11
-334.2214398388985
 21
222.6
 31
0.0
  0
LINE
  5
11D
330
1F
100
AcDbEntity
  8
1
  6
CONTINUOUS
 62
     7
100
AcDbLine
 10
-330.4855663791922
 20
222.59999999998
 30
0.0
 11
-330.4558439185209
 21
223.5999999999802
 31
0.0
  0
LINE
  5
11E
330
1F
100
AcDbEntity
  8
1
  6
CONTINUOUS
 62
     7
100
AcDbLine
 10
-330.4558439185209
 20
223.6
 30
0.0
 11
-329.5441560814793
 21
223.6
 31
0.0
  0
LINE
  5
11F
330
1F
100
AcDbEntity
  8
1
  6
CONTINUOUS
 62
     7
100
AcDbLine
 10
-329.5441560814795
 20
223.5999999999572
 30
0.0
 11
-329.5144336208081
 21
222.5999999999568
 31
0.0
  0
LINE
  5
120
330
1F
100
AcDbEntity
  8
1
  6
CONTINUOUS
 62
     7
100
AcDbLine
 10
-325.7785601611016
 20
222.6
 30
0.0
 11
-329.5144336208079
 21
222.6
 31
0.0
  0
LINE
  5
121
330
1F
100
AcDbEntity
  8
1
  6
CONTINUOUS
 62
     7
100
AcDbLine
 10
-325.7785601611009
 20
222.5999999999534
 30
0.0
 11
-325.7621972287473
 21
223.5999999999536
 31
0.0
  0
LINE
  5
122
330
1F
100
AcDbEntity
  8
1
  6
CONTINUOUS
 62
     7
100
AcDbLine
 10
-325.7621972287481
 20
223.6
 30
0.0
 11
-325.1175365768507
 21
223.6
 31
0.0
  0
LINE
  5
123
330
1F
100
AcDbEntity
  8
1
  6
CONTINUOUS
 62
     7
100
AcDbLine
 10
-325.1175365768503
 20
223.5999999999774
 30
0.0
 11
-325.0918656022155
 21
222.5999999999832
 31
0.0
  0
LINE
  5
124
330
1F
100
AcDbEntity
  8
1
  6
CONTINUOUS
 62
     7
100
AcDbLine
 10
-323.5444161478956
 20
222.6
 30
0.0
 11
-325.0918656022157
 21
222.6
 31
0.0
  0
LINE
  5
125
330
1F
100
AcDbEntity
  8
1
  6
CONTINUOUS
 62
     7
100
AcDbLine
 10
-323.5444161478953
 20
222.5999999999798
 30
0.0
 11
-323.550997927712
 21
223.5999999999798
 31
0.0
  0
LINE
  5
126
330
1F
100
AcDbEntity
  8
1
  6
CONTINUOUS
 62
     7
100
AcDbLine
 10
-323.5509979277123
 20
223.6
 30
0.0
 11
-323.5349074711631
 21
223.6
 31
0.0
  0
LINE
  5
127
330
1F
100
AcDbEntity
  8
1
  6
CONTINUOUS
 62
     7
100
AcDbLine
 10
-329.5441560814793
 20
223.6
 30
0.0
 11
-325.7621972287481
 21
223.6
 31
0.0
  0
LINE
  5
128
330
1F
100
AcDbEntity
  8
1
  6
CONTINUOUS
 62
     7
100
AcDbLine
 10
-334.2378027712521
 20
223.6
 30
0.0
 11
-330.4558439185209
 21
223.6
 31
0.0
  0
LINE
  5
129
330
1F
100
AcDbEntity
  8
1
  6
CONTINUOUS
 62
     7
100
AcDbLine
 10
-325.1175365768507
 20
223.6
 30
0.0
 11
-323.5509979277123
 21
223.6
 31
0.0
  0
LINE
  5
12A
330
1F
100
AcDbEntity
  8
1
  6
CONTINUOUS
 62
     7
100
AcDbLine
 10
-336.4490020722878
 20
223.6
 30
0.0
 11
-334.8824634231495
 21
223.6
 31
0.0
  0
LINE
  5
12B
330
1F
100
AcDbEntity
  8
1
  6
CONTINUOUS
 62
     7
100
AcDbLine
 10
-331.438987709766
 20
223.6000000024188
 30
0.0
 11
-331.4258745648907
 21
230.6
 31
0.0
  0
LINE
  5
12C
330
1F
100
AcDbEntity
  8
1
  6
CONTINUOUS
 62
     7
100
AcDbLine
 10
-329.6765661736281
 20
230.6
 30
0.0
 11
-331.4258745648907
 21
230.6
 31
0.0
  0
LINE
  5
12D
330
1F
100
AcDbEntity
  8
1
  6
CONTINUOUS
 62
     7
100
AcDbLine
 10
-329.6408252845749
 20
223.6000000214661
 30
0.0
 11
-329.6765661736281
 21
230.6
 31
0.0
  0
LINE
  5
12E
330
1F
100
AcDbEntity
  8
1
  6
CONTINUOUS
 62
     7
100
AcDbLine
 10
-331.4258745648907
 20
230.6
 30
0.0
 11
-332.0631571141543
 21
230.6
 31
0.0
  0
LINE
  5
12F
330
1F
100
AcDbEntity
  8
1
  6
CONTINUOUS
 62
     7
100
AcDbLine
 10
-332.0631571141543
 20
230.6
 30
0.0
 11
-332.1081395911102
 21
230.6
 31
0.0
  0
LINE
  5
130
330
1F
100
AcDbEntity
  8
1
  6
CONTINUOUS
 62
     7
100
AcDbLine
 10
-327.6593793182948
 20
230.6
 30
0.0
 11
-327.821795869807
 21
230.6
 31
0.0
  0
LINE
  5
131
330
1F
100
AcDbEntity
  8
1
  6
CONTINUOUS
 62
     7
100
AcDbLine
 10
-327.1420322011027
 20
230.6
 30
0.0
 11
-327.6593793182948
 21
230.6
 31
0.0
  0
LINE
  5
132
330
1F
100
AcDbEntity
  8
1
  6
CONTINUOUS
 62
     7
100
AcDbLine
 10
-327.821795869807
 20
230.6
 30
0.0
 11
-329.6765661736281
 21
230.6
 31
0.0
  0
LINE
  5
133
330
1F
100
AcDbEntity
  8
1
  6
CONTINUOUS
 62
     7
100
AcDbLine
 10
-332.3726969361647
 20
223.6000000214661
 30
0.0
 11
-332.329628831025
 21
230.6
 31
0.0
  0
LINE
  5
134
330
1F
100
AcDbEntity
  8
1
  6
CONTINUOUS
 62
     7
100
AcDbLine
 10
-332.1081395911102
 20
230.6
 30
0.0
 11
-332.329628831025
 21
230.6
 31
0.0
  0
LINE
  5
135
330
1F
100
AcDbEntity
  8
1
  6
CONTINUOUS
 62
     7
100
AcDbLine
 10
-327.021608453737
 20
230.6
 30
0.0
 11
-327.1420322011027
 21
230.6
 31
0.0
  0
LINE
  5
136
330
1F
100
AcDbEntity
  8
1
  6
CONTINUOUS
 62
     7
100
AcDbLine
 10
-333.8009320039058
 20
223.6000000024188
 30
0.0
 11
-333.7392067436938
 21
230.6
 31
0.0
  0
LINE
  5
137
330
1F
100
AcDbEntity
  8
1
  6
CONTINUOUS
 62
     7
100
AcDbLine
 10
-332.329628831025
 20
230.6
 30
0.0
 11
-333.7392067436938
 21
230.6
 31
0.0
  0
LINE
  5
138
330
1F
100
AcDbEntity
  8
1
  6
CONTINUOUS
 62
     7
100
AcDbLine
 10
-326.4838528231202
 20
230.6
 30
0.0
 11
-326.645396955431
 21
230.6
 31
0.0
  0
LINE
  5
139
330
1F
100
AcDbEntity
  8
1
  6
CONTINUOUS
 62
     7
100
AcDbLine
 10
-326.645396955431
 20
230.6
 30
0.0
 11
-327.021608453737
 21
230.6
 31
0.0
  0
LINE
  5
13A
330
1F
100
AcDbEntity
  8
1
  6
CONTINUOUS
 62
     7
100
AcDbLine
 10
-340.0000000000001
 20
217.6
 30
0.0
 11
-346.5
 21
217.6
 31
0.0
  0
LINE
  5
13B
330
1F
100
AcDbEntity
  8
1
  6
CONTINUOUS
 62
     7
100
AcDbLine
 10
-339.0000000000001
 20
219.6
 30
0.0
 11
-346.5
 21
219.6
 31
0.0
  0
LINE
  5
13C
330
1F
100
AcDbEntity
  8
1
  6
CONTINUOUS
 62
     7
100
AcDbLine
 10
-322.412724675359
 20
224.6
 30
0.0
 11
-322.5000000000001
 21
219.6
 31
0.0
  0
LINE
  5
13D
330
1F
100
AcDbEntity
  8
1
  6
CONTINUOUS
 62
     7
100
AcDbLine
 10
-321.0000000000001
 20
224.6
 30
0.0
 11
-322.412724675359
 21
224.6
 31
0.0
  0
ARC
  5
13E
330
1F
100
AcDbEntity
  8
1
  6
CONTINUOUS
 62
     7
100
AcDbCircle
 10
-320.9522547844998
 20
222.7951050590318
 30
0.0
 40
1.805526336982056
100
AcDbArc
 50
66.31601231464305
 51
91.5153023304722
  0
LWPOLYLINE
  5
13F
330
1F
100
AcDbEntity
  8
1
  6
CONTINUOUS
 62
     7
100
AcDbPolyline
 90
        5
 70
     0
 43
0.0
 10
320.2269895466374
 20
224.4485607398059
 10
320.1180787356517
 20
224.3810453592787
 10
320.0430596642679
 20
224.3060262878948
 10
320.0012045437949
 20
224.2061109338074
 10
320.0000000000001
 20
224.1857864376269
210
0.0
220
0.0
230
-1.0
  0
LINE
  5
140
330
1F
100
AcDbEntity
  8
1
  6
CONTINUOUS
 62
     7
100
AcDbLine
 10
-320.0000000000001
 20
224.1857864376269
 30
0.0
 11
-320.0000000000001
 21
218.6
 31
0.0
  0
LINE
  5
141
330
1F
100
AcDbEntity
  8
1
  6
CONTINUOUS
 62
     7
100
AcDbLine
 10
-359.0000000000001
 20
217.6
 30
0.0
 11
-346.5
 21
217.6
 31
0.0
  0
LINE
  5
142
330
1F
100
AcDbEntity
  8
1
  6
CONTINUOUS
 62
     7
100
AcDbLine
 10
-357.6929674580012
 20
219.2604060911414
 30
0.0
 11
-357.5116463095193
 21
219.6
 31
0.0
  0
LINE
  5
143
330
1F
100
AcDbEntity
  8
1
  6
CONTINUOUS
 62
     7
100
AcDbLine
 10
-357.5116463095193
 20
219.6
 30
0.0
 11
-346.5
 21
219.6
 31
0.0
  0
LINE
  5
144
330
1F
100
AcDbEntity
  8
1
  6
CONTINUOUS
 62
     7
100
AcDbLine
 10
-360.0000000000001
 20
217.6
 30
0.0
 11
-360.0000000000001
 21
219.3035599320188
 31
0.0
  0
LINE
  5
145
330
1F
100
AcDbEntity
  8
1
  6
CONTINUOUS
 62
     7
100
AcDbLine
 10
-359.0000000000001
 20
217.6
 30
0.0
 11
-360.0000000000001
 21
217.6
 31
0.0
  0
LWPOLYLINE
  5
146
330
1F
100
AcDbEntity
  8
1
  6
CONTINUOUS
 62
     7
100
AcDbPolyline
 90
        9
 70
     0
 43
0.0
 10
-357.5555516308514
 20
222.7825507999947
 10
-357.5807429854078
 20
223.138035024789
 10
-357.6429390443786
 20
223.4793599923874
 10
-357.7397784146428
 20
223.7935666432642
 10
-357.8675844030698
 20
224.0687255169968
 10
-358.021504609252
 20
224.2943896771981
 10
-358.1956951562293
 20
224.4619913495694
 10
-358.3835425645276
 20
224.5651672139464
 10
-358.5779148456403
 20
224.6
  0
LINE
  5
147
330
1F
100
AcDbEntity
  8
1
  6
CONTINUOUS
 62
     7
100
AcDbLine
 10
-357.5555516308513
 20
222.7825507999948
 30
0.0
 11
-357.5000000000001
 21
219.6
 31
0.0
  0
LINE
  5
148
330
1F
100
AcDbEntity
  8
1
  6
CONTINUOUS
 62
     7
100
AcDbLine
 10
-359.0000000000001
 20
224.6
 30
0.0
 11
-358.5779148456404
 21
224.6
 31
0.0
  0
ARC
  5
149
330
1F
100
AcDbEntity
  8
1
  6
CONTINUOUS
 62
     7
100
AcDbCircle
 10
-359.0525689243588
 20
222.1640501187954
 30
0.0
 40
2.436517046020654
100
AcDbArc
 50
88.76372248976864
 51
107.1986171689191
  0
LWPOLYLINE
  5
14A
330
1F
100
AcDbEntity
  8
1
  6
CONTINUOUS
 62
     7
100
AcDbPolyline
 90
        4
 70
     0
 43
0.0
 10
-359.7730104533629
 20
224.4916195203032
 10
-359.8819212643484
 20
224.4433008127297
 10
-359.9700312531946
 20
224.3755889930676
 10
-360.0000000000001
 20
224.303559932019
  0
LINE
  5
14B
330
1F
100
AcDbEntity
  8
1
  6
CONTINUOUS
 62
     7
100
AcDbLine
 10
-360.0000000000001
 20
219.3035599320188
 30
0.0
 11
-360.0000000000001
 21
224.303559932019
 31
0.0
  0
ARC
  5
14C
330
1F
100
AcDbEntity
  8
1
  6
CONTINUOUS
 62
     7
100
AcDbCircle
 10
-350.4504720683414
 20
251.1
 30
0.0
 40
0.9999999999999931
100
AcDbArc
 50
90.00000000000011
 51
122.6207464490343
  0
LINE
  5
14D
330
1F
100
AcDbEntity
  8
1
  6
CONTINUOUS
 62
     7
100
AcDbLine
 10
-352.1334436783019
 20
238.0943112780742
 30
0.0
 11
-351.5021044878203
 21
250.1409806679723
 31
0.0
  0
LINE
  5
14E
330
1F
100
AcDbEntity
  8
1
  6
CONTINUOUS
 62
     7
100
AcDbLine
 10
-352.3662377405491
 20
233.652335956243
 30
0.0
 11
-352.1334436783019
 21
238.0943112780742
 31
0.0
  0
LINE
  5
14F
330
1F
100
AcDbEntity
  8
1
  6
CONTINUOUS
 62
     7
100
AcDbLine
 10
-320.0000000000001
 20
249.520372562259
 30
0.0
 11
-320.0000000000001
 21
233.6
 31
0.0
  0
LINE
  5
150
330
1F
100
AcDbEntity
  8
1
  6
CONTINUOUS
 62
     7
100
AcDbLine
 10
-320.0000000000001
 20
233.6
 30
0.0
 11
-320.0000000000001
 21
224.1857864376269
 31
0.0
  0
LINE
  5
151
330
1F
100
AcDbEntity
  8
1
  6
CONTINUOUS
 62
     7
100
AcDbLine
 10
-352.5000000000001
 20
231.1
 30
0.0
 11
-351.5510354332852
 21
230.1
 31
0.0
  0
LINE
  5
152
330
1F
100
AcDbEntity
  8
1
  6
CONTINUOUS
 62
     7
100
AcDbLine
 10
-352.5000000000001
 20
231.1
 30
0.0
 11
-352.3662377405491
 21
233.652335956243
 31
0.0
  0
LINE
  5
153
330
1F
100
AcDbEntity
  8
1
  6
CONTINUOUS
 62
     7
100
AcDbLine
 10
-358.0000000000001
 20
231.1
 30
0.0
 11
-352.5000000000001
 21
231.1
 31
0.0
  0
ARC
  5
154
330
1F
100
AcDbEntity
  8
1
  6
CONTINUOUS
 62
     7
100
AcDbCircle
 10
-358.0000000000001
 20
229.1
 30
0.0
 40
2.000000000000002
100
AcDbArc
 50
90.0
 51
180.0
  0
LINE
  5
155
330
1F
100
AcDbEntity
  8
1
  6
CONTINUOUS
 62
     7
100
AcDbLine
 10
-360.0000000000001
 20
224.303559932019
 30
0.0
 11
-360.0000000000001
 21
229.1
 31
0.0
  0
LINE
  5
156
330
1F
100
AcDbEntity
  8
1
  6
CONTINUOUS
 62
     7
100
AcDbLine
 10
-320.0000000000001
 20
249.5203725622626
 30
0.0
 11
-320.0192151706611
 21
249.697855231487
 31
0.0
  0
LINE
  5
157
330
1F
100
AcDbEntity
  8
1
  6
CONTINUOUS
 62
     7
100
AcDbLine
 10
-326.8385609140624
 20
252.0890270932031
 30
0.0
 11
-327.3615059454263
 21
252.1
 31
0.0
  0
LINE
  5
158
330
1F
100
AcDbEntity
  8
1
  6
CONTINUOUS
 62
     7
100
AcDbLine
 10
-352.6384940545738
 20
252.1
 30
0.0
 11
-350.5078205729971
 21
252.1
 31
0.0
  0
LINE
  5
159
330
1F
100
AcDbEntity
  8
1
  6
CONTINUOUS
 62
     7
100
AcDbLine
 10
-350.5078205729971
 20
252.1
 30
0.0
 11
-350.4504720683414
 21
252.1
 31
0.0
  0
LINE
  5
15A
330
1F
100
AcDbEntity
  8
1
  6
CONTINUOUS
 62
     7
100
AcDbLine
 10
-354.0431985193416
 20
249.6
 30
0.0
 11
-356.6156300677226
 21
249.4910576184951
 31
0.0
  0
LINE
  5
15B
330
1F
100
AcDbEntity
  8
1
  6
CONTINUOUS
 62
     7
100
AcDbLine
 10
-351.5304560832638
 20
249.6
 30
0.0
 11
-351.5789925979042
 21
249.6
 31
0.0
  0
LINE
  5
15C
330
1F
100
AcDbEntity
  8
1
  6
CONTINUOUS
 62
     7
100
AcDbLine
 10
-351.5789925979042
 20
249.6
 30
0.0
 11
-354.0431985193416
 21
249.6
 31
0.0
  0
LINE
  5
15D
330
1F
100
AcDbEntity
  8
1
  6
CONTINUOUS
 62
     7
100
AcDbLine
 10
-352.6384940545738
 20
252.1000000000001
 30
0.0
 11
-352.7871160195141
 21
252.0817319551932
 31
0.0
  0
LINE
  5
15E
330
1F
100
AcDbEntity
  8
1
  6
CONTINUOUS
 62
     7
100
AcDbLine
 10
-360.0000000000001
 20
233.6
 30
0.0
 11
-360.0000000000001
 21
247.873695645679
 31
0.0
  0
ARC
  5
15F
330
1F
100
AcDbEntity
  8
1
  6
CONTINUOUS
 62
     7
100
AcDbCircle
 10
-357.1510070405599
 20
245.6430612819831
 30
0.0
 40
3.885061686621582
100
AcDbArc
 50
82.07920795866666
 51
134.7245931911774
  0
ARC
  5
160
330
1F
100
AcDbEntity
  8
1
  6
CONTINUOUS
 62
     7
100
AcDbCircle
 10
-358.8237189682418
 20
247.8954938968374
 30
0.0
 40
1.176482991559158
100
AcDbArc
 50
154.4241676878398
 51
181.0616551811423
  0
LINE
  5
161
330
1F
100
AcDbEntity
  8
1
  6
CONTINUOUS
 62
     7
100
AcDbLine
 10
-360.0000000000001
 20
247.873695645679
 30
0.0
 11
-360.0000000000001
 21
249.5203725622587
 31
0.0
  0
LINE
  5
162
330
1F
100
AcDbEntity
  8
1
  6
CONTINUOUS
 62
     7
100
AcDbLine
 10
-359.9728190391102
 20
249.7290983769335
 30
0.0
 11
-360.0000000000001
 21
249.5203725622587
 31
0.0
  0
LINE
  5
163
330
1F
100
AcDbEntity
  8
1
  6
CONTINUOUS
 62
     7
100
AcDbLine
 10
-360.0000000000001
 20
233.6
 30
0.0
 11
-360.0000000000001
 21
229.1
 31
0.0
  0
LINE
  5
164
330
1F
100
AcDbEntity
  8
1
  6
CONTINUOUS
 62
     7
100
AcDbLine
 10
-323.5000000000001
 20
219.6
 30
0.0
 11
-323.5349074711631
 21
223.6
 31
0.0
  0
LINE
  5
165
330
1F
100
AcDbEntity
  8
1
  6
CONTINUOUS
 62
     7
100
AcDbLine
 10
-336.465092528837
 20
223.6
 30
0.0
 11
-336.5000000000001
 21
219.6
 31
0.0
  0
LINE
  5
166
330
1F
100
AcDbEntity
  8
1
  6
CONTINUOUS
 62
     7
100
AcDbLine
 10
-332.1081395911102
 20
230.6
 30
0.0
 11
-332.1692276656455
 21
223.6
 31
0.0
  0
LINE
  5
167
330
1F
100
AcDbEntity
  8
1
  6
CONTINUOUS
 62
     7
100
AcDbLine
 10
-327.821795869807
 20
230.6
 30
0.0
 11
-327.8828839443423
 21
223.6
 31
0.0
  0
LINE
  5
168
330
1F
100
AcDbEntity
  8
1
  6
CONTINUOUS
 62
     7
100
AcDbLine
 10
-326.9605203792017
 20
223.6
 30
0.0
 11
-327.021608453737
 21
230.6
 31
0.0
  0
LINE
  5
169
330
1F
100
AcDbEntity
  8
1
  6
CONTINUOUS
 62
     7
100
AcDbLine
 10
-326.4227647485849
 20
223.6
 30
0.0
 11
-326.4838528231202
 21
230.6
 31
0.0
  0
LWPOLYLINE
  5
16A
330
1F
100
AcDbEntity
  8
1
  6
CONTINUOUS
 62
     7
100
AcDbPolyline
 90
        5
 70
     0
 43
0.0
 10
-350.9895452307482
 20
251.9422589416826
 10
-351.0921215006374
 20
251.8649950780967
 10
-351.1929915752118
 20
251.7561035611751
 10
-351.2842512835931
 20
251.6045623441536
 10
-351.3352374683504
 20
251.4778700341458
  0
ARC
  5
16B
330
1F
100
AcDbEntity
  8
1
  6
CONTINUOUS
 62
     7
100
AcDbCircle
 10
-346.0156899919992
 20
250.134200754615
 30
0.0
 40
5.486623049372789
100
AcDbArc
 50
165.8241265608749
 51
179.9730598483195
  0
ARC
  5
16C
330
1F
100
AcDbEntity
  8
1
  6
CONTINUOUS
 62
     7
100
AcDbCircle
 10
-321.8052184063345
 20
249.5789990301821
 30
0.0
 40
1.789954042774269
100
AcDbArc
 50
3.80727909757801
 51
17.85825081623729
  0
LINE
  5
16D
330
1F
100
AcDbEntity
  8
1
  6
CONTINUOUS
 62
     7
100
AcDbLine
 10
-320.1015077324792
 20
250.1279119695772
 30
0.0
 11
-320.1714485267497
 21
250.3089851823745
 31
0.0
  0
ARC
  5
16E
330
1F
100
AcDbEntity
  8
1
  6
CONTINUOUS
 62
     7
100
AcDbCircle
 10
-323.2883092397387
 20
248.0246446414131
 30
0.0
 40
3.864328196627994
100
AcDbArc
 50
36.23760908100351
 51
96.43845930222335
  0
LINE
  5
16F
330
1F
100
AcDbEntity
  8
1
  6
CONTINUOUS
 62
     7
100
AcDbLine
 10
-323.7216394121686
 20
251.8646000282525
 30
0.0
 11
-326.8006946229582
 21
252.0877464546228
 31
0.0
  0
LINE
  5
170
330
1F
100
AcDbEntity
  8
1
  6
CONTINUOUS
 62
     7
100
AcDbLine
 10
-326.8006946229582
 20
252.0877464546228
 30
0.0
 11
-326.8453169712794
 21
252.0892873320093
 31
0.0
  0
LINE
  5
171
330
1F
100
AcDbEntity
  8
1
  6
CONTINUOUS
 62
     7
100
AcDbLine
 10
-352.7871164203725
 20
252.0817318557323
 30
0.0
 11
-356.2783605878315
 21
251.8646000282525
 31
0.0
  0
ARC
  5
172
330
1F
100
AcDbEntity
  8
1
  6
CONTINUOUS
 62
     7
100
AcDbCircle
 10
-356.6939680358053
 20
247.9691662692039
 30
0.0
 40
3.917541795813502
100
AcDbArc
 50
83.9100973388504
 51
142.756715717165
  0
ARC
  5
173
330
1F
100
AcDbEntity
  8
1
  6
CONTINUOUS
 62
     7
100
AcDbCircle
 10
-358.2333521985942
 20
249.5907741164711
 30
0.0
 40
1.748003065657879
100
AcDbArc
 50
154.6177351043105
 51
176.0042992544842
  0
LINE
  5
174
330
1F
100
AcDbEntity
  8
1
  6
CONTINUOUS
 62
     7
100
AcDbLine
 10
-444.2000000000002
 20
266.0
 30
0.0
 11
-444.2000000000002
 21
296.3676082057946
 31
0.0
  0
LINE
  5
175
330
1F
100
AcDbEntity
  8
1
  6
CONTINUOUS
 62
     7
100
AcDbLine
 10
-394.7000000000002
 20
273.6323917942055
 30
0.0
 11
-394.7000000000002
 21
304.0000000000001
 31
0.0
  0
ARC
  5
176
330
1F
100
AcDbEntity
  8
1
  6
CONTINUOUS
 62
     7
100
AcDbCircle
 10
-419.4363368531762
 20
305.525761302727
 30
0.0
 40
8.9953053081491
100
AcDbArc
 50
270.008045571185
 51
313.8909461501937
  0
ARC
  5
177
330
1F
100
AcDbEntity
  8
1
  6
CONTINUOUS
 62
     7
100
AcDbCircle
 10
-419.4445759863111
 20
305.5294301004341
 30
0.0
 40
9.00366199789697
100
AcDbArc
 50
313.912544784798
 51
334.2344429875898
  0
ARC
  5
178
330
1F
100
AcDbEntity
  8
1
  6
CONTINUOUS
 62
     7
100
AcDbCircle
 10
-419.4636631468243
 20
264.4742386972731
 30
0.0
 40
8.9953053081491
100
AcDbArc
 50
90.00804557118504
 51
133.8909461501931
  0
ARC
  5
179
330
1F
100
AcDbEntity
  8
1
  6
CONTINUOUS
 62
     7
100
AcDbCircle
 10
-419.4555269311042
 20
264.4706444719341
 30
0.0
 40
9.003536896686349
100
AcDbArc
 50
133.9124021027521
 51
154.2345856696357
  0
ARC
  5
17A
330
1F
100
AcDbEntity
  8
1
  6
CONTINUOUS
 62
     7
100
AcDbCircle
 10
-405.9525273179392
 20
299.0260658553447
 30
0.0
 40
5.973962031038984
100
AcDbArc
 50
90.17506634662516
 51
154.3116937400493
  0
ARC
  5
17B
330
1F
100
AcDbEntity
  8
1
  6
CONTINUOUS
 62
     7
100
AcDbCircle
 10
-432.9474726820612
 20
270.9739341446552
 30
0.0
 40
5.973962031038836
100
AcDbArc
 50
270.1750663466198
 51
334.3116937400498
  0
LINE
  5
17C
330
1F
100
AcDbEntity
  8
1
  6
CONTINUOUS
 62
     7
100
AcDbLine
 10
-397.2000000000002
 20
272.5
 30
0.0
 11
-397.2000000000002
 21
272.6310194482076
 31
0.0
  0
LWPOLYLINE
  5
17D
330
1F
100
AcDbEntity
  8
1
  6
CONTINUOUS
 62
     7
100
AcDbPolyline
 90
        9
 70
     0
 43
0.0
 10
-397.2000000000002
 20
272.6310194482076
 10
-397.5074355135485
 20
272.7946074567913
 10
-398.4179274798196
 20
272.9519088699463
 10
-399.8964862031595
 20
273.0968786825807
 10
-401.8862915010154
 20
273.223945786095
 10
-404.3108762716866
 20
273.3282270629613
 10
-407.0770650821588
 20
273.4057150421912
 10
-410.0785548477422
 20
273.4534319041985
 10
-413.2000000000002
 20
273.4695439167363
  0
LINE
  5
17E
330
1F
100
AcDbEntity
  8
1
  6
CONTINUOUS
 62
     7
100
AcDbLine
 10
-413.2000000000002
 20
273.4695439167363
 30
0.0
 11
-419.4649262829499
 21
273.4695439167363
 31
0.0
  0
LINE
  5
17F
330
1F
100
AcDbEntity
  8
1
  6
CONTINUOUS
 62
     7
100
AcDbLine
 10
-395.7000000000002
 20
272.5
 30
0.0
 11
-397.2000000000002
 21
272.5
 31
0.0
  0
LINE
  5
180
330
1F
100
AcDbEntity
  8
1
  6
CONTINUOUS
 62
     7
100
AcDbLine
 10
-441.7000000000003
 20
297.5000000000001
 30
0.0
 11
-441.7000000000002
 21
297.3689805517924
 31
0.0
  0
LWPOLYLINE
  5
181
330
1F
100
AcDbEntity
  8
1
  6
CONTINUOUS
 62
     7
100
AcDbPolyline
 90
        9
 70
     0
 43
0.0
 10
-441.7000000000002
 20
297.3689805517924
 10
-441.3925644864519
 20
297.2053925432088
 10
-440.4820725201807
 20
297.0480911300538
 10
-439.0035137968409
 20
296.9031213174193
 10
-437.013708498985
 20
296.776054213905
 10
-434.5891237283138
 20
296.6717729370387
 10
-431.8229349178416
 20
296.5942849578089
 10
-428.8214451522582
 20
296.5465680958016
 10
-425.7000000000002
 20
296.5304560832638
  0
LINE
  5
182
330
1F
100
AcDbEntity
  8
1
  6
CONTINUOUS
 62
     7
100
AcDbLine
 10
-425.7000000000002
 20
296.5304560832638
 30
0.0
 11
-419.4350737170506
 21
296.5304560832638
 31
0.0
  0
LINE
  5
183
330
1F
100
AcDbEntity
  8
1
  6
CONTINUOUS
 62
     7
100
AcDbLine
 10
-443.2000000000002
 20
297.5000000000001
 30
0.0
 11
-441.7000000000003
 21
297.5000000000001
 31
0.0
  0
LINE
  5
184
330
1F
100
AcDbEntity
  8
1
  6
CONTINUOUS
 62
     7
100
AcDbLine
 10
-405.9342077184338
 20
305.0000000000001
 30
0.0
 11
-395.7000000000002
 21
305.0000000000001
 31
0.0
  0
ARC
  5
185
330
1F
100
AcDbEntity
  8
1
  6
CONTINUOUS
 62
     7
100
AcDbCircle
 10
-395.7000000000002
 20
304.0000000000001
 30
0.0
 40
1.000000000000001
100
AcDbArc
 50
0.0
 51
90.0
  0
LINE
  5
186
330
1F
100
AcDbEntity
  8
1
  6
CONTINUOUS
 62
     7
100
AcDbLine
 10
-432.9657922815674
 20
265.0
 30
0.0
 11
-443.2000000000002
 21
265.0
 31
0.0
  0
ARC
  5
187
330
1F
100
AcDbEntity
  8
1
  6
CONTINUOUS
 62
     7
100
AcDbCircle
 10
-443.2000000000002
 20
266.0
 30
0.0
 40
1.000000000000001
100
AcDbArc
 50
180.0
 51
270.0000000000007
  0
LINE
  5
188
330
1F
100
AcDbEntity
  8
1
  6
CONTINUOUS
 62
     7
100
AcDbLine
 10
-394.7000000000002
 20
273.6323917942055
 30
0.0
 11
-394.7000000000002
 21
273.4489645667149
 31
0.0
  0
LWPOLYLINE
  5
189
330
1F
100
AcDbEntity
  8
1
  6
CONTINUOUS
 62
     7
100
AcDbPolyline
 90
       33
 70
     0
 43
0.0
 10
-395.7000000000002
 20
272.5
 10
-395.6509323256728
 20
272.5011430693804
 10
-395.6019828596706
 20
272.5045695237671
 10
-395.5532695255449
 20
272.5102711085316
 10
-395.5049096779841
 20
272.5182340880567
 10
-395.4570198200969
 20
272.5284392788272
 10
-395.4097153227457
 20
272.5408620956448
 10
-395.363110146608
 20
272.5554726108555
 10
-395.3173165676351
 20
272.5722356264486
 10
-395.2724449065699
 20
272.5911107588511
 10
-395.2286032631742
 20
272.612052536216
 10
-395.185897255807
 20
272.6350105079671
 10
-395.1444297669806
 20
272.6599293663397
 10
-395.1043006955078
 20
272.6867490796213
 10
-395.0656067158366
 20
272.7154050367735
 10
-395.0284410451532
 20
272.7458282030855
 10
-394.9928932188137
 20
272.7779452864851
 10
-394.9590488746452
 20
272.811678914105
 10
-394.9269895466375
 20
272.8469478186817
 10
-394.8967924685195
 20
272.8836670343348
 10
-394.8685303876977
 20
272.9217481012578
 10
-394.84227139
 20
272.9610992788247
 10
-394.8180787356519
 20
273.001625766602
 10
-394.7960107068768
 20
273.0432299327311
 10
-394.7761204674889
 20
273.0858115491316
 10
-394.7584559348172
 20
273.1292680329599
 10
-394.743059664268
 20
273.1734946937401
 10
-394.7299687468056
 20
273.2183849855727
 10
-394.7192147195969
 20
273.2638307638126
 10
-394.7108234900354
 20
273.3097225455995
 10
-394.704815273328
 20
273.3559497736114
 10
-394.701204543795
 20
273.4024010824071
 10
-394.7000000000002
 20
273.4489645667149
  0
LINE
  5
18A
330
1F
100
AcDbEntity
  8
1
  6
CONTINUOUS
 62
     7
100
AcDbLine
 10
-444.2000000000002
 20
296.3676082057946
 30
0.0
 11
-444.2000000000002
 21
296.5510354332852
 31
0.0
  0
LWPOLYLINE
  5
18B
330
1F
100
AcDbEntity
  8
1
  6
CONTINUOUS
 62
     7
100
AcDbPolyline
 90
       33
 70
     0
 43
0.0
 10
444.2000000000002
 20
296.5510354332852
 10
444.1987954562054
 20
296.597598917593
 10
444.1951847266724
 20
296.6440502263886
 10
444.189176509965
 20
296.6902774544006
 10
444.1807852804034
 20
296.7361692361874
 10
444.1700312531947
 20
296.7816150144274
 10
444.1569403357324
 20
296.8265053062599
 10
444.1415440651832
 20
296.8707319670402
 10
444.1238795325115
 20
296.9141884508685
 10
444.1039892931237
 20
296.956770067269
 10
444.0819212643485
 20
296.9983742333981
 10
444.0577286100005
 20
297.0389007211754
 10
444.0314696123028
 20
297.0782518987423
 10
444.0032075314809
 20
297.1163329656652
 10
443.973010453363
 20
297.1530521813183
 10
443.9409511253551
 20
297.1883210858951
 10
443.9071067811867
 20
297.222054713515
 10
443.8715589548472
 20
297.2541717969145
 10
443.8343932841639
 20
297.2845949632266
 10
443.7956993044926
 20
297.3132509203788
 10
443.7555702330198
 20
297.3400706336604
 10
443.7141027441934
 20
297.364989492033
 10
443.6713967368262
 20
297.3879474637841
 10
443.6275550934305
 20
297.4088892411489
 10
443.5826834323653
 20
297.4277643735515
 10
443.5368898533924
 20
297.4445273891446
 10
443.4902846772546
 20
297.4591379043553
 10
443.4429801799035
 20
297.4715607211728
 10
443.3950903220163
 20
297.4817659119433
 10
443.3467304744556
 20
297.4897288914685
 10
443.2980171403297
 20
297.495430476233
 10
443.2490676743276
 20
297.4988569306197
 10
443.2000000000002
 20
297.5000000000001
210
0.0
220
0.0
230
-1.0
  0
CIRCLE
  5
18C
330
1F
100
AcDbEntity
  8
1
  6
CONTINUOUS
 62
     7
100
AcDbCircle
 10
-456.95
 20
295.0000000000001
 30
0.0
 40
5.814446675698193
  0
LWPOLYLINE
  5
18D
330
1F
100
AcDbEntity
  8
1
  6
CONTINUOUS
 62
     7
100
AcDbPolyline
 90
        9
 70
     0
 43
0.0
 10
-397.8406406406409
 20
265.0
 10
-397.7156578517616
 20
265.0384294391935
 10
-397.5954780813679
 20
265.1522409349774
 10
-397.4847197706383
 20
265.3370607753949
 10
-397.3876392993402
 20
265.5857864376269
 10
-397.3079674155421
 20
265.8888595339608
 10
-397.248765865058
 20
266.2346331352698
 10
-397.2123097302724
 20
266.6098193559678
 10
-397.2000000000002
 20
267.0
  0
LINE
  5
18E
330
1F
100
AcDbEntity
  8
1
  6
CONTINUOUS
 62
     7
100
AcDbLine
 10
-395.7000000000002
 20
265.0
 30
0.0
 11
-397.8406406406409
 21
265.0
 31
0.0
  0
ARC
  5
18F
330
1F
100
AcDbEntity
  8
1
  6
CONTINUOUS
 62
     7
100
AcDbCircle
 10
-395.7000000000002
 20
266.0
 30
0.0
 40
1.000000000000001
100
AcDbArc
 50
270.0
 51
0.0
  0
LINE
  5
190
330
1F
100
AcDbEntity
  8
1
  6
CONTINUOUS
 62
     7
100
AcDbLine
 10
-394.7000000000002
 20
267.0
 30
0.0
 11
-394.7000000000002
 21
266.0
 31
0.0
  0
LINE
  5
191
330
1F
100
AcDbEntity
  8
1
  6
CONTINUOUS
 62
     7
100
AcDbLine
 10
-394.7000000000002
 20
273.4489645667149
 30
0.0
 11
-394.7000000000002
 21
267.0
 31
0.0
  0
LINE
  5
192
330
1F
100
AcDbEntity
  8
1
  6
CONTINUOUS
 62
     7
100
AcDbLine
 10
-397.2000000000002
 20
272.5
 30
0.0
 11
-397.9626310772166
 21
272.3752255207251
 31
0.0
  0
LINE
  5
193
330
1F
100
AcDbEntity
  8
1
  6
CONTINUOUS
 62
     7
100
AcDbLine
 10
-397.2000000000002
 20
272.5
 30
0.0
 11
-397.2000000000002
 21
267.0
 31
0.0
  0
LINE
  5
194
330
1F
100
AcDbEntity
  8
1
  6
CONTINUOUS
 62
     7
100
AcDbLine
 10
-397.8406406406409
 20
265.0
 30
0.0
 11
-397.9626310772166
 21
265.0
 31
0.0
  0
LINE
  5
195
330
1F
100
AcDbEntity
  8
1
  6
CONTINUOUS
 62
     7
100
AcDbLine
 10
-441.7000000000003
 20
297.5000000000001
 30
0.0
 11
-441.7000000000003
 21
303.0000000000001
 31
0.0
  0
LWPOLYLINE
  5
196
330
1F
100
AcDbEntity
  8
1
  6
CONTINUOUS
 62
     7
100
AcDbPolyline
 90
        9
 70
     0
 43
0.0
 10
-448.2000000000002
 20
303.4930631547491
 10
-448.1791617310309
 20
303.2989521919221
 10
-448.1174405392123
 20
303.1125038360161
 10
-448.0171870453776
 20
302.940818879754
 10
-447.8822193538807
 20
302.7904358591402
 10
-447.7176776419944
 20
302.6670820365751
 10
-447.5298283988208
 20
302.5754552809208
 10
-447.325825769176
 20
302.5190451515064
 10
-447.1134390915506
 20
302.5000000000001
  0
LINE
  5
197
330
1F
100
AcDbEntity
  8
1
  6
CONTINUOUS
 62
     7
100
AcDbLine
 10
-441.7000000000003
 20
297.5000000000001
 30
0.0
 11
-440.9373689227838
 21
297.624774479275
 31
0.0
  0
LWPOLYLINE
  5
198
330
1F
100
AcDbEntity
  8
1
  6
CONTINUOUS
 62
     7
100
AcDbPolyline
 90
        9
 70
     0
 43
0.0
 10
-441.0593593593596
 20
305.0000000000001
 10
-441.1843421482388
 20
304.9615705608065
 10
-441.3045219186325
 20
304.8477590650226
 10
-441.4152802293621
 20
304.6629392246052
 10
-441.5123607006603
 20
304.4142135623732
 10
-441.5920325844583
 20
304.1111404660393
 10
-441.6512341349424
 20
303.7653668647303
 10
-441.687690269728
 20
303.3901806440323
 10
-441.7000000000002
 20
303.0000000000001
  0
LINE
  5
199
330
1F
100
AcDbEntity
  8
1
  6
CONTINUOUS
 62
     7
100
AcDbLine
 10
-441.0593593593596
 20
305.0000000000001
 30
0.0
 11
-440.9373689227838
 21
305.0000000000001
 31
0.0
  0
LINE
  5
19A
330
1F
100
AcDbEntity
  8
1
  6
CONTINUOUS
 62
     7
100
AcDbLine
 10
-444.2000000000002
 20
296.5510354332852
 30
0.0
 11
-444.2000000000002
 21
302.8309132548407
 31
0.0
  0
LINE
  5
19B
330
1F
100
AcDbEntity
  8
1
  6
CONTINUOUS
 62
     7
100
AcDbLine
 10
-443.9945713553562
 20
305.0000000000001
 30
0.0
 11
-441.0593593593596
 21
305.0000000000001
 31
0.0
  0
ARC
  5
19C
330
1F
100
AcDbEntity
  8
1
  6
CONTINUOUS
 62
     7
100
AcDbCircle
 10
-456.95
 20
273.5
 30
0.0
 40
2.670995545698308
100
AcDbArc
 50
224.1677565069252
 51
276.0379829668
  0
ARC
  5
19D
330
1F
100
AcDbEntity
  8
1
  6
CONTINUOUS
 62
     7
100
AcDbCircle
 10
-456.95
 20
273.5
 30
0.0
 40
3.845995545698335
100
AcDbArc
 50
254.6209646607257
 51
265.9071914951129
  0
ARC
  5
19E
330
1F
100
AcDbEntity
  8
1
  6
CONTINUOUS
 62
     7
100
AcDbCircle
 10
-457.9179921725227
 20
269.9806973483466
 30
0.0
 40
0.1959955456983756
100
AcDbArc
 50
106.0160053866601
 51
254.6209646607273
  0
ARC
  5
19F
330
1F
100
AcDbEntity
  8
1
  6
CONTINUOUS
 62
     7
100
AcDbCircle
 10
-456.6686228048815
 20
270.8398398781151
 30
0.0
 40
0.0040044543016542
100
AcDbArc
 50
322.9599334811009
 51
96.0379829668343
  0
ARC
  5
1A0
330
1F
100
AcDbEntity
  8
1
  6
CONTINUOUS
 62
     7
100
AcDbCircle
 10
-457.7861230628456
 20
271.6831625764044
 30
0.0
 40
2.095995545698314
100
AcDbArc
 50
285.5424212839729
 51
343.9242205568318
  0
CIRCLE
  5
1A1
330
1F
100
AcDbEntity
  8
1
  6
CONTINUOUS
 62
     7
100
AcDbCircle
 10
-456.9500000000001
 20
273.5
 30
0.0
 40
1.929820677897154
  0
LINE
  5
1A2
330
1F
100
AcDbEntity
  8
1
  6
CONTINUOUS
 62
     7
100
AcDbLine
 10
-457.9720684941408
 20
270.1690852603098
 30
0.0
 11
-457.3987499919246
 21
270.3336550322891
 31
0.0
  0
ARC
  5
1A3
330
1F
100
AcDbEntity
  8
1
  6
CONTINUOUS
 62
     7
100
AcDbCircle
 10
-457.7861230628456
 20
271.6831625764044
 30
0.0
 40
1.404004454301635
100
AcDbArc
 50
286.016005386661
 51
322.9599334811436
  0
ARC
  5
1A4
330
1F
100
AcDbEntity
  8
1
  6
CONTINUOUS
 62
     7
100
AcDbCircle
 10
-458.9362913065677
 20
273.7337666474365
 30
0.0
 40
2.095995545698338
100
AcDbArc
 50
213.5424212839729
 51
271.924220556832
  0
ARC
  5
1A5
330
1F
100
AcDbEntity
  8
1
  6
CONTINUOUS
 62
     7
100
AcDbCircle
 10
-455.6140360443001
 20
275.8175041119857
 30
0.0
 40
0.0040044543016223
100
AcDbArc
 50
106.9599334811052
 51
240.0379829668063
  0
ARC
  5
1A6
330
1F
100
AcDbEntity
  8
1
  6
CONTINUOUS
 62
     7
100
AcDbCircle
 10
-456.95
 20
273.5
 30
0.0
 40
2.670995545698347
100
AcDbArc
 50
152.1677565069254
 51
204.0379829667999
  0
ARC
  5
1A7
330
1F
100
AcDbEntity
  8
1
  6
CONTINUOUS
 62
     7
100
AcDbCircle
 10
-381.9500000000001
 20
295.0000000000001
 30
0.0
 40
2.670995545698296
100
AcDbArc
 50
152.1677565069254
 51
204.0379829667999
  0
ARC
  5
1A8
330
1F
100
AcDbEntity
  8
1
  6
CONTINUOUS
 62
     7
100
AcDbCircle
 10
-456.95
 20
273.5
 30
0.0
 40
3.845995545698331
100
AcDbArc
 50
110.6209646607257
 51
121.9071914951129
  0
ARC
  5
1A9
330
1F
100
AcDbEntity
  8
1
  6
CONTINUOUS
 62
     7
100
AcDbCircle
 10
-383.7412418210612
 20
296.9867253807414
 30
0.0
 40
0.0040044543016396
100
AcDbArc
 50
178.9599334811371
 51
312.0379829668942
  0
ARC
  5
1AA
330
1F
100
AcDbEntity
  8
1
  6
CONTINUOUS
 62
     7
100
AcDbCircle
 10
-381.9500000000001
 20
295.0000000000001
 30
0.0
 40
3.845995545698382
100
AcDbArc
 50
38.62096466072546
 51
49.9071914951129
  0
ARC
  5
1AB
330
1F
100
AcDbEntity
  8
1
  6
CONTINUOUS
 62
     7
100
AcDbCircle
 10
-456.95
 20
273.5
 30
0.0
 40
2.670995545698382
100
AcDbArc
 50
8.167756506925402
 51
60.03798296680002
  0
ARC
  5
1AC
330
1F
100
AcDbEntity
  8
1
  6
CONTINUOUS
 62
     7
100
AcDbCircle
 10
-381.6686228048815
 20
292.339839878115
 30
0.0
 40
0.0040044543016542
100
AcDbArc
 50
322.9599334811009
 51
96.03798296683561
  0
ARC
  5
1AD
330
1F
100
AcDbEntity
  8
1
  6
CONTINUOUS
 62
     7
100
AcDbCircle
 10
-380.4804611650486
 20
293.6433660727487
 30
0.0
 40
2.095995545698314
100
AcDbArc
 50
357.5424212839729
 51
55.92422055683187
  0
LINE
  5
1AE
330
1F
100
AcDbEntity
  8
1
  6
CONTINUOUS
 62
     7
100
AcDbLine
 10
-454.1652666581915
 20
275.5940098435347
 30
0.0
 11
-454.7258227546165
 21
275.7978582617122
 31
0.0
  0
ARC
  5
1AF
330
1F
100
AcDbEntity
  8
1
  6
CONTINUOUS
 62
     7
100
AcDbCircle
 10
-380.6140360443001
 20
297.3175041119857
 30
0.0
 40
0.0040044543016754
100
AcDbArc
 50
106.9599334811052
 51
240.0379829668063
  0
ARC
  5
1B0
330
1F
100
AcDbEntity
  8
1
  6
CONTINUOUS
 62
     7
100
AcDbCircle
 10
-382.3414724761718
 20
296.9613131571476
 30
0.0
 40
1.404004454301658
100
AcDbArc
 50
142.0160053866609
 51
178.9599334811435
  0
ARC
  5
1B1
330
1F
100
AcDbEntity
  8
1
  6
CONTINUOUS
 62
     7
100
AcDbCircle
 10
-456.95
 20
273.5
 30
0.0
 40
3.845995545698369
100
AcDbArc
 50
182.6209646607257
 51
193.9071914951129
  0
CIRCLE
  5
1B2
330
1F
100
AcDbEntity
  8
1
  6
CONTINUOUS
 62
     7
100
AcDbCircle
 10
-381.9500000000001
 20
295.0000000000001
 30
0.0
 40
1.929820677897154
  0
ARC
  5
1B3
330
1F
100
AcDbEntity
  8
1
  6
CONTINUOUS
 62
     7
100
AcDbCircle
 10
-381.9500000000001
 20
295.0000000000001
 30
0.0
 40
3.845995545698331
100
AcDbArc
 50
110.6209646607257
 51
121.9071914951129
  0
LINE
  5
1B4
330
1F
100
AcDbEntity
  8
1
  6
CONTINUOUS
 62
     7
100
AcDbLine
 10
-379.0979483656988
 20
292.9986458371692
 30
0.0
 11
-379.0772983593505
 21
293.5947589909166
 31
0.0
  0
ARC
  5
1B5
330
1F
100
AcDbEntity
  8
1
  6
CONTINUOUS
 62
     7
100
AcDbCircle
 10
-378.9020703120617
 20
292.9918604088899
 30
0.0
 40
0.1959955456983217
100
AcDbArc
 50
178.0160053866607
 51
326.620964660726
  0
ARC
  5
1B6
330
1F
100
AcDbEntity
  8
1
  6
CONTINUOUS
 62
     7
100
AcDbCircle
 10
-458.235472079003
 20
276.9161471768799
 30
0.0
 40
0.1959955456983552
100
AcDbArc
 50
322.0160053866603
 51
110.6209646607271
  0
ARC
  5
1B7
330
1F
100
AcDbEntity
  8
1
  6
CONTINUOUS
 62
     7
100
AcDbCircle
 10
-383.9362913065677
 20
295.2337666474365
 30
0.0
 40
1.404004454301634
100
AcDbArc
 50
214.016005386661
 51
250.9599334811437
  0
LINE
  5
1B8
330
1F
100
AcDbEntity
  8
1
  6
CONTINUOUS
 62
     7
100
AcDbLine
 10
-454.0979483656988
 20
271.4986458371692
 30
0.0
 11
-454.0772983593505
 21
272.0947589909165
 31
0.0
  0
ARC
  5
1B9
330
1F
100
AcDbEntity
  8
1
  6
CONTINUOUS
 62
     7
100
AcDbCircle
 10
-457.3414724761718
 20
275.4613131571476
 30
0.0
 40
1.404004454301615
100
AcDbArc
 50
142.0160053866609
 51
178.9599334811435
  0
ARC
  5
1BA
330
1F
100
AcDbEntity
  8
1
  6
CONTINUOUS
 62
     7
100
AcDbCircle
 10
-456.95
 20
273.5
 30
0.0
 40
3.845995545698363
100
AcDbArc
 50
326.6209646607256
 51
337.9071914951128
  0
ARC
  5
1BB
330
1F
100
AcDbEntity
  8
1
  6
CONTINUOUS
 62
     7
100
AcDbCircle
 10
-460.5961817514013
 20
273.3330909356907
 30
0.0
 40
0.1959955456983237
100
AcDbArc
 50
34.01600538666128
 51
182.6209646607258
  0
LINE
  5
1BC
330
1F
100
AcDbEntity
  8
1
  6
CONTINUOUS
 62
     7
100
AcDbLine
 10
-460.4337247025107
 20
273.4427356400743
 30
0.0
 11
-460.1000443881102
 21
272.9483321989309
 31
0.0
  0
ARC
  5
1BD
330
1F
100
AcDbEntity
  8
1
  6
CONTINUOUS
 62
     7
100
AcDbCircle
 10
-379.0982836850116
 20
297.2782041301931
 30
0.0
 40
0.1959955456983193
100
AcDbArc
 50
250.0160053866608
 51
38.62096466072472
  0
ARC
  5
1BE
330
1F
100
AcDbEntity
  8
1
  6
CONTINUOUS
 62
     7
100
AcDbCircle
 10
-382.7861230628457
 20
293.1831625764044
 30
0.0
 40
1.404004454301651
100
AcDbArc
 50
286.016005386661
 51
322.9599334811435
  0
ARC
  5
1BF
330
1F
100
AcDbEntity
  8
1
  6
CONTINUOUS
 62
     7
100
AcDbCircle
 10
-381.9500000000001
 20
295.0000000000001
 30
0.0
 40
2.67099554569832
100
AcDbArc
 50
80.16775650692551
 51
132.0379829667999
  0
ARC
  5
1C0
330
1F
100
AcDbEntity
  8
1
  6
CONTINUOUS
 62
     7
100
AcDbCircle
 10
-382.9179921725228
 20
291.4806973483466
 30
0.0
 40
0.1959955456983073
100
AcDbArc
 50
106.0160053866602
 51
254.6209646607273
  0
ARC
  5
1C1
330
1F
100
AcDbEntity
  8
1
  6
CONTINUOUS
 62
     7
100
AcDbCircle
 10
-454.0982836850117
 20
275.7782041301931
 30
0.0
 40
0.1959955456983193
100
AcDbArc
 50
250.0160053866608
 51
38.62096466072472
  0
ARC
  5
1C2
330
1F
100
AcDbEntity
  8
1
  6
CONTINUOUS
 62
     7
100
AcDbCircle
 10
-456.95
 20
273.5
 30
0.0
 40
3.845995545698346
100
AcDbArc
 50
38.62096466072546
 51
49.9071914951129
  0
ARC
  5
1C3
330
1F
100
AcDbEntity
  8
1
  6
CONTINUOUS
 62
     7
100
AcDbCircle
 10
-455.2056519893666
 20
274.4783915462631
 30
0.0
 40
2.095995545698349
100
AcDbArc
 50
69.54242128397287
 51
127.9242205568319
  0
ARC
  5
1C4
330
1F
100
AcDbEntity
  8
1
  6
CONTINUOUS
 62
     7
100
AcDbCircle
 10
-456.95
 20
273.5
 30
0.0
 40
2.670995545698361
100
AcDbArc
 50
80.16775650692551
 51
132.0379829667999
  0
ARC
  5
1C5
330
1F
100
AcDbEntity
  8
1
  6
CONTINUOUS
 62
     7
100
AcDbCircle
 10
-458.7412418210611
 20
275.4867253807413
 30
0.0
 40
0.0040044543016951
100
AcDbArc
 50
178.9599334811371
 51
312.0379829668942
  0
ARC
  5
1C6
330
1F
100
AcDbEntity
  8
1
  6
CONTINUOUS
 62
     7
100
AcDbCircle
 10
-380.4804611650486
 20
293.6433660727487
 30
0.0
 40
1.404004454301654
100
AcDbArc
 50
358.0160053866609
 51
34.95993348114354
  0
LINE
  5
1C7
330
1F
100
AcDbEntity
  8
1
  6
CONTINUOUS
 62
     7
100
AcDbLine
 10
-458.0809917794585
 20
276.7955234189121
 30
0.0
 11
-458.4480845059985
 21
276.3253955161514
 31
0.0
  0
ARC
  5
1C8
330
1F
100
AcDbEntity
  8
1
  6
CONTINUOUS
 62
     7
100
AcDbCircle
 10
-381.9500000000001
 20
295.0000000000001
 30
0.0
 40
3.845995545698363
100
AcDbArc
 50
326.6209646607256
 51
337.9071914951128
  0
ARC
  5
1C9
330
1F
100
AcDbEntity
  8
1
  6
CONTINUOUS
 62
     7
100
AcDbCircle
 10
-454.3330870465716
 20
272.9455709295335
 30
0.0
 40
0.0040044543016336
100
AcDbArc
 50
34.95993348116533
 51
168.0379829668053
  0
ARC
  5
1CA
330
1F
100
AcDbEntity
  8
1
  6
CONTINUOUS
 62
     7
100
AcDbCircle
 10
-385.5961817514013
 20
294.8330909356907
 30
0.0
 40
0.1959955456983791
100
AcDbArc
 50
34.01600538666128
 51
182.6209646607258
  0
ARC
  5
1CB
330
1F
100
AcDbEntity
  8
1
  6
CONTINUOUS
 62
     7
100
AcDbCircle
 10
-453.9020703120617
 20
271.4918604088899
 30
0.0
 40
0.1959955456983986
100
AcDbArc
 50
178.0160053866607
 51
326.620964660726
  0
ARC
  5
1CC
330
1F
100
AcDbEntity
  8
1
  6
CONTINUOUS
 62
     7
100
AcDbCircle
 10
-383.9362913065677
 20
295.2337666474365
 30
0.0
 40
2.095995545698336
100
AcDbArc
 50
213.5424212839729
 51
271.924220556832
  0
ARC
  5
1CD
330
1F
100
AcDbEntity
  8
1
  6
CONTINUOUS
 62
     7
100
AcDbCircle
 10
-455.4804611650486
 20
272.1433660727486
 30
0.0
 40
2.095995545698391
100
AcDbArc
 50
357.5424212839729
 51
55.92422055683187
  0
ARC
  5
1CE
330
1F
100
AcDbEntity
  8
1
  6
CONTINUOUS
 62
     7
100
AcDbCircle
 10
-381.9500000000001
 20
295.0000000000001
 30
0.0
 40
2.670995545698363
100
AcDbArc
 50
224.1677565069252
 51
276.0379829668
  0
LINE
  5
1CF
330
1F
100
AcDbEntity
  8
1
  6
CONTINUOUS
 62
     7
100
AcDbLine
 10
-379.1652666581915
 20
297.0940098435347
 30
0.0
 11
-379.7258227546166
 21
297.2978582617122
 31
0.0
  0
ARC
  5
1D0
330
1F
100
AcDbEntity
  8
1
  6
CONTINUOUS
 62
     7
100
AcDbCircle
 10
-380.2056519893666
 20
295.9783915462631
 30
0.0
 40
2.095995545698349
100
AcDbArc
 50
69.54242128397287
 51
127.9242205568319
  0
ARC
  5
1D1
330
1F
100
AcDbEntity
  8
1
  6
CONTINUOUS
 62
     7
100
AcDbCircle
 10
-383.235472079003
 20
298.4161471768799
 30
0.0
 40
0.1959955456983032
100
AcDbArc
 50
322.0160053866603
 51
110.6209646607271
  0
ARC
  5
1D2
330
1F
100
AcDbEntity
  8
1
  6
CONTINUOUS
 62
     7
100
AcDbCircle
 10
-455.2056519893666
 20
274.4783915462631
 30
0.0
 40
1.404004454301673
100
AcDbArc
 50
70.01600538666098
 51
106.9599334811433
  0
ARC
  5
1D3
330
1F
100
AcDbEntity
  8
1
  6
CONTINUOUS
 62
     7
100
AcDbCircle
 10
-381.9500000000001
 20
295.0000000000001
 30
0.0
 40
3.845995545698331
100
AcDbArc
 50
254.6209646607257
 51
265.9071914951129
  0
LINE
  5
1D4
330
1F
100
AcDbEntity
  8
1
  6
CONTINUOUS
 62
     7
100
AcDbLine
 10
-383.0809917794586
 20
298.2955234189121
 30
0.0
 11
-383.4480845059985
 21
297.8253955161514
 31
0.0
  0
ARC
  5
1D5
330
1F
100
AcDbEntity
  8
1
  6
CONTINUOUS
 62
     7
100
AcDbCircle
 10
-381.9500000000001
 20
295.0000000000001
 30
0.0
 40
3.845995545698314
100
AcDbArc
 50
182.6209646607257
 51
193.9071914951129
  0
ARC
  5
1D6
330
1F
100
AcDbEntity
  8
1
  6
CONTINUOUS
 62
     7
100
AcDbCircle
 10
-379.3330870465716
 20
294.4455709295335
 30
0.0
 40
0.0040044543016336
100
AcDbArc
 50
34.95993348116533
 51
168.0379829668053
  0
ARC
  5
1D7
330
1F
100
AcDbEntity
  8
1
  6
CONTINUOUS
 62
     7
100
AcDbCircle
 10
-458.9362913065677
 20
273.7337666474365
 30
0.0
 40
1.404004454301634
100
AcDbArc
 50
214.016005386661
 51
250.9599334811437
  0
ARC
  5
1D8
330
1F
100
AcDbEntity
  8
1
  6
CONTINUOUS
 62
     7
100
AcDbCircle
 10
-382.3414724761718
 20
296.9613131571476
 30
0.0
 40
2.095995545698342
100
AcDbArc
 50
141.542421283973
 51
199.9242205568319
  0
ARC
  5
1D9
330
1F
100
AcDbEntity
  8
1
  6
CONTINUOUS
 62
     7
100
AcDbCircle
 10
-382.7861230628457
 20
293.1831625764044
 30
0.0
 40
2.095995545698367
100
AcDbArc
 50
285.5424212839729
 51
343.9242205568318
  0
ARC
  5
1DA
330
1F
100
AcDbEntity
  8
1
  6
CONTINUOUS
 62
     7
100
AcDbCircle
 10
-384.3930122831861
 20
293.9103596996246
 30
0.0
 40
0.00400445430165
100
AcDbArc
 50
250.9599334811965
 51
24.03798296678099
  0
ARC
  5
1DB
330
1F
100
AcDbEntity
  8
1
  6
CONTINUOUS
 62
     7
100
AcDbCircle
 10
-456.95
 20
273.5
 30
0.0
 40
2.670995545698355
100
AcDbArc
 50
296.1677565069253
 51
348.0379829668
  0
ARC
  5
1DC
330
1F
100
AcDbEntity
  8
1
  6
CONTINUOUS
 62
     7
100
AcDbCircle
 10
-457.3414724761718
 20
275.4613131571476
 30
0.0
 40
2.095995545698323
100
AcDbArc
 50
141.542421283973
 51
199.9242205568319
  0
ARC
  5
1DD
330
1F
100
AcDbEntity
  8
1
  6
CONTINUOUS
 62
     7
100
AcDbCircle
 10
-455.4804611650486
 20
272.1433660727486
 30
0.0
 40
1.404004454301654
100
AcDbArc
 50
358.0160053866609
 51
34.95993348114354
  0
ARC
  5
1DE
330
1F
100
AcDbEntity
  8
1
  6
CONTINUOUS
 62
     7
100
AcDbCircle
 10
-380.2056519893666
 20
295.9783915462631
 30
0.0
 40
1.404004454301621
100
AcDbArc
 50
70.01600538666098
 51
106.9599334811433
  0
LINE
  5
1DF
330
1F
100
AcDbEntity
  8
1
  6
CONTINUOUS
 62
     7
100
AcDbLine
 10
-385.4337247025107
 20
294.9427356400743
 30
0.0
 11
-385.1000443881102
 21
294.448332198931
 31
0.0
  0
ARC
  5
1E0
330
1F
100
AcDbEntity
  8
1
  6
CONTINUOUS
 62
     7
100
AcDbCircle
 10
-459.3930122831861
 20
272.4103596996246
 30
0.0
 40
0.00400445430165
100
AcDbArc
 50
250.9599334811965
 51
24.03798296678099
  0
ARC
  5
1E1
330
1F
100
AcDbEntity
  8
1
  6
CONTINUOUS
 62
     7
100
AcDbCircle
 10
-381.9500000000001
 20
295.0000000000001
 30
0.0
 40
2.670995545698355
100
AcDbArc
 50
296.1677565069253
 51
348.0379829668
  0
LINE
  5
1E2
330
1F
100
AcDbEntity
  8
1
  6
CONTINUOUS
 62
     7
100
AcDbLine
 10
-382.9720684941408
 20
291.6690852603098
 30
0.0
 11
-382.3987499919245
 21
291.8336550322891
 31
0.0
  0
ARC
  5
1E3
330
1F
100
AcDbEntity
  8
1
  6
CONTINUOUS
 62
     7
100
AcDbCircle
 10
-381.9500000000001
 20
295.0000000000001
 30
0.0
 40
2.670995545698335
100
AcDbArc
 50
8.167756506925402
 51
60.03798296680002
  0
LINE
  5
1E4
330
1F
100
AcDbEntity
  8
1
  6
CONTINUOUS
 62
     7
100
AcDbLine
 10
-448.2000000000002
 20
304.0000000000001
 30
0.0
 11
-448.2000000000002
 21
303.4930631547491
 31
0.0
  0
LWPOLYLINE
  5
1E5
330
1F
100
AcDbEntity
  8
1
  6
CONTINUOUS
 62
     7
100
AcDbPolyline
 90
       33
 70
     0
 43
0.0
 10
448.2000000000002
 20
304.0000000000001
 10
448.1992171994033
 20
304.0490676743275
 10
448.1968706834479
 20
304.0980171403296
 10
448.1929661050963
 20
304.1467304744554
 10
448.1875128708199
 20
304.1950903220162
 10
448.1805241179376
 20
304.2429801799033
 10
448.1720166829674
 20
304.2902846772545
 10
448.1620110610651
 20
304.3368898533923
 10
448.1505313566504
 20
304.3826834323651
 10
448.1376052253368
 20
304.4275550934303
 10
448.1232638073066
 20
304.471396736826
 10
448.1075416522921
 20
304.5141027441933
 10
448.090476636342
 20
304.5555702330196
 10
448.0721098705742
 20
304.5956993044925
 10
448.0524856021363
 20
304.6343932841637
 10
448.0316511076097
 20
304.6715589548471
 10
448.0096565791168
 20
304.7071067811866
 10
447.9865550034032
 20
304.740951125355
 10
447.9624020341881
 20
304.7730104533628
 10
447.9372558580901
 20
304.8032075314807
 10
447.9111770544498
 20
304.8314696123026
 10
447.8842284493895
 20
304.8577286100003
 10
447.856474964459
 20
304.8819212643484
 10
447.8279834602347
 20
304.9039892931235
 10
447.7988225752458
 20
304.9238795325113
 10
447.7690625606183
 20
304.9415440651831
 10
447.7387751108341
 20
304.9569403357323
 10
447.7080331910128
 20
304.9700312531946
 10
447.6769108611317
 20
304.9807852804033
 10
447.6454830976095
 20
304.9891765099648
 10
447.6138256126814
 20
304.9951847266722
 10
447.5820146720013
 20
304.9987954562052
 10
447.5501269109118
 20
305.0000000000001
210
0.0
220
0.0
230
-1.0
  0
LINE
  5
1E6
330
1F
100
AcDbEntity
  8
1
  6
CONTINUOUS
 62
     7
100
AcDbLine
 10
-447.5501269109117
 20
305.0000000000001
 30
0.0
 11
-443.9945713553562
 21
305.0000000000001
 31
0.0
  0
LINE
  5
1E7
330
1F
100
AcDbEntity
  8
1
  6
CONTINUOUS
 62
     7
100
AcDbLine
 10
-400.2000000000002
 20
272.1421922255041
 30
0.0
 11
-400.2000000000002
 21
265.0
 31
0.0
  0
LINE
  5
1E8
330
1F
100
AcDbEntity
  8
1
  6
CONTINUOUS
 62
     7
100
AcDbLine
 10
-400.2000000000002
 20
265.0
 30
0.0
 11
-397.9626310772166
 21
265.0
 31
0.0
  0
LWPOLYLINE
  5
1E9
330
1F
100
AcDbEntity
  8
1
  6
CONTINUOUS
 62
     7
100
AcDbPolyline
 90
        3
 70
     0
 43
0.0
 10
-400.2000000000002
 20
272.1421922255041
 10
-398.9073382196833
 20
272.2541210805451
 10
-397.9626310772167
 20
272.3752255207251
  0
LINE
  5
1EA
330
1F
100
AcDbEntity
  8
1
  6
CONTINUOUS
 62
     7
100
AcDbLine
 10
-438.7000000000003
 20
297.857807774496
 30
0.0
 11
-438.7000000000003
 21
305.0000000000001
 31
0.0
  0
LINE
  5
1EB
330
1F
100
AcDbEntity
  8
1
  6
CONTINUOUS
 62
     7
100
AcDbLine
 10
-438.7000000000003
 20
305.0000000000001
 30
0.0
 11
-440.9373689227838
 21
305.0000000000001
 31
0.0
  0
LWPOLYLINE
  5
1EC
330
1F
100
AcDbEntity
  8
1
  6
CONTINUOUS
 62
     7
100
AcDbPolyline
 90
        3
 70
     0
 43
0.0
 10
-438.7000000000002
 20
297.857807774496
 10
-439.9926617803171
 20
297.7458789194549
 10
-440.9373689227838
 20
297.624774479275
  0
LINE
  5
1ED
330
1F
100
AcDbEntity
  8
1
  6
CONTINUOUS
 62
     7
100
AcDbLine
 10
-445.2000000000002
 20
302.5000000000001
 30
0.0
 11
-444.2000000000002
 21
302.5174550649282
 31
0.0
  0
LINE
  5
1EE
330
1F
100
AcDbEntity
  8
1
  6
CONTINUOUS
 62
     7
100
AcDbLine
 10
-447.1134390915506
 20
302.5000000000001
 30
0.0
 11
-445.2000000000002
 21
302.5000000000001
 31
0.0
  0
ARC
  5
1EF
330
1F
100
AcDbEntity
  8
1
  6
CONTINUOUS
 62
     7
100
AcDbCircle
 10
-456.95
 20
295.0000000000001
 30
0.0
 40
8.069820259712879
100
AcDbArc
 50
187.5424085703126
 51
172.4575914296873
  0
ARC
  5
1F0
330
1F
100
AcDbEntity
  8
1
  6
CONTINUOUS
 62
     7
100
AcDbCircle
 10
-456.95
 20
295.0000000000001
 30
0.0
 40
8.069820259712886
100
AcDbArc
 50
172.4575914296873
 51
187.5424085703127
  0
LINE
  5
1F1
330
1F
100
AcDbEntity
  8
1
  6
CONTINUOUS
 62
     7
100
AcDbLine
 10
-392.45
 20
265.0
 30
0.0
 11
-395.7000000000002
 21
265.0
 31
0.0
  0
LINE
  5
1F2
330
1F
100
AcDbEntity
  8
1
  6
CONTINUOUS
 62
     7
100
AcDbLine
 10
-392.4500000000002
 20
267.4883536904808
 30
0.0
 11
-392.6313419800036
 21
267.5
 31
0.0
  0
LINE
  5
1F3
330
1F
100
AcDbEntity
  8
1
  6
CONTINUOUS
 62
     7
100
AcDbLine
 10
-391.699091353903
 20
267.3070325419989
 30
0.0
 11
-392.45
 21
267.4883536904808
 31
0.0
  0
LWPOLYLINE
  5
1F4
330
1F
100
AcDbEntity
  8
1
  6
CONTINUOUS
 62
     7
100
AcDbPolyline
 90
        5
 70
     0
 43
0.0
 10
448.7857864376271
 20
265.0
 10
448.8864321235309
 20
265.0299687468055
 10
448.9628855559876
 20
265.0960107068766
 10
449.0325331686441
 20
265.1967924685194
 10
449.0786796564406
 20
265.2928932188135
210
0.0
220
0.0
230
-1.0
  0
ARC
  5
1F5
330
1F
100
AcDbEntity
  8
1
  6
CONTINUOUS
 62
     7
100
AcDbCircle
 10
-447.2476834677283
 20
265.9710035301686
 30
0.0
 40
1.952531853119095
100
AcDbArc
 50
179.149086140092
 51
200.3221344944039
  0
LINE
  5
1F6
330
1F
100
AcDbEntity
  8
1
  6
CONTINUOUS
 62
     7
100
AcDbLine
 10
-443.2000000000002
 20
265.0
 30
0.0
 11
-448.7857864376271
 21
265.0
 31
0.0
  0
LINE
  5
1F7
330
1F
100
AcDbEntity
  8
1
  6
CONTINUOUS
 62
     7
100
AcDbLine
 10
-449.2000000000002
 20
266.0
 30
0.0
 11
-449.2000000000002
 21
266.5121902667329
 31
0.0
  0
LWPOLYLINE
  5
1F8
330
1F
100
AcDbEntity
  8
1
  6
CONTINUOUS
 62
     7
100
AcDbPolyline
 90
        9
 70
     0
 43
0.0
 10
-447.8032388440644
 20
267.5
 10
-448.076647250912
 20
267.4810821839159
 10
-448.339052431116
 20
267.4250443941797
 10
-448.5805276309223
 20
267.3340065330707
 10
-448.7919378750062
 20
267.211412551005
 10
-448.9652855413979
 20
267.0619001623401
 10
-449.0940129104793
 20
266.8911254012455
 10
-449.1732502426619
 20
266.7055486546673
 10
-449.2000000000002
 20
266.5121902667329
  0
LINE
  5
1F9
330
1F
100
AcDbEntity
  8
1
  6
CONTINUOUS
 62
     7
100
AcDbLine
 10
-447.8032388440644
 20
267.5
 30
0.0
 11
-444.2000000000002
 21
267.437105232025
 31
0.0
  0
LINE
  5
1FA
330
1F
100
AcDbEntity
  8
1
  6
CONTINUOUS
 62
     7
100
AcDbLine
 10
-394.7000000000002
 20
302.5872753246412
 30
0.0
 11
-389.7000000000002
 21
302.5000000000001
 31
0.0
  0
LINE
  5
1FB
330
1F
100
AcDbEntity
  8
1
  6
CONTINUOUS
 62
     7
100
AcDbLine
 10
-389.7000000000002
 20
304.0000000000001
 30
0.0
 11
-389.7000000000002
 21
302.5000000000001
 31
0.0
  0
ARC
  5
1FC
330
1F
100
AcDbEntity
  8
1
  6
CONTINUOUS
 62
     7
100
AcDbCircle
 10
-391.5048949409684
 20
304.0477452155002
 30
0.0
 40
1.805526336982028
100
AcDbArc
 50
358.4846976695278
 51
23.68398768535735
  0
LWPOLYLINE
  5
1FD
330
1F
100
AcDbEntity
  8
1
  6
CONTINUOUS
 62
     7
100
AcDbPolyline
 90
        5
 70
     0
 43
0.0
 10
-389.8514392601943
 20
304.7730104533628
 10
-389.9189546407216
 20
304.8819212643484
 10
-389.9939737121054
 20
304.9569403357322
 10
-390.0938890661928
 20
304.9987954562052
 10
-390.1142135623733
 20
305.0000000000001
  0
LINE
  5
1FE
330
1F
100
AcDbEntity
  8
1
  6
CONTINUOUS
 62
     7
100
AcDbLine
 10
-395.7000000000002
 20
305.0000000000001
 30
0.0
 11
-390.1142135623733
 21
305.0000000000001
 31
0.0
  0
LINE
  5
1FF
330
1F
100
AcDbEntity
  8
1
  6
CONTINUOUS
 62
     7
100
AcDbLine
 10
-388.3990020722885
 20
294.5441560814793
 30
0.0
 11
-388.4055838521052
 21
294.5144336208079
 31
0.0
  0
LINE
  5
200
330
1F
100
AcDbEntity
  8
1
  6
CONTINUOUS
 62
     7
100
AcDbLine
 10
-386.858134397785
 20
290.7785601611011
 30
0.0
 11
-386.83246342315
 21
290.7621972287475
 31
0.0
  0
LINE
  5
201
330
1F
100
AcDbEntity
  8
1
  6
CONTINUOUS
 62
     7
100
AcDbLine
 10
-386.8581343977845
 20
290.7785601611016
 30
0.0
 11
-388.4055838521045
 21
294.5144336208078
 31
0.0
  0
ARC
  5
202
330
1F
100
AcDbEntity
  8
1
  6
CONTINUOUS
 62
     7
100
AcDbCircle
 10
-381.9500000000001
 20
295.0000000000001
 30
0.0
 40
6.465092528836972
100
AcDbArc
 50
175.9568062262309
 51
184.0431937737691
  0
LINE
  5
203
330
1F
100
AcDbEntity
  8
1
  6
CONTINUOUS
 62
     7
100
AcDbLine
 10
-386.8324634231496
 20
299.237802771252
 30
0.0
 11
-388.3990020722878
 21
295.4558439185209
 31
0.0
  0
ARC
  5
204
330
1F
100
AcDbEntity
  8
1
  6
CONTINUOUS
 62
     7
100
AcDbCircle
 10
-381.9500000000001
 20
295.0000000000001
 30
0.0
 40
6.465092528836933
100
AcDbArc
 50
130.9568062262311
 51
139.0431937737692
  0
ARC
  5
205
330
1F
100
AcDbEntity
  8
1
  6
CONTINUOUS
 62
     7
100
AcDbCircle
 10
-381.9500000000001
 20
295.0000000000001
 30
0.0
 40
6.465092528836972
100
AcDbArc
 50
85.956806226231
 51
94.04319377376896
  0
LINE
  5
206
330
1F
100
AcDbEntity
  8
1
  6
CONTINUOUS
 62
     7
100
AcDbLine
 10
-377.7121972287481
 20
299.8824634231494
 30
0.0
 11
-381.4941560814793
 21
301.4490020722877
 31
0.0
  0
ARC
  5
207
330
1F
100
AcDbEntity
  8
1
  6
CONTINUOUS
 62
     7
100
AcDbCircle
 10
-381.9500000000001
 20
295.0000000000001
 30
0.0
 40
6.465092528836974
100
AcDbArc
 50
40.95680622623123
 51
49.04319377376879
  0
LINE
  5
208
330
1F
100
AcDbEntity
  8
1
  6
CONTINUOUS
 62
     7
100
AcDbLine
 10
-375.5009979277124
 20
295.4558439185208
 30
0.0
 11
-377.0675365768507
 21
299.2378027712521
 31
0.0
  0
ARC
  5
209
330
1F
100
AcDbEntity
  8
1
  6
CONTINUOUS
 62
     7
100
AcDbCircle
 10
-381.9500000000001
 20
295.0000000000001
 30
0.0
 40
6.465092528836972
100
AcDbArc
 50
355.9568062262309
 51
4.043193773768735
  0
ARC
  5
20A
330
1F
100
AcDbEntity
  8
1
  6
CONTINUOUS
 62
     7
100
AcDbCircle
 10
-381.9500000000001
 20
295.0000000000001
 30
0.0
 40
6.465092528836974
100
AcDbArc
 50
310.9568062262311
 51
319.0431937737691
  0
ARC
  5
20B
330
1F
100
AcDbEntity
  8
1
  6
CONTINUOUS
 62
     7
100
AcDbCircle
 10
-381.9500000000001
 20
295.0000000000001
 30
0.0
 40
6.465092528836972
100
AcDbArc
 50
265.9568062262309
 51
274.0431937737691
  0
ARC
  5
20C
330
1F
100
AcDbEntity
  8
1
  6
CONTINUOUS
 62
     7
100
AcDbCircle
 10
-381.9500000000001
 20
295.0000000000001
 30
0.0
 40
6.465092528836974
100
AcDbArc
 50
220.9568062262311
 51
229.0431937737689
  0
LINE
  5
20D
330
1F
100
AcDbEntity
  8
1
  6
CONTINUOUS
 62
     7
100
AcDbLine
 10
-381.4941560814794
 20
288.5509979277116
 30
0.0
 11
-381.4644336208081
 21
288.5444161478949
 31
0.0
  0
LINE
  5
20E
330
1F
100
AcDbEntity
  8
1
  6
CONTINUOUS
 62
     7
100
AcDbLine
 10
-377.7285601611011
 20
290.0918656022152
 30
0.0
 11
-377.7121972287476
 21
290.1175365768502
 31
0.0
  0
LINE
  5
20F
330
1F
100
AcDbEntity
  8
1
  6
CONTINUOUS
 62
     7
100
AcDbLine
 10
-377.7285601611017
 20
290.0918656022156
 30
0.0
 11
-381.4644336208079
 21
288.5444161478956
 31
0.0
  0
LINE
  5
210
330
1F
100
AcDbEntity
  8
1
  6
CONTINUOUS
 62
     7
100
AcDbLine
 10
-386.1878027712526
 20
290.1175365768502
 30
0.0
 11
-386.1714398388991
 21
290.0918656022152
 31
0.0
  0
ARC
  5
211
330
1F
100
AcDbEntity
  8
1
  6
CONTINUOUS
 62
     7
100
AcDbCircle
 10
-381.9500000000001
 20
295.0000000000001
 30
0.0
 40
6.473819396627717
100
AcDbArc
 50
229.3014878955366
 51
265.6985121044632
  0
LINE
  5
212
330
1F
100
AcDbEntity
  8
1
  6
CONTINUOUS
 62
     7
100
AcDbLine
 10
-382.4355663791922
 20
288.5444161478949
 30
0.0
 11
-382.4058439185209
 21
288.5509979277116
 31
0.0
  0
ARC
  5
213
330
1F
100
AcDbEntity
  8
1
  6
CONTINUOUS
 62
     7
100
AcDbCircle
 10
-381.9500000000001
 20
295.0000000000001
 30
0.0
 40
6.473819396627701
100
AcDbArc
 50
274.3014878955366
 51
310.6985121044634
  0
LINE
  5
214
330
1F
100
AcDbEntity
  8
1
  6
CONTINUOUS
 62
     7
100
AcDbLine
 10
-377.0675365768504
 20
290.7621972287477
 30
0.0
 11
-377.0418656022155
 21
290.7785601611013
 31
0.0
  0
ARC
  5
215
330
1F
100
AcDbEntity
  8
1
  6
CONTINUOUS
 62
     7
100
AcDbCircle
 10
-381.9500000000001
 20
295.0000000000001
 30
0.0
 40
6.473819396627717
100
AcDbArc
 50
319.3014878955368
 51
355.6985121044634
  0
LINE
  5
216
330
1F
100
AcDbEntity
  8
1
  6
CONTINUOUS
 62
     7
100
AcDbLine
 10
-375.4944161478953
 20
294.5144336208079
 30
0.0
 11
-375.500997927712
 21
294.5441560814792
 31
0.0
  0
LINE
  5
217
330
1F
100
AcDbEntity
  8
1
  6
CONTINUOUS
 62
     7
100
AcDbLine
 10
-375.5009979277114
 20
295.4558439185207
 30
0.0
 11
-375.4944161478948
 21
295.4855663791921
 31
0.0
  0
ARC
  5
218
330
1F
100
AcDbEntity
  8
1
  6
CONTINUOUS
 62
     7
100
AcDbCircle
 10
-381.9500000000001
 20
295.0000000000001
 30
0.0
 40
6.473819396627701
100
AcDbArc
 50
4.301487895536525
 51
40.69851210446349
  0
LINE
  5
219
330
1F
100
AcDbEntity
  8
1
  6
CONTINUOUS
 62
     7
100
AcDbLine
 10
-377.0418656022151
 20
299.2214398388992
 30
0.0
 11
-377.06753657685
 21
299.2378027712528
 31
0.0
  0
LINE
  5
21A
330
1F
100
AcDbEntity
  8
1
  6
CONTINUOUS
 62
     7
100
AcDbLine
 10
-377.7121972287478
 20
299.8824634231497
 30
0.0
 11
-377.7285601611014
 21
299.9081343977846
 31
0.0
  0
ARC
  5
21B
330
1F
100
AcDbEntity
  8
1
  6
CONTINUOUS
 62
     7
100
AcDbCircle
 10
-381.9500000000001
 20
295.0000000000001
 30
0.0
 40
6.473819396627717
100
AcDbArc
 50
49.30148789553658
 51
85.6985121044633
  0
LINE
  5
21C
330
1F
100
AcDbEntity
  8
1
  6
CONTINUOUS
 62
     7
100
AcDbLine
 10
-381.4644336208081
 20
301.4555838521048
 30
0.0
 11
-381.4941560814794
 21
301.4490020722881
 31
0.0
  0
LINE
  5
21D
330
1F
100
AcDbEntity
  8
1
  6
CONTINUOUS
 62
     7
100
AcDbLine
 10
-382.4058439185209
 20
301.4490020722885
 30
0.0
 11
-382.4355663791922
 21
301.4555838521051
 31
0.0
  0
ARC
  5
21E
330
1F
100
AcDbEntity
  8
1
  6
CONTINUOUS
 62
     7
100
AcDbCircle
 10
-381.9500000000001
 20
295.0000000000001
 30
0.0
 40
6.473819396627701
100
AcDbArc
 50
94.30148789553665
 51
130.6985121044634
  0
LINE
  5
21F
330
1F
100
AcDbEntity
  8
1
  6
CONTINUOUS
 62
     7
100
AcDbLine
 10
-386.1714398388991
 20
299.9081343977849
 30
0.0
 11
-386.1878027712527
 21
299.8824634231499
 31
0.0
  0
LINE
  5
220
330
1F
100
AcDbEntity
  8
1
  6
CONTINUOUS
 62
     7
100
AcDbLine
 10
-386.8324634231498
 20
299.2378027712523
 30
0.0
 11
-386.8581343977848
 21
299.2214398388987
 31
0.0
  0
ARC
  5
221
330
1F
100
AcDbEntity
  8
1
  6
CONTINUOUS
 62
     7
100
AcDbCircle
 10
-381.9500000000001
 20
295.0000000000001
 30
0.0
 40
6.473819396627717
100
AcDbArc
 50
139.3014878955369
 51
175.698512104463
  0
LINE
  5
222
330
1F
100
AcDbEntity
  8
1
  6
CONTINUOUS
 62
     7
100
AcDbLine
 10
-388.405583852105
 20
295.4855663791921
 30
0.0
 11
-388.3990020722882
 21
295.4558439185208
 31
0.0
  0
ARC
  5
223
330
1F
100
AcDbEntity
  8
1
  6
CONTINUOUS
 62
     7
100
AcDbCircle
 10
-381.9500000000001
 20
295.0000000000001
 30
0.0
 40
6.473819396627701
100
AcDbArc
 50
184.3014878955368
 51
220.6985121044634
  0
LINE
  5
224
330
1F
100
AcDbEntity
  8
1
  6
CONTINUOUS
 62
     7
100
AcDbLine
 10
-382.4355663791923
 20
288.5444161478956
 30
0.0
 11
-386.1714398388986
 21
290.0918656022156
 31
0.0
  0
LINE
  5
225
330
1F
100
AcDbEntity
  8
1
  6
CONTINUOUS
 62
     7
100
AcDbLine
 10
-375.4944161478957
 20
294.5144336208078
 30
0.0
 11
-377.0418656022158
 21
290.7785601611016
 31
0.0
  0
CIRCLE
  5
226
330
1F
100
AcDbEntity
  8
1
  6
CONTINUOUS
 62
     7
100
AcDbCircle
 10
-381.9500000000001
 20
295.0000000000001
 30
0.0
 40
5.249999999999977
  0
LINE
  5
227
330
1F
100
AcDbEntity
  8
1
  6
CONTINUOUS
 62
     7
100
AcDbLine
 10
-386.1714398388986
 20
299.9081343977844
 30
0.0
 11
-382.4355663791923
 21
301.4555838521044
 31
0.0
  0
LINE
  5
228
330
1F
100
AcDbEntity
  8
1
  6
CONTINUOUS
 62
     7
100
AcDbLine
 10
-444.2000000000002
 20
267.4825449350718
 30
0.0
 11
-445.2000000000002
 21
267.5
 31
0.0
  0
LINE
  5
229
330
1F
100
AcDbEntity
  8
1
  6
CONTINUOUS
 62
     7
100
AcDbLine
 10
-447.8032388440644
 20
267.5
 30
0.0
 11
-445.2000000000002
 21
267.5
 31
0.0
  0
LINE
  5
22A
330
1F
100
AcDbEntity
  8
1
  6
CONTINUOUS
 62
     7
100
AcDbLine
 10
-393.7000000000002
 20
267.5
 30
0.0
 11
-394.7000000000002
 21
267.4825449350718
 31
0.0
  0
LINE
  5
22B
330
1F
100
AcDbEntity
  8
1
  6
CONTINUOUS
 62
     7
100
AcDbLine
 10
-392.6313419800036
 20
267.5
 30
0.0
 11
-393.7000000000002
 21
267.5
 31
0.0
  0
CIRCLE
  5
22C
330
1F
100
AcDbEntity
  8
1
  6
CONTINUOUS
 62
     7
100
AcDbCircle
 10
-456.95
 20
273.5
 30
0.0
 40
6.473819396627722
  0
CIRCLE
  5
22D
330
1F
100
AcDbEntity
  8
1
  6
CONTINUOUS
 62
     7
100
AcDbCircle
 10
-456.95
 20
273.5
 30
0.0
 40
5.526180603372232
  0
LINE
  5
22E
330
1F
100
AcDbEntity
  8
1
  6
CONTINUOUS
 62
     7
100
AcDbLine
 10
-465.9500000000001
 20
279.732976816899
 30
0.0
 11
-465.9426022003013
 21
279.7373667294598
 31
0.0
  0
LINE
  5
22F
330
1F
100
AcDbEntity
  8
1
  6
CONTINUOUS
 62
     7
100
AcDbLine
 10
-464.5131067961166
 20
279.2488621126739
 30
0.0
 11
-464.516543692979
 21
279.25656403282
 31
0.0
  0
ARC
  5
230
330
1F
100
AcDbEntity
  8
1
  6
CONTINUOUS
 62
     7
100
AcDbCircle
 10
-456.95
 20
273.5
 30
0.0
 40
9.500000000000009
100
AcDbArc
 50
90.0
 51
142.7608398828688
  0
LINE
  5
231
330
1F
100
AcDbEntity
  8
1
  6
CONTINUOUS
 62
     7
100
AcDbLine
 10
-444.8078643762692
 20
290.5000000000001
 30
0.0
 11
-444.9385762508462
 21
290.4826120655812
 31
0.0
  0
LINE
  5
232
330
1F
100
AcDbEntity
  8
1
  6
CONTINUOUS
 62
     7
100
AcDbLine
 10
-444.8078643762692
 20
290.5000000000001
 30
0.0
 11
-444.7000000000001
 21
290.5000000000001
 31
0.0
  0
LINE
  5
233
330
1F
100
AcDbEntity
  8
1
  6
CONTINUOUS
 62
     7
100
AcDbLine
 10
-465.9500000000001
 20
279.732976816899
 30
0.0
 11
-465.9500000000001
 21
293.9407554465222
 31
0.0
  0
ARC
  5
234
330
1F
100
AcDbEntity
  8
1
  6
CONTINUOUS
 62
     7
100
AcDbCircle
 10
-458.95
 20
295.0000000000001
 30
0.0
 40
14.49999999999996
100
AcDbArc
 50
312.5368983629861
 51
340.5287793655093
  0
ARC
  5
235
330
1F
100
AcDbEntity
  8
1
  6
CONTINUOUS
 62
     7
100
AcDbCircle
 10
-452.5273837106676
 20
288.0
 30
0.0
 40
5.000000000000034
100
AcDbArc
 50
270.0
 51
312.5368983629862
  0
LINE
  5
236
330
1F
100
AcDbEntity
  8
1
  6
CONTINUOUS
 62
     7
100
AcDbLine
 10
-452.5273837106675
 20
283.0
 30
0.0
 11
-456.95
 21
283.0
 31
0.0
  0
ARC
  5
237
330
1F
100
AcDbEntity
  8
1
  6
CONTINUOUS
 62
     7
100
AcDbCircle
 10
-444.8078643762692
 20
290.0000000000001
 30
0.0
 40
0.499999999999979
100
AcDbArc
 50
105.1545591609366
 51
160.5287793655093
  0
ARC
  5
238
330
1F
100
AcDbEntity
  8
1
  6
CONTINUOUS
 62
     7
100
AcDbCircle
 10
-457.9500000000001
 20
297.0000000000001
 30
0.0
 40
7.999999999999951
100
AcDbArc
 50
89.9999999999999
 51
179.9999999999999
  0
LINE
  5
239
330
1F
100
AcDbEntity
  8
1
  6
CONTINUOUS
 62
     7
100
AcDbLine
 10
-465.9500000000001
 20
296.0592445534778
 30
0.0
 11
-465.9500000000001
 21
297.0000000000001
 31
0.0
  0
LINE
  5
23A
330
1F
100
AcDbEntity
  8
1
  6
CONTINUOUS
 62
     7
100
AcDbLine
 10
-457.95
 20
305.0000000000001
 30
0.0
 11
-447.5501269109117
 21
305.0000000000001
 31
0.0
  0
LINE
  5
23B
330
1F
100
AcDbEntity
  8
1
  6
CONTINUOUS
 62
     7
100
AcDbLine
 10
-465.9500000000001
 20
293.9407554465222
 30
0.0
 11
-465.9500000000001
 21
296.0592445534778
 31
0.0
  0
LINE
  5
23C
330
1F
100
AcDbEntity
  8
1
  6
CONTINUOUS
 62
     7
100
AcDbLine
 10
-465.9500000000001
 20
279.732976816899
 30
0.0
 11
-465.9500000000001
 21
279.7198435473384
 31
0.0
  0
LINE
  5
23D
330
1F
100
AcDbEntity
  8
1
  6
CONTINUOUS
 62
     7
100
AcDbLine
 10
-465.9500000000001
 20
279.7198435473384
 30
0.0
 11
-465.9500000000001
 21
277.6231056256177
 31
0.0
  0
LINE
  5
23E
330
1F
100
AcDbEntity
  8
1
  6
CONTINUOUS
 62
     7
100
AcDbLine
 10
-391.45
 20
266.7815333846859
 30
0.0
 11
-391.45
 21
266.0
 31
0.0
  0
ARC
  5
23F
330
1F
100
AcDbEntity
  8
1
  6
CONTINUOUS
 62
     7
100
AcDbCircle
 10
-392.45
 20
266.0
 30
0.0
 40
1.000000000000001
100
AcDbArc
 50
270.0
 51
0.0
  0
LINE
  5
240
330
1F
100
AcDbEntity
  8
1
  6
CONTINUOUS
 62
     7
100
AcDbLine
 10
-465.9500000000001
 20
273.0
 30
0.0
 11
-465.9500000000001
 21
277.6231056256177
 31
0.0
  0
ARC
  5
241
330
1F
100
AcDbEntity
  8
1
  6
CONTINUOUS
 62
     7
100
AcDbCircle
 10
-457.9500000000001
 20
273.0
 30
0.0
 40
8.000000000000007
100
AcDbArc
 50
180.0
 51
270.0
  0
LINE
  5
242
330
1F
100
AcDbEntity
  8
1
  6
CONTINUOUS
 62
     7
100
AcDbLine
 10
-448.7857864376271
 20
265.0
 30
0.0
 11
-457.95
 21
265.0
 31
0.0
  0
LINE
  5
243
330
1F
100
AcDbEntity
  8
1
  6
CONTINUOUS
 62
     7
100
AcDbLine
 10
-391.4500000000001
 20
278.5000000000001
 30
0.0
 11
-391.45
 21
267.0164140472831
 31
0.0
  0
LWPOLYLINE
  5
244
330
1F
100
AcDbEntity
  8
1
  6
CONTINUOUS
 62
     7
100
AcDbPolyline
 90
       22
 70
     0
 43
0.0
 10
391.699091353903
 20
267.3070325419989
 10
391.6789401051292
 20
267.3035767097148
 10
391.6595700479046
 20
267.2991759495015
 10
391.6409438644231
 20
267.2938422993032
 10
391.6231582146947
 20
267.2876243619395
 10
391.6059422079984
 20
267.2804248780234
 10
391.5896320463991
 20
267.2723820188845
 10
391.5741914608066
 20
267.2635028515171
 10
391.5596812184472
 20
267.2538482230643
 10
391.5432059398883
 20
267.2410398592149
 10
391.528122183599
 20
267.2271847136815
 10
391.5143754330954
 20
267.2122853125633
 10
391.5020168035446
 20
267.196453352353
 10
391.4908466639329
 20
267.1794380637461
 10
391.4810811843971
 20
267.1615740360389
 10
391.4726744763265
 20
267.142857070439
 10
391.465634897493
 20
267.1233945728619
 10
391.4589052266012
 20
267.0989091652019
 10
391.4540908854497
 20
267.0734784536648
 10
391.4511367081382
 20
267.047083274773
 10
391.4500140179524
 20
267.0198831575091
 10
391.45
 20
267.0164140472831
210
0.0
220
0.0
230
-1.0
  0
LINE
  5
245
330
1F
100
AcDbEntity
  8
1
  6
CONTINUOUS
 62
     7
100
AcDbLine
 10
-390.1142135623733
 20
305.0000000000001
 30
0.0
 11
-383.9500000000001
 21
305.0000000000001
 31
0.0
  0
ARC
  5
246
330
1F
100
AcDbEntity
  8
1
  6
CONTINUOUS
 62
     7
100
AcDbCircle
 10
-384.9500000000001
 20
278.5
 30
0.0
 40
6.500000000000005
100
AcDbArc
 50
90.00000000000006
 51
179.9999999999996
  0
ARC
  5
247
330
1F
100
AcDbEntity
  8
1
  6
CONTINUOUS
 62
     7
100
AcDbCircle
 10
-383.9500000000001
 20
295.0000000000001
 30
0.0
 40
10.00000000000001
100
AcDbArc
 50
269.9999999999999
 51
89.99999999999994
  0
LINE
  5
248
330
1F
100
AcDbEntity
  8
1
  6
CONTINUOUS
 62
     7
100
AcDbLine
 10
-383.9500000000001
 20
285.0
 30
0.0
 11
-384.9500000000001
 21
285.0
 31
0.0
  0
LINE
  5
249
330
1F
100
AcDbEntity
  8
1
  6
CONTINUOUS
 62
     7
100
AcDbLine
 10
-391.45
 20
267.0164140472831
 30
0.0
 11
-391.45
 21
266.7815333846859
 31
0.0
  0
LWPOLYLINE
  5
24A
330
1F
100
AcDbEntity
  8
1
  6
CONTINUOUS
 62
     7
100
AcDbPolyline
 90
       19
 70
     0
 43
0.0
 10
444.7
 20
290.5000000000001
 10
444.6791877180079
 20
290.4996146669444
 10
444.6593586840451
 20
290.4985405674784
 10
444.6403898718341
 20
290.4968788203351
 10
444.6221550985828
 20
290.4947030554162
 10
444.6045289082114
 20
290.4920614488306
 10
444.5873898781865
 20
290.488978913782
 10
444.5486473335442
 20
290.480072648214
 10
444.5121709190429
 20
290.46904059748
 10
444.4591860783232
 20
290.4475043802547
 10
444.4089729168469
 20
290.4194922941409
 10
444.3615712552735
 20
290.3839444003134
 10
444.323482038934
 20
290.3465460882101
 10
444.2890209544917
 20
290.3029657582744
 10
444.2591430414086
 20
290.2535224110952
 10
444.2345067365832
 20
290.1982263845908
 10
444.2158716899339
 20
290.1372064759326
 10
444.2040789124861
 20
290.070771626361
 10
444.2000000000002
 20
290.0000000000001
210
0.0
220
0.0
230
-1.0
  0
LWPOLYLINE
  5
24B
330
1F
100
AcDbEntity
  8
1
  6
CONTINUOUS
 62
     7
100
AcDbPolyline
 90
       13
 70
     0
 43
0.0
 10
-465.9426022003014
 20
279.7373667294597
 10
-465.9194584540771
 20
279.584840445827
 10
-465.8643248699865
 20
279.438643193835
 10
-465.7794891992938
 20
279.304841383886
 10
-465.6684716722917
 20
279.1889870812934
 10
-465.5358789274185
 20
279.0958876250244
 10
-465.3872128602013
 20
279.0294061486349
 10
-465.2286423237771
 20
278.9923012807204
 10
-465.0667471542138
 20
278.9861126764632
 10
-464.9082451422176
 20
279.0110971301106
 10
-464.7597132804559
 20
279.0662179193749
 10
-464.6273148532517
 20
279.1491878239097
 10
-464.5165436929791
 20
279.2565640328201
  0
MTEXT
  5
24C
330
1F
100
AcDbEntity
  8
1
 62
     7
100
AcDbMText
 10
-404.1010691509317
 20
206.1590909090909
 30
0.0
 40
3.0
 41
0.0
 71
     1
 72
     1
  1
{\fＭＳ ゴシック;ＧＧＴ－ＶＯ１３}
  0
LINE
  5
24D
330
1F
100
AcDbEntity
  8
0
  6
CENTER
 62
     1
100
AcDbLine
 10
-419.9500000000001
 20
264.732976816899
 30
0.0
 11
-419.9500000000001
 21
303.9407554465222
 31
0.0
  0
LINE
  5
24F
330
1F
100
AcDbEntity
  8
0
  6
CENTER
 62
     1
100
AcDbLine
 10
-419.9500000000001
 20
260.1
 30
0.0
 11
-419.9500000000001
 21
213.6145246360307
 31
0.0
  0
LINE
  5
250
330
1F
100
AcDbEntity
  8
0
  6
CENTER
 62
     1
100
AcDbLine
 10
-340.0000000000001
 20
212.6
 30
0.0
 11
-340.0000000000001
 21
259.3035599320188
 31
0.0
  0
ENDSEC
  0
SECTION
  2
OBJECTS
  0
DICTIONARY
  5
C
330
0
100
AcDbDictionary
  3
ACAD_GROUP
350
D
  3
ACAD_LAYOUT
350
1A
  3
ACAD_MATERIAL
350
43
  3
ACAD_MLEADERSTYLE
350
6B
  3
ACAD_MLINESTYLE
350
17
  3
ACAD_PLOTSETTINGS
350
19
  3
ACAD_SCALELIST
350
47
  3
ACAD_VISUALSTYLE
350
2A
  3
ACDBHEADERROUNDTRIPXREC
350
251
  3
ACDBVARIABLEDICTIONARY
350
272
  0
DICTIONARY
  5
279
330
8
100
AcDbDictionary
280
     1
  3
ACAD_XREC_ROUNDTRIP
360
27A
  0
DICTIONARY
  5
D
102
{ACAD_REACTORS
330
C
102
}
330
C
100
AcDbDictionary
  0
DICTIONARY
  5
1A
102
{ACAD_REACTORS
330
C
102
}
330
C
100
AcDbDictionary
  0
DICTIONARY
  5
43
102
{ACAD_REACTORS
330
C
102
}
330
C
100
AcDbDictionary
  3
BYBLOCK
350
45
  3
BYLAYER
350
44
  3
GLOBAL
350
46
  0
DICTIONARY
  5
6B
102
{ACAD_REACTORS
330
C
102
}
330
C
100
AcDbDictionary
  3
STANDARD
350
6C
  0
DICTIONARY
  5
17
102
{ACAD_REACTORS
330
C
102
}
330
C
100
AcDbDictionary
  3
STANDARD
350
18
  0
DICTIONARY
  5
19
102
{ACAD_REACTORS
330
C
102
}
330
C
100
AcDbDictionary
  0
DICTIONARY
  5
47
102
{ACAD_REACTORS
330
C
102
}
330
C
100
AcDbDictionary
  3
A0
350
48
  3
A1
350
49
  3
A2
350
4A
  3
A3
350
4B
  3
A4
350
4C
  3
A5
350
4D
  3
A6
350
4E
  3
A7
350
4F
  3
A8
350
50
  3
A9
350
51
  3
B0
350
52
  3
B1
350
53
  3
B2
350
54
  3
B3
350
55
  3
B4
350
56
  3
B5
350
57
  3
B6
350
58
  3
B7
350
59
  3
B8
350
5A
  3
B9
350
5B
  3
C0
350
5C
  3
C1
350
5D
  3
C2
350
5E
  3
C3
350
5F
  3
C4
350
60
  3
C5
350
61
  3
C6
350
62
  3
C7
350
63
  3
C8
350
64
  3
C9
350
65
  3
D0
350
66
  3
D1
350
67
  3
D2
350
68
  0
DICTIONARY
  5
2A
102
{ACAD_REACTORS
330
C
102
}
330
C
100
AcDbDictionary
  3
2DWIREFRAME
350
2F
  3
BASIC
350
32
  3
BRIGHTEN
350
36
  3
COLORCHANGE
350
3A
  3
CONCEPTUAL
350
34
  3
DIM
350
35
  3
EDGECOLOROFF
350
3D
  3
FACEPATTERN
350
39
  3
FLAT
350
2B
  3
FLATWITHEDGES
350
2C
  3
GOURAUD
350
2D
  3
GOURAUDWITHEDGES
350
2E
  3
HIDDEN
350
31
  3
JITTEROFF
350
3B
  3
LINEPATTERN
350
38
  3
OVERHANGOFF
350
3C
  3
REALISTIC
350
33
  3
SHADED
350
42
  3
SHADED_WITH_EDGES
350
41
  3
SHADES_OF_GRAY
350
3E
  3
SKETCHY
350
3F
  3
THICKEN
350
37
  3
WIREFRAME
350
30
  3
X-RAY
350
40
  0
DICTIONARY
  5
251
102
{ACAD_REACTORS
330
C
102
}
330
C
100
AcDbDictionary
  3
CEPSNID
350
25B
  3
CEPSNTYPE
350
25A
  3
DIMSTYLEDATA
350
271
  3
FINGERPRINTGUID
350
25C
  3
HYPERLINKBASE
350
254
  3
INSUNITS
350
259
  3
LAYOUTDICT
350
256
  3
LWETCUNION
350
258
  3
PLOTSETDICT
350
257
  3
PSVPSCALE
350
25E
  3
PUCSBASE
350
261
  3
PUCSORGBACK
350
267
  3
PUCSORGBOTTOM
350
263
  3
PUCSORGFRONT
350
266
  3
PUCSORGLEFT
350
264
  3
PUCSORGRIGHT
350
265
  3
PUCSORGTOP
350
262
  3
PUCSORTHOREF
350
25F
  3
PUCSORTHOVIEW
350
260
  3
STYLESHEET
350
255
  3
TSTACKALIGN
350
252
  3
TSTACKSIZE
350
253
  3
UCSBASE
350
26A
  3
UCSORGBACK
350
270
  3
UCSORGBOTTOM
350
26C
  3
UCSORGFRONT
350
26F
  3
UCSORGLEFT
350
26D
  3
UCSORGRIGHT
350
26E
  3
UCSORGTOP
350
26B
  3
UCSORTHOREF
350
268
  3
UCSORTHOVIEW
350
269
  3
VERSIONGUID
350
25D
  0
DICTIONARY
  5
272
102
{ACAD_REACTORS
330
C
102
}
330
C
100
AcDbDictionary
  3
CANNOSCALE
350
27B
  3
CMLEADERSTYLE
350
274
  3
CTABLESTYLE
350
273
  3
DIMASSOC
350
277
  3
HIDETEXT
350
278
  3
MSLTSCALE
350
27C
  0
XRECORD
  5
27A
102
{ACAD_REACTORS
330
279
102
}
330
279
100
AcDbXrecord
102
VTR_0.000_0.000_1.000_1.000_VISUALSTYLE
340
2F
102
VTR_0.000_0.000_1.000_1.000_GRIDDISPLAY
 70
     3
102
VTR_0.000_0.000_1.000_1.000_GRIDMAJOR
 70
     5
102
VTR_0.000_0.000_1.000_1.000_DEFAULTLIGHTING
280
     1
102
VTR_0.000_0.000_1.000_1.000_DEFAULTLIGHTINGTYPE
 70
     1
102
VTR_0.000_0.000_1.000_1.000_BRIGHTNESS
141
0.0
102
VTR_0.000_0.000_1.000_1.000_CONTRAST
142
0.0
  0
MATERIAL
  5
45
102
{ACAD_REACTORS
330
43
102
}
102
{ACAD_XDICTIONARY
360
27F
102
}
330
43
100
AcDbMaterial
  1
BYBLOCK
  0
MATERIAL
  5
44
102
{ACAD_REACTORS
330
43
102
}
102
{ACAD_XDICTIONARY
360
27D
102
}
330
43
100
AcDbMaterial
  1
BYLAYER
  0
MATERIAL
  5
46
102
{ACAD_REACTORS
330
43
102
}
102
{ACAD_XDICTIONARY
360
281
102
}
330
43
100
AcDbMaterial
  1
GLOBAL
  0
ACAD_PROXY_OBJECT
  5
6C
102
{ACAD_REACTORS
330
6B
102
}
330
6B
100
AcDbProxyObject
 90
      499
 91
      505
 93
      610
310
40901902A4063FBFFFFFE056BD1B81E855B9FC0AD7A3703D0AD73F4214DD185B99185C9900AD7A3703D0AC73F90141901A02B5E8DC0F42B1CFC02B5E8DC0F42B1CFE5764000000000000300FC0
340
14
340
0
340
11
340
0
 94
        0
1001
ACAD_MLEADERVER
1070
     2
  0
MLINESTYLE
  5
18
102
{ACAD_REACTORS
330
17
102
}
330
17
100
AcDbMlineStyle
  2
Standard
 70
     0
  3

 62
   256
 51
90.0
 52
90.0
 71
     2
 49
0.5
 62
   256
  6
BYLAYER
 49
-0.5
 62
   256
  6
BYLAYER
  0
ACAD_PROXY_OBJECT
  5
48
102
{ACAD_REACTORS
330
47
102
}
330
47
100
AcDbProxyObject
 90
      499
 91
      503
 93
       41
310
903313A31580
  0
ACAD_PROXY_OBJECT
  5
49
102
{ACAD_REACTORS
330
47
102
}
330
47
100
AcDbProxyObject
 90
      499
 91
      503
 93
      105
310
903313A324000000000000004000
  0
ACAD_PROXY_OBJECT
  5
4A
102
{ACAD_REACTORS
330
47
102
}
330
47
100
AcDbProxyObject
 90
      499
 91
      503
 93
      105
310
903313A344000000000000104000
  0
ACAD_PROXY_OBJECT
  5
4B
102
{ACAD_REACTORS
330
47
102
}
330
47
100
AcDbProxyObject
 90
      499
 91
      503
 93
      105
310
903313A354000000000000144000
  0
ACAD_PROXY_OBJECT
  5
4C
102
{ACAD_REACTORS
330
47
102
}
330
47
100
AcDbProxyObject
 90
      499
 91
      503
 93
      105
310
903313A384000000000000204000
  0
ACAD_PROXY_OBJECT
  5
4D
102
{ACAD_REACTORS
330
47
102
}
330
47
100
AcDbProxyObject
 90
      499
 91
      503
 93
      113
310
904313A31304000000000000244000
  0
ACAD_PROXY_OBJECT
  5
4E
102
{ACAD_REACTORS
330
47
102
}
330
47
100
AcDbProxyObject
 90
      499
 91
      503
 93
      113
310
904313A31364000000000000304000
  0
ACAD_PROXY_OBJECT
  5
4F
102
{ACAD_REACTORS
330
47
102
}
330
47
100
AcDbProxyObject
 90
      499
 91
      503
 93
      113
310
904313A32304000000000000344000
  0
ACAD_PROXY_OBJECT
  5
50
102
{ACAD_REACTORS
330
47
102
}
330
47
100
AcDbProxyObject
 90
      499
 91
      503
 93
      113
310
904313A333040000000000003E4000
  0
ACAD_PROXY_OBJECT
  5
51
102
{ACAD_REACTORS
330
47
102
}
330
47
100
AcDbProxyObject
 90
      499
 91
      503
 93
      113
310
904313A34304000000000000444000
  0
ACAD_PROXY_OBJECT
  5
52
102
{ACAD_REACTORS
330
47
102
}
330
47
100
AcDbProxyObject
 90
      499
 91
      503
 93
      113
310
904313A35304000000000000494000
  0
ACAD_PROXY_OBJECT
  5
53
102
{ACAD_REACTORS
330
47
102
}
330
47
100
AcDbProxyObject
 90
      499
 91
      503
 93
      121
310
905313A3130304000000000000594000
  0
ACAD_PROXY_OBJECT
  5
54
102
{ACAD_REACTORS
330
47
102
}
330
47
100
AcDbProxyObject
 90
      499
 91
      503
 93
      105
310
903323A310000000000000010100
  0
ACAD_PROXY_OBJECT
  5
55
102
{ACAD_REACTORS
330
47
102
}
330
47
100
AcDbProxyObject
 90
      499
 91
      503
 93
      105
310
903343A310000000000000410100
  0
ACAD_PROXY_OBJECT
  5
56
102
{ACAD_REACTORS
330
47
102
}
330
47
100
AcDbProxyObject
 90
      499
 91
      503
 93
      105
310
903383A310000000000000810100
  0
ACAD_PROXY_OBJECT
  5
57
102
{ACAD_REACTORS
330
47
102
}
330
47
100
AcDbProxyObject
 90
      499
 91
      503
 93
      113
310
90431303A310000000000000910100
  0
ACAD_PROXY_OBJECT
  5
58
102
{ACAD_REACTORS
330
47
102
}
330
47
100
AcDbProxyObject
 90
      499
 91
      503
 93
      121
310
9053130303A310000000000001650100
  0
ACAD_PROXY_OBJECT
  5
59
102
{ACAD_REACTORS
330
47
102
}
330
47
100
AcDbProxyObject
 90
      499
 91
      503
 93
      257
310
90E312F31323822203D2031272D3022000000000000200FC000000000000284000
  0
ACAD_PROXY_OBJECT
  5
5A
102
{ACAD_REACTORS
330
47
102
}
330
47
100
AcDbProxyObject
 90
      499
 91
      503
 93
      249
310
90D312F363422203D2031272D3022000000000000240FC000000000000284000
  0
ACAD_PROXY_OBJECT
  5
5B
102
{ACAD_REACTORS
330
47
102
}
330
47
100
AcDbProxyObject
 90
      499
 91
      503
 93
      249
310
90D312F333222203D2031272D3022000000000000280FC000000000000284000
  0
ACAD_PROXY_OBJECT
  5
5C
102
{ACAD_REACTORS
330
47
102
}
330
47
100
AcDbProxyObject
 90
      499
 91
      503
 93
      249
310
90D312F313622203D2031272D30220000000000002C0FC000000000000284000
  0
ACAD_PROXY_OBJECT
  5
5D
102
{ACAD_REACTORS
330
47
102
}
330
47
100
AcDbProxyObject
 90
      499
 91
      503
 93
      249
310
90D332F333222203D2031272D30220000000000002E0FC000000000000284000
  0
ACAD_PROXY_OBJECT
  5
5E
102
{ACAD_REACTORS
330
47
102
}
330
47
100
AcDbProxyObject
 90
      499
 91
      503
 93
      241
310
90C312F3822203D2031272D3022000000000000300FC000000000000284000
  0
ACAD_PROXY_OBJECT
  5
5F
102
{ACAD_REACTORS
330
47
102
}
330
47
100
AcDbProxyObject
 90
      499
 91
      503
 93
      249
310
90D332F313622203D2031272D3022000000000000320FC000000000000284000
  0
ACAD_PROXY_OBJECT
  5
60
102
{ACAD_REACTORS
330
47
102
}
330
47
100
AcDbProxyObject
 90
      499
 91
      503
 93
      241
310
90C312F3422203D2031272D3022000000000000340FC000000000000284000
  0
ACAD_PROXY_OBJECT
  5
61
102
{ACAD_REACTORS
330
47
102
}
330
47
100
AcDbProxyObject
 90
      499
 91
      503
 93
      241
310
90C332F3822203D2031272D3022000000000000360FC000000000000284000
  0
ACAD_PROXY_OBJECT
  5
62
102
{ACAD_REACTORS
330
47
102
}
330
47
100
AcDbProxyObject
 90
      499
 91
      503
 93
      241
310
90C312F3222203D2031272D3022000000000000380FC000000000000284000
  0
ACAD_PROXY_OBJECT
  5
63
102
{ACAD_REACTORS
330
47
102
}
330
47
100
AcDbProxyObject
 90
      499
 91
      503
 93
      241
310
90C332F3422203D2031272D30220000000000003A0FC000000000000284000
  0
ACAD_PROXY_OBJECT
  5
64
102
{ACAD_REACTORS
330
47
102
}
330
47
100
AcDbProxyObject
 90
      499
 91
      503
 93
      161
310
90A3122203D2031272D30224000000000000284000
  0
ACAD_PROXY_OBJECT
  5
65
102
{ACAD_REACTORS
330
47
102
}
330
47
100
AcDbProxyObject
 90
      499
 91
      503
 93
      257
310
90E312D312F3222203D2031272D30220000000000003E0FC000000000000284000
  0
ACAD_PROXY_OBJECT
  5
66
102
{ACAD_REACTORS
330
47
102
}
330
47
100
AcDbProxyObject
 90
      499
 91
      503
 93
      225
310
90A3322203D2031272D302200000000000002100000000000000284000
  0
ACAD_PROXY_OBJECT
  5
67
102
{ACAD_REACTORS
330
47
102
}
330
47
100
AcDbProxyObject
 90
      499
 91
      503
 93
      225
310
90A3622203D2031272D302200000000000006100000000000000284000
  0
ACAD_PROXY_OBJECT
  5
68
102
{ACAD_REACTORS
330
47
102
}
330
47
100
AcDbProxyObject
 90
      499
 91
      503
 93
      249
310
90D31272D3022203D2031272D30220000000000000A100000000000000284000
  0
ACAD_PROXY_OBJECT
  5
2F
102
{ACAD_REACTORS
330
2A
102
}
330
2A
100
AcDbProxyObject
 90
      499
 91
      501
 93
      436
310
42CC9915DA5C99599C985B595049028333333333333E33F0000000000000F90107901411070040501600405405064090741402480A0340
1001
ACAD
1000
AcDbSavedByObjectVersion
1070
     0
  0
ACAD_PROXY_OBJECT
  5
32
102
{ACAD_REACTORS
330
2A
102
}
330
2A
100
AcDbProxyObject
 90
      499
 91
      501
 93
      388
310
4150985CDA58D07406404333333333333E33F0000000000000F90107A41107004050150841D405064090741402480A0350
1001
ACAD
1000
AcDbSavedByObjectVersion
1070
     0
  0
ACAD_PROXY_OBJECT
  5
36
102
{ACAD_REACTORS
330
2A
102
}
330
2A
100
AcDbProxyObject
 90
      499
 91
      501
 93
      428
310
42109C9A59DA1D195B90C409028333333333333E33F0000000000000F9010790141107004050150841D405064090741402480A029950
1001
ACAD
1000
AcDbSavedByObjectVersion
1070
     0
  0
ACAD_PROXY_OBJECT
  5
3A
102
{ACAD_REACTORS
330
2A
102
}
330
2A
100
AcDbProxyObject
 90
      499
 91
      501
 93
      452
310
42D0DBDB1BDC90DA185B99D95104090240C333333333333E33F0000000000000F90108901411070040501508421405064090741402480A0350
1001
ACAD
1000
AcDbSavedByObjectVersion
1070
     0
  0
ACAD_PROXY_OBJECT
  5
34
102
{ACAD_REACTORS
330
2A
102
}
330
2A
100
AcDbProxyObject
 90
      499
 91
      501
 93
      500
310
4290DBDB98D95C1D1D585B10940D028333333333333E33F0000000000000F90107902409070040501000000000018199010841D405064090740C02480A0340
1001
ACAD
1000
AcDbSavedByObjectVersion
1070
     0
  0
ACAD_PROXY_OBJECT
  5
35
102
{ACAD_REACTORS
330
2A
102
}
330
2A
100
AcDbProxyObject
 90
      499
 91
      501
 93
      412
310
40D11A5B50B409028333333333333E33F0000000000000F9010790141107004050150841D405064090741402480A02677FFFFFD0
1001
ACAD
1000
AcDbSavedByObjectVersion
1070
     0
  0
ACAD_PROXY_OBJECT
  5
3D
102
{ACAD_REACTORS
330
2A
102
}
330
2A
100
AcDbProxyObject
 90
      499
 91
      501
 93
      452
310
43115919D950DBDB1BDC93D999916409028333333333333E33F0000000000000F9010790141107004050150841D405064090741402480A0350
1001
ACAD
1000
AcDbSavedByObjectVersion
1070
     0
  0
ACAD_PROXY_OBJECT
  5
39
102
{ACAD_REACTORS
330
2A
102
}
330
2A
100
AcDbProxyObject
 90
      499
 91
      501
 93
      444
310
42D19858D95C185D1D195C9B90F409028333333333333E33F0000000000000F9010790141107004050150841D405064090741402480A0350
1001
ACAD
1000
AcDbSavedByObjectVersion
1070
     0
  0
ACAD_PROXY_OBJECT
  5
2B
102
{ACAD_REACTORS
330
2A
102
}
330
2A
100
AcDbProxyObject
 90
      499
 91
      501
 93
      380
310
41119B185D240901404333333333333E33F0000000000000F9010740A907004050150841D405064090741402480A1B50
1001
ACAD
1000
AcDbSavedByObjectVersion
1070
     0
  0
ACAD_PROXY_OBJECT
  5
2C
102
{ACAD_REACTORS
330
2A
102
}
330
2A
100
AcDbProxyObject
 90
      499
 91
      501
 93
      468
310
43519B185D15DA5D1A115919D95CD0140901404333333333333E33F0000000000000F90107409019070040501600405405064090741402480A1B50
1001
ACAD
1000
AcDbSavedByObjectVersion
1070
     0
  0
ACAD_PROXY_OBJECT
  5
2D
102
{ACAD_REACTORS
330
2A
102
}
330
2A
100
AcDbProxyObject
 90
      499
 91
      501
 93
      404
310
41D1DBDD5C985D5910240902404333333333333E33F0000000000000F9010740A9070040501641D405064090741402480A1B50
1001
ACAD
1000
AcDbSavedByObjectVersion
1070
     0
  0
ACAD_PROXY_OBJECT
  5
2E
102
{ACAD_REACTORS
330
2A
102
}
330
2A
100
AcDbProxyObject
 90
      499
 91
      501
 93
      492
310
4411DBDD5C985D5915DA5D1A115919D95CD0340902404333333333333E33F0000000000000F90107409019070040501600405405064090741402480A1B50
1001
ACAD
1000
AcDbSavedByObjectVersion
1070
     0
  0
ACAD_PROXY_OBJECT
  5
31
102
{ACAD_REACTORS
330
2A
102
}
330
2A
100
AcDbProxyObject
 90
      499
 91
      501
 93
      476
310
41921A5919195B90640502408333333333333E33F0000000000000F901079024090700405020000000000001110200405405064090740C02480A0340
1001
ACAD
1000
AcDbSavedByObjectVersion
1070
     0
  0
ACAD_PROXY_OBJECT
  5
3B
102
{ACAD_REACTORS
330
2A
102
}
330
2A
100
AcDbProxyObject
 90
      499
 91
      501
 93
      428
310
42529A5D1D195C93D999914409028333333333333E33F0000000000000F9010790141107004050150A41D405064090741402480A0350
1001
ACAD
1000
AcDbSavedByObjectVersion
1070
     0
  0
ACAD_PROXY_OBJECT
  5
38
102
{ACAD_REACTORS
330
2A
102
}
330
2A
100
AcDbProxyObject
 90
      499
 91
      501
 93
      444
310
42D31A5B995C185D1D195C9B90E409028333333333333E33F0000000000000F9010790141107004050750841D405064090741402483A0350
1001
ACAD
1000
AcDbSavedByObjectVersion
1070
     0
  0
ACAD_PROXY_OBJECT
  5
3C
102
{ACAD_REACTORS
330
2A
102
}
330
2A
100
AcDbProxyObject
 90
      499
 91
      501
 93
      444
310
42D3DD995C9A185B99D3D999915409028333333333333E33F0000000000000F9010790141107004050150941D405064090741402480A0350
1001
ACAD
1000
AcDbSavedByObjectVersion
1070
     0
  0
ACAD_PROXY_OBJECT
  5
33
102
{ACAD_REACTORS
330
2A
102
}
330
2A
100
AcDbProxyObject
 90
      499
 91
      501
 93
      428
310
425499585B1A5CDD1A58D08409038333333333333E33F0000000000000F9010740A907004050150800405405064090740C02480A1B40
1001
ACAD
1000
AcDbSavedByObjectVersion
1070
     0
  0
ACAD_PROXY_OBJECT
  5
42
102
{ACAD_REACTORS
330
2A
102
}
330
2A
100
AcDbProxyObject
 90
      499
 91
      501
 93
      420
310
4194DA1859195911B40902404333333333333E33F0000000000000F9010740A41107004050150800405405064090840C02480A0B40
1001
ACAD
1000
AcDbSavedByObjectVersion
1070
     0
  0
ACAD_PROXY_OBJECT
  5
41
102
{ACAD_REACTORS
330
2A
102
}
330
2A
100
AcDbProxyObject
 90
      499
 91
      501
 93
      516
310
4454DA18591959081DDA5D1A08195919D95CD1A40902404333333333333E33F0000000000000F901074090142907004050250800405405064090740C02480A0B40
1001
ACAD
1000
AcDbSavedByObjectVersion
1070
     0
  0
ACAD_PROXY_OBJECT
  5
3E
102
{ACAD_REACTORS
330
2A
102
}
330
2A
100
AcDbProxyObject
 90
      499
 91
      501
 93
      532
310
4394DA1859195CC81BD98811DC985E5174090240C333333333333E33F0000000000000F901079024090741D01000000000000111010841D405064090740C02480A0340
1001
ACAD
1000
AcDbSavedByObjectVersion
1070
     0
  0
ACAD_PROXY_OBJECT
  5
3F
102
{ACAD_REACTORS
330
2A
102
}
330
2A
100
AcDbProxyObject
 90
      499
 91
      501
 93
      476
310
41D4DAD95D18DA1E51840502408333333333333E33F0000000000000F901079024090741D01000000000000111010B41D405064090741802480A0340
1001
ACAD
1000
AcDbSavedByObjectVersion
1070
     0
  0
ACAD_PROXY_OBJECT
  5
37
102
{ACAD_REACTORS
330
2A
102
}
330
2A
100
AcDbProxyObject
 90
      499
 91
      501
 93
      412
310
41D51A1A58DAD95B90D409028333333333333E33F0000000000000F9010790141107004050150C41D405064090741402480A0350
1001
ACAD
1000
AcDbSavedByObjectVersion
1070
     0
  0
ACAD_PROXY_OBJECT
  5
30
102
{ACAD_REACTORS
330
2A
102
}
330
2A
100
AcDbProxyObject
 90
      499
 91
      501
 93
      420
310
4255DA5C99599C985B595059028333333333333E33F0000000000000F90107901411070040501600405405064090740C02480A0340
1001
ACAD
1000
AcDbSavedByObjectVersion
1070
     0
  0
ACAD_PROXY_OBJECT
  5
40
102
{ACAD_REACTORS
330
2A
102
}
330
2A
100
AcDbProxyObject
 90
      499
 91
      501
 93
      404
310
41560B54985E51940902404000000000000E03F0000000000000F9010740501907004050150841D405064090740C02480A1B40
1001
ACAD
1000
AcDbSavedByObjectVersion
1070
     0
  0
XRECORD
  5
25B
102
{ACAD_REACTORS
330
251
102
}
330
251
100
AcDbXrecord
340
0
  0
XRECORD
  5
25A
102
{ACAD_REACTORS
330
251
102
}
330
251
100
AcDbXrecord
 90
        0
  0
XRECORD
  5
271
102
{ACAD_REACTORS
330
251
102
}
330
251
100
AcDbXrecord
1000
DSTYLE
1002
{
1070
   179
 70
     2
1070
   171
 70
     2
1070
   143
 40
25.4
1070
   274
 70
     2
1070
    41
 40
3.0
1070
   141
 40
0.09
1070
    43
 40
0.38
1070
   278
 70
    46
1070
    44
 40
1.5
1070
    42
 40
0.0625
1070
   147
 40
1.5
1070
   272
 70
     4
1070
    73
 70
     1
1070
   172
 70
     0
1070
    74
 70
     1
1070
   283
 70
     1
1070
   340
340
6F
1070
   140
 40
3.0
1070
   284
 70
     0
1070
    78
 70
     0
1002
}
  0
XRECORD
  5
25C
102
{ACAD_REACTORS
330
251
102
}
330
251
100
AcDbXrecord
  1
{1A0D2527-E52A-4AB2-A7CD-E9F4C1AE3398}
  0
XRECORD
  5
254
102
{ACAD_REACTORS
330
251
102
}
330
251
100
AcDbXrecord
  1

  0
XRECORD
  5
259
102
{ACAD_REACTORS
330
251
102
}
330
251
100
AcDbXrecord
 90
        4
  0
XRECORD
  5
256
102
{ACAD_REACTORS
330
251
102
}
330
251
100
AcDbXrecord
340
1A
  0
XRECORD
  5
258
102
{ACAD_REACTORS
330
251
102
}
330
251
100
AcDbXrecord
 90
    10269
  0
XRECORD
  5
257
102
{ACAD_REACTORS
330
251
102
}
330
251
100
AcDbXrecord
340
19
  0
XRECORD
  5
25E
102
{ACAD_REACTORS
330
251
102
}
330
251
100
AcDbXrecord
 40
0.0
  0
XRECORD
  5
261
102
{ACAD_REACTORS
330
251
102
}
330
251
100
AcDbXrecord
340
0
  0
XRECORD
  5
267
102
{ACAD_REACTORS
330
251
102
}
330
251
100
AcDbXrecord
 10
0.0
 20
0.0
 30
0.0
  0
XRECORD
  5
263
102
{ACAD_REACTORS
330
251
102
}
330
251
100
AcDbXrecord
 10
0.0
 20
0.0
 30
0.0
  0
XRECORD
  5
266
102
{ACAD_REACTORS
330
251
102
}
330
251
100
AcDbXrecord
 10
0.0
 20
0.0
 30
0.0
  0
XRECORD
  5
264
102
{ACAD_REACTORS
330
251
102
}
330
251
100
AcDbXrecord
 10
0.0
 20
0.0
 30
0.0
  0
XRECORD
  5
265
102
{ACAD_REACTORS
330
251
102
}
330
251
100
AcDbXrecord
 10
0.0
 20
0.0
 30
0.0
  0
XRECORD
  5
262
102
{ACAD_REACTORS
330
251
102
}
330
251
100
AcDbXrecord
 10
0.0
 20
0.0
 30
0.0
  0
XRECORD
  5
25F
102
{ACAD_REACTORS
330
251
102
}
330
251
100
AcDbXrecord
340
0
  0
XRECORD
  5
260
102
{ACAD_REACTORS
330
251
102
}
330
251
100
AcDbXrecord
 70
     0
  0
XRECORD
  5
255
102
{ACAD_REACTORS
330
251
102
}
330
251
100
AcDbXrecord
  1

  0
XRECORD
  5
252
102
{ACAD_REACTORS
330
251
102
}
330
251
100
AcDbXrecord
 90
        1
  0
XRECORD
  5
253
102
{ACAD_REACTORS
330
251
102
}
330
251
100
AcDbXrecord
 90
       70
  0
XRECORD
  5
26A
102
{ACAD_REACTORS
330
251
102
}
330
251
100
AcDbXrecord
340
0
  0
XRECORD
  5
270
102
{ACAD_REACTORS
330
251
102
}
330
251
100
AcDbXrecord
 10
0.0
 20
0.0
 30
0.0
  0
XRECORD
  5
26C
102
{ACAD_REACTORS
330
251
102
}
330
251
100
AcDbXrecord
 10
0.0
 20
0.0
 30
0.0
  0
XRECORD
  5
26F
102
{ACAD_REACTORS
330
251
102
}
330
251
100
AcDbXrecord
 10
0.0
 20
0.0
 30
0.0
  0
XRECORD
  5
26D
102
{ACAD_REACTORS
330
251
102
}
330
251
100
AcDbXrecord
 10
0.0
 20
0.0
 30
0.0
  0
XRECORD
  5
26E
102
{ACAD_REACTORS
330
251
102
}
330
251
100
AcDbXrecord
 10
0.0
 20
0.0
 30
0.0
  0
XRECORD
  5
26B
102
{ACAD_REACTORS
330
251
102
}
330
251
100
AcDbXrecord
 10
0.0
 20
0.0
 30
0.0
  0
XRECORD
  5
268
102
{ACAD_REACTORS
330
251
102
}
330
251
100
AcDbXrecord
340
0
  0
XRECORD
  5
269
102
{ACAD_REACTORS
330
251
102
}
330
251
100
AcDbXrecord
 70
     0
  0
XRECORD
  5
25D
102
{ACAD_REACTORS
330
251
102
}
330
251
100
AcDbXrecord
  1
{FAEB1C32-E019-11D5-929B-00C0DF256EC4}
  0
DICTIONARYVAR
  5
27B
102
{ACAD_REACTORS
330
272
102
}
330
272
100
DictionaryVariables
280
     0
  1
1:1
  0
DICTIONARYVAR
  5
274
102
{ACAD_REACTORS
330
272
102
}
330
272
100
DictionaryVariables
280
     0
  1
Standard
  0
DICTIONARYVAR
  5
273
102
{ACAD_REACTORS
330
272
102
}
330
272
100
DictionaryVariables
280
     0
  1
Standard
  0
DICTIONARYVAR
  5
277
102
{ACAD_REACTORS
330
272
102
}
330
272
100
DictionaryVariables
280
     0
  1
2
  0
DICTIONARYVAR
  5
278
102
{ACAD_REACTORS
330
272
102
}
330
272
100
DictionaryVariables
280
     0
  1
1
  0
DICTIONARYVAR
  5
27C
102
{ACAD_REACTORS
330
272
102
}
330
272
100
DictionaryVariables
280
     0
  1
1
  0
DICTIONARY
  5
27F
330
45
100
AcDbDictionary
280
     1
  3
ACAD_XREC_ROUNDTRIP
360
280
  0
DICTIONARY
  5
27D
330
44
100
AcDbDictionary
280
     1
  3
ACAD_XREC_ROUNDTRIP
360
27E
  0
DICTIONARY
  5
281
330
46
100
AcDbDictionary
280
     1
  3
ACAD_XREC_ROUNDTRIP
360
282
  0
XRECORD
  5
280
102
{ACAD_REACTORS
330
27F
102
}
330
27F
100
AcDbXrecord
102
MATERIAL
148
0.0
149
0.0
149
0.0
 93
        0
 94
      127
282
     0
 72
     1
 77
     1
171
     1
175
     1
179
     1
273
     0
  0
XRECORD
  5
27E
102
{ACAD_REACTORS
330
27D
102
}
330
27D
100
AcDbXrecord
102
MATERIAL
148
0.0
149
0.0
149
0.0
 93
        0
 94
      127
282
     0
 72
     1
 77
     1
171
     1
175
     1
179
     1
273
     0
  0
XRECORD
  5
282
102
{ACAD_REACTORS
330
281
102
}
330
281
100
AcDbXrecord
102
MATERIAL
148
0.0
149
0.0
149
0.0
 93
        0
 94
      127
282
     0
 72
     1
 77
     1
171
     1
175
     1
179
     1
273
     0
  0
ENDSEC
  0
EOF
