  0
SECTION
  2
HEADER
  9
$ACADVER
  1
AC1014
  9
$ACADMAINTVER
 70
     9
  9
$DWGCODEPAGE
  3
ANSI_932
  9
$INSBASE
 10
0.0
 20
0.0
 30
0.0
  9
$EXTMIN
 10
-225.95
 20
63.49318181818182
 30
0.0
  9
$EXTMAX
 10
-79.99999999999999
 20
173.9407554465222
 30
0.0
  9
$LIMMIN
 10
0.0
 20
0.0
  9
$LIMMAX
 10
12.0
 20
9.0
  9
$ORTHOMODE
 70
     0
  9
$REGENMODE
 70
     1
  9
$FILLMODE
 70
     1
  9
$QTEXTMODE
 70
     0
  9
$MIRRTEXT
 70
     1
  9
$DRAGMODE
 70
     2
  9
$LTSCALE
 40
1.0
  9
$OSMODE
 70
    37
  9
$ATTMODE
 70
     1
  9
$TEXTSIZE
 40
0.2
  9
$TRACEWID
 40
0.05
  9
$TEXTSTYLE
  7
STANDARD
  9
$CLAYER
  8
0
  9
$CELTYPE
  6
BYLAYER
  9
$CECOLOR
 62
   256
  9
$CELTSCALE
 40
1.0
  9
$DELOBJ
 70
     1
  9
$DISPSILH
 70
     0
  9
$DIMSCALE
 40
1.0
  9
$DIMASZ
 40
3.0
  9
$DIMEXO
 40
0.0625
  9
$DIMDLI
 40
0.38
  9
$DIMRND
 40
0.0
  9
$DIMDLE
 40
0.0
  9
$DIMEXE
 40
1.5
  9
$DIMTP
 40
0.0
  9
$DIMTM
 40
0.0
  9
$DIMTXT
 40
3.0
  9
$DIMCEN
 40
0.09
  9
$DIMTSZ
 40
0.0
  9
$DIMTOL
 70
     0
  9
$DIMLIM
 70
     0
  9
$DIMTIH
 70
     1
  9
$DIMTOH
 70
     1
  9
$DIMSE1
 70
     0
  9
$DIMSE2
 70
     0
  9
$DIMTAD
 70
     1
  9
$DIMZIN
 70
     0
  9
$DIMBLK
  1

  9
$DIMASO
 70
     1
  9
$DIMSHO
 70
     1
  9
$DIMPOST
  1

  9
$DIMAPOST
  1

  9
$DIMALT
 70
     0
  9
$DIMALTD
 70
     2
  9
$DIMALTF
 40
25.4
  9
$DIMLFAC
 40
1.0
  9
$DIMTOFL
 70
     0
  9
$DIMTVP
 40
0.0
  9
$DIMTIX
 70
     0
  9
$DIMSOXD
 70
     0
  9
$DIMSAH
 70
     0
  9
$DIMBLK1
  1

  9
$DIMBLK2
  1

  9
$DIMSTYLE
  2
STANDARD
  9
$DIMCLRD
 70
     0
  9
$DIMCLRE
 70
     0
  9
$DIMCLRT
 70
     0
  9
$DIMTFAC
 40
1.0
  9
$DIMGAP
 40
1.5
  9
$DIMJUST
 70
     0
  9
$DIMSD1
 70
     0
  9
$DIMSD2
 70
     0
  9
$DIMTOLJ
 70
     1
  9
$DIMTZIN
 70
     0
  9
$DIMALTZ
 70
     0
  9
$DIMALTTZ
 70
     0
  9
$DIMFIT
 70
     3
  9
$DIMUPT
 70
     0
  9
$DIMUNIT
 70
     2
  9
$DIMDEC
 70
     2
  9
$DIMTDEC
 70
     4
  9
$DIMALTU
 70
     2
  9
$DIMALTTD
 70
     2
  9
$DIMTXSTY
  7
ＭＳ_ゴシック
  9
$DIMAUNIT
 70
     0
  9
$LUNITS
 70
     2
  9
$LUPREC
 70
     4
  9
$SKETCHINC
 40
0.1
  9
$FILLETRAD
 40
0.5
  9
$AUNITS
 70
     0
  9
$AUPREC
 70
     0
  9
$MENU
  1
.
  9
$ELEVATION
 40
0.0
  9
$PELEVATION
 40
0.0
  9
$THICKNESS
 40
0.0
  9
$LIMCHECK
 70
     0
  9
$CHAMFERA
 40
0.0
  9
$CHAMFERB
 40
0.0
  9
$CHAMFERC
 40
0.0
  9
$CHAMFERD
 40
0.0
  9
$SKPOLY
 70
     0
  9
$TDCREATE
 40
2459788.473835636
  9
$TDUPDATE
 40
2459788.473835903
  9
$TDINDWG
 40
0.0000000116
  9
$TDUSRTIMER
 40
0.0000000116
  9
$USRTIMER
 70
     1
  9
$ANGBASE
 50
0.0
  9
$ANGDIR
 70
     0
  9
$PDMODE
 70
     0
  9
$PDSIZE
 40
0.0
  9
$PLINEWID
 40
0.0
  9
$COORDS
 70
     1
  9
$SPLFRAME
 70
     0
  9
$SPLINETYPE
 70
     6
  9
$SPLINESEGS
 70
     8
  9
$ATTDIA
 70
     0
  9
$ATTREQ
 70
     1
  9
$HANDLING
 70
     1
  9
$HANDSEED
  5
283
  9
$SURFTAB1
 70
     6
  9
$SURFTAB2
 70
     6
  9
$SURFTYPE
 70
     6
  9
$SURFU
 70
     6
  9
$SURFV
 70
     6
  9
$UCSNAME
  2

  9
$UCSORG
 10
0.0
 20
0.0
 30
0.0
  9
$UCSXDIR
 10
1.0
 20
0.0
 30
0.0
  9
$UCSYDIR
 10
0.0
 20
1.0
 30
0.0
  9
$PUCSNAME
  2

  9
$PUCSORG
 10
0.0
 20
0.0
 30
0.0
  9
$PUCSXDIR
 10
1.0
 20
0.0
 30
0.0
  9
$PUCSYDIR
 10
0.0
 20
1.0
 30
0.0
  9
$USERI1
 70
     0
  9
$USERI2
 70
     0
  9
$USERI3
 70
     0
  9
$USERI4
 70
     0
  9
$USERI5
 70
     0
  9
$USERR1
 40
0.0
  9
$USERR2
 40
0.0
  9
$USERR3
 40
0.0
  9
$USERR4
 40
0.0
  9
$USERR5
 40
0.0
  9
$WORLDVIEW
 70
     1
  9
$SHADEDGE
 70
     3
  9
$SHADEDIF
 70
    70
  9
$TILEMODE
 70
     1
  9
$MAXACTVP
 70
    64
  9
$PINSBASE
 10
0.0
 20
0.0
 30
0.0
  9
$PLIMCHECK
 70
     0
  9
$PEXTMIN
 10
1.000000000000000E+20
 20
1.000000000000000E+20
 30
1.000000000000000E+20
  9
$PEXTMAX
 10
-1.000000000000000E+20
 20
-1.000000000000000E+20
 30
-1.000000000000000E+20
  9
$PLIMMIN
 10
0.0
 20
0.0
  9
$PLIMMAX
 10
12.0
 20
9.0
  9
$UNITMODE
 70
     0
  9
$VISRETAIN
 70
     1
  9
$PLINEGEN
 70
     0
  9
$PSLTSCALE
 70
     1
  9
$TREEDEPTH
 70
  3020
  9
$PICKSTYLE
 70
     1
  9
$CMLSTYLE
  2
STANDARD
  9
$CMLJUST
 70
     0
  9
$CMLSCALE
 40
1.0
  9
$PROXYGRAPHICS
 70
     1
  9
$MEASUREMENT
 70
     1
  0
ENDSEC
  0
SECTION
  2
CLASSES
  0
CLASS
  1
ACDBDICTIONARYWDFLT
  2
AcDbDictionaryWithDefault
  3
ObjectDBX Classes
 90
        0
280
     0
281
     0
  0
CLASS
  1
VISUALSTYLE
  2
AcDbVisualStyle
  3
ObjectDBX Classes
 90
     4095
280
     0
281
     0
  0
CLASS
  1
MATERIAL
  2
AcDbMaterial
  3
ObjectDBX Classes
 90
     1153
280
     0
281
     0
  0
CLASS
  1
SCALE
  2
AcDbScale
  3
ObjectDBX Classes
 90
     1153
280
     0
281
     0
  0
CLASS
  1
TABLESTYLE
  2
AcDbTableStyle
  3
ObjectDBX Classes
 90
     4095
280
     0
281
     0
  0
CLASS
  1
MLEADERSTYLE
  2
AcDbMLeaderStyle
  3
ACDB_MLEADERSTYLE_CLASS
 90
     4095
280
     0
281
     0
  0
CLASS
  1
SUN
  2
AcDbSun
  3
SCENEOE
 90
     1153
280
     0
281
     0
  0
CLASS
  1
DICTIONARYVAR
  2
AcDbDictionaryVar
  3
ObjectDBX Classes
 90
        0
280
     0
281
     0
  0
CLASS
  1
XRECORD
  2
AcDbXrecord
  3
ObjectDBX Classes
 90
        0
280
     0
281
     0
  0
CLASS
  1
LWPOLYLINE
  2
AcDbPolyline
  3
ObjectDBX Classes
 90
        0
280
     0
281
     1
  0
CLASS
  1
HATCH
  2
AcDbHatch
  3
ObjectDBX Classes
 90
        0
280
     0
281
     1
  0
CLASS
  1
ACDBPLACEHOLDER
  2
AcDbPlaceHolder
  3
ObjectDBX Classes
 90
        0
280
     0
281
     0
  0
CLASS
  1
LAYOUT
  2
AcDbLayout
  3
ObjectDBX Classes
 90
        0
280
     0
281
     0
  0
ENDSEC
  0
SECTION
  2
TABLES
  0
TABLE
  2
VPORT
  5
8
102
{ACAD_XDICTIONARY
360
278
102
}
330
0
100
AcDbSymbolTable
 70
     1
  0
VPORT
  5
29
330
8
100
AcDbSymbolTableRecord
100
AcDbViewportTableRecord
  2
*ACTIVE
 70
     0
 10
0.0
 20
0.0
 11
1.0
 21
1.0
 12
-152.975
 22
118.716968632352
 13
0.0
 23
0.0
 14
0.5
 24
0.5
 15
0.5
 25
0.5
 16
0.0
 26
0.0
 36
1.0
 17
0.0
 27
0.0
 37
0.0
 40
110.4475736283404
 41
1.6
 42
50.0
 43
0.0
 44
0.0
 50
0.0
 51
0.0
 71
     0
 72
   100
 73
     1
 74
     3
 75
     0
 76
     0
 77
     0
 78
     0
  0
ENDTAB
  0
TABLE
  2
LTYPE
  5
5
330
0
100
AcDbSymbolTable
 70
     2
  0
LTYPE
  5
14
330
5
100
AcDbSymbolTableRecord
100
AcDbLinetypeTableRecord
  2
BYBLOCK
 70
     0
  3

 72
    65
 73
     0
 40
0.0
  0
LTYPE
  5
15
330
5
100
AcDbSymbolTableRecord
100
AcDbLinetypeTableRecord
  2
BYLAYER
 70
     0
  3

 72
    65
 73
     0
 40
0.0
  0
LTYPE
  5
16
330
5
100
AcDbSymbolTableRecord
100
AcDbLinetypeTableRecord
  2
CONTINUOUS
 70
     0
  3
Solid line
 72
    65
 73
     0
 40
0.0
  0
LTYPE
  5
24D
330
5
100
AcDbSymbolTableRecord
100
AcDbLinetypeTableRecord
  2
CENTER
 70
     0
  3

 72
    65
 73
     0
 40
0.0
  0
ENDTAB
  0
TABLE
  2
LAYER
  5
2
330
0
100
AcDbSymbolTable
 70
     2
  0
LAYER
  5
10
330
2
100
AcDbSymbolTableRecord
100
AcDbLayerTableRecord
  2
0
 70
     0
 62
     7
  6
CONTINUOUS
  0
LAYER
  5
6E
330
2
100
AcDbSymbolTableRecord
100
AcDbLayerTableRecord
  2
1
 70
     0
 62
     7
  6
CONTINUOUS
  0
ENDTAB
  0
TABLE
  2
STYLE
  5
3
330
0
100
AcDbSymbolTable
 70
     2
  0
STYLE
  5
11
330
3
100
AcDbSymbolTableRecord
100
AcDbTextStyleTableRecord
  2
STANDARD
 70
     0
 40
0.0
 41
1.0
 50
0.0
 71
     0
 42
0.2
  3
txt
  4

  0
STYLE
  5
6F
330
3
100
AcDbSymbolTableRecord
100
AcDbTextStyleTableRecord
  2
ＭＳ_ゴシック
 70
     0
 40
0.0
 41
1.0
 50
0.0
 71
     0
 42
0.2
  3
ＭＳ ゴシック.shx
  4

  0
ENDTAB
  0
TABLE
  2
VIEW
  5
6
330
0
100
AcDbSymbolTable
 70
     0
  0
ENDTAB
  0
TABLE
  2
UCS
  5
7
330
0
100
AcDbSymbolTable
 70
     0
  0
ENDTAB
  0
TABLE
  2
APPID
  5
9
330
0
100
AcDbSymbolTable
 70
     2
  0
APPID
  5
12
330
9
100
AcDbSymbolTableRecord
100
AcDbRegAppTableRecord
  2
ACAD
 70
     0
  0
APPID
  5
282
330
9
100
AcDbSymbolTableRecord
100
AcDbRegAppTableRecord
  2
ACAD_MLEADERVER
 70
     0
  0
ENDTAB
  0
TABLE
  2
DIMSTYLE
  5
A
330
0
100
AcDbSymbolTable
 70
     1
  0
DIMSTYLE
105
27
330
A
100
AcDbSymbolTableRecord
100
AcDbDimStyleTableRecord
  2
STANDARD
 70
     0
  3

  4

  5

  6

  7

 40
1.0
 41
0.18
 42
0.0625
 43
0.38
 44
0.18
 45
0.0
 46
0.0
 47
0.0
 48
0.0
140
0.18
141
0.09
142
0.0
143
25.4
144
1.0
145
0.0
146
1.0
147
0.09
 71
     0
 72
     0
 73
     1
 74
     1
 75
     0
 76
     0
 77
     0
 78
     0
170
     0
171
     2
172
     0
173
     0
174
     0
175
     0
176
     0
177
     0
178
     0
270
     2
271
     4
272
     4
273
     2
274
     2
340
11
275
     0
280
     0
281
     0
282
     0
283
     1
284
     0
285
     0
286
     0
287
     3
288
     0
  0
ENDTAB
  0
TABLE
  2
BLOCK_RECORD
  5
1
330
0
100
AcDbSymbolTable
 70
     0
  0
BLOCK_RECORD
  5
1F
330
1
100
AcDbSymbolTableRecord
100
AcDbBlockTableRecord
  2
*MODEL_SPACE
  0
BLOCK_RECORD
  5
1B
330
1
100
AcDbSymbolTableRecord
100
AcDbBlockTableRecord
  2
*PAPER_SPACE
  0
ENDTAB
  0
ENDSEC
  0
SECTION
  2
BLOCKS
  0
BLOCK
  5
20
330
1F
100
AcDbEntity
  8
0
100
AcDbBlockBegin
  2
*MODEL_SPACE
 70
     0
 10
0.0
 20
0.0
 30
0.0
  3
*MODEL_SPACE
  1

  0
ENDBLK
  5
21
330
1F
100
AcDbEntity
  8
0
100
AcDbBlockEnd
  0
BLOCK
  5
1C
330
1B
100
AcDbEntity
 67
     1
  8
0
100
AcDbBlockBegin
  2
*PAPER_SPACE
 70
     0
 10
0.0
 20
0.0
 30
0.0
  3
*PAPER_SPACE
  1

  0
ENDBLK
  5
1D
330
1B
100
AcDbEntity
 67
     1
  8
0
100
AcDbBlockEnd
  0
ENDSEC
  0
SECTION
  2
ENTITIES
  0
LINE
  5
70
330
1F
100
AcDbEntity
  8
1
  6
CONTINUOUS
 62
     7
100
AcDbLine
 10
-110.701861061457
 20
107.8499999999999
 30
0.0
 11
-87.14975714530549
 21
107.8499999999999
 31
0.0
  0
ARC
  5
71
330
1F
100
AcDbEntity
  8
1
  6
CONTINUOUS
 62
     7
100
AcDbCircle
 10
-190.6999592941551
 20
93.59990068813525
 30
0.0
 40
14.25010555942717
100
AcDbArc
 50
101.8650422779753
 51
122.7103426824409
  0
ARC
  5
72
330
1F
100
AcDbEntity
  8
1
  6
CONTINUOUS
 62
     7
100
AcDbCircle
 10
-190.7000000000002
 20
93.59999999999998
 30
0.0
 40
11.74999999999996
100
AcDbArc
 50
98.8792065276753
 51
127.301717721545
  0
LINE
  5
73
330
1F
100
AcDbEntity
  8
1
  6
CONTINUOUS
 62
     7
100
AcDbLine
 10
-167.3414177335231
 20
89.09999999999994
 30
0.0
 11
-166.4500000000002
 21
91.09999999999994
 31
0.0
  0
LINE
  5
74
330
1F
100
AcDbEntity
  8
1
  6
CONTINUOUS
 62
     7
100
AcDbLine
 10
-166.4500000000002
 20
91.09999999999994
 30
0.0
 11
-164.9500000000002
 21
91.09999999999994
 31
0.0
  0
ARC
  5
75
330
1F
100
AcDbEntity
  8
1
  6
CONTINUOUS
 62
     7
100
AcDbCircle
 10
-164.9500000000002
 20
90.09999999999994
 30
0.0
 40
1.000000000000001
100
AcDbArc
 50
0.0
 51
90.0
  0
LINE
  5
76
330
1F
100
AcDbEntity
  8
1
  6
CONTINUOUS
 62
     7
100
AcDbLine
 10
-163.9500000000002
 20
90.09999999999994
 30
0.0
 11
-163.9500000000002
 21
89.09999999999994
 31
0.0
  0
LINE
  5
77
330
1F
100
AcDbEntity
  8
1
  6
CONTINUOUS
 62
     7
100
AcDbLine
 10
-164.4500000000002
 20
81.84999999999997
 30
0.0
 11
-162.45
 21
81.84999999999997
 31
0.0
  0
ARC
  5
78
330
1F
100
AcDbEntity
  8
1
  6
CONTINUOUS
 62
     7
100
AcDbCircle
 10
-164.4500000000002
 20
83.84999999999995
 30
0.0
 40
2.0
100
AcDbArc
 50
226.6269962360213
 51
270.0
  0
LINE
  5
79
330
1F
100
AcDbEntity
  8
1
  6
CONTINUOUS
 62
     7
100
AcDbLine
 10
-168.6367441755682
 20
85.05404890409383
 30
0.0
 11
-165.8234901840675
 21
82.39620334493533
 31
0.0
  0
ARC
  5
7A
330
1F
100
AcDbEntity
  8
1
  6
CONTINUOUS
 62
     7
100
AcDbCircle
 10
-167.9500000000002
 20
85.78094809746477
 30
0.0
 40
1.000000000000001
100
AcDbArc
 50
180.0
 51
226.6270684738362
  0
LINE
  5
7B
330
1F
100
AcDbEntity
  8
1
  6
CONTINUOUS
 62
     7
100
AcDbLine
 10
-168.9500000000002
 20
86.35431162690521
 30
0.0
 11
-168.9500000000002
 21
85.78094809746477
 31
0.0
  0
ARC
  5
7C
330
1F
100
AcDbEntity
  8
1
  6
CONTINUOUS
 62
     7
100
AcDbCircle
 10
-178.2000000000001
 20
93.59999999999995
 30
0.0
 40
11.74999999999999
100
AcDbArc
 50
321.9277745863573
 51
335.9770432272696
  0
LINE
  5
7D
330
1F
100
AcDbEntity
  8
1
  6
CONTINUOUS
 62
     7
100
AcDbLine
 10
-167.3414177335231
 20
89.09999999999994
 30
0.0
 11
-167.4677566045908
 21
88.81654395842358
 31
0.0
  0
ARC
  5
7E
330
1F
100
AcDbEntity
  8
1
  6
CONTINUOUS
 62
     7
100
AcDbCircle
 10
-162.45
 20
83.61393202249991
 30
0.0
 40
1.000000000000001
100
AcDbArc
 50
0.0
 51
26.56505117707803
  0
LINE
  5
7F
330
1F
100
AcDbEntity
  8
1
  6
CONTINUOUS
 62
     7
100
AcDbLine
 10
-163.9500000000002
 20
89.09999999999995
 30
0.0
 11
-163.9500000000002
 21
88.84999999999995
 31
0.0
  0
LINE
  5
80
330
1F
100
AcDbEntity
  8
1
  6
CONTINUOUS
 62
     7
100
AcDbLine
 10
-161.45
 20
81.84999999999995
 30
0.0
 11
-162.45
 21
81.84999999999995
 31
0.0
  0
LINE
  5
81
330
1F
100
AcDbEntity
  8
1
  6
CONTINUOUS
 62
     7
100
AcDbLine
 10
-161.45
 20
83.61393202249991
 30
0.0
 11
-161.45
 21
81.84999999999995
 31
0.0
  0
LINE
  5
82
330
1F
100
AcDbEntity
  8
1
  6
CONTINUOUS
 62
     7
100
AcDbLine
 10
-163.9500000000002
 20
88.84999999999995
 30
0.0
 11
-161.5555728090001
 21
84.06114561799986
 31
0.0
  0
ARC
  5
83
330
1F
100
AcDbEntity
  8
1
  6
CONTINUOUS
 62
     7
100
AcDbCircle
 10
-190.7000000000001
 20
93.59999999999995
 30
0.0
 40
14.24999999999999
100
AcDbArc
 50
122.7104207531527
 51
180.0
  0
ARC
  5
84
330
1F
100
AcDbEntity
  8
1
  6
CONTINUOUS
 62
     7
100
AcDbCircle
 10
-224.95
 20
82.84999999999995
 30
0.0
 40
1.000000000000001
100
AcDbArc
 50
90.0
 51
180.0
  0
LINE
  5
85
330
1F
100
AcDbEntity
  8
1
  6
CONTINUOUS
 62
     7
100
AcDbLine
 10
-224.95
 20
83.84999999999995
 30
0.0
 11
-217.95
 21
83.84999999999995
 31
0.0
  0
LINE
  5
86
330
1F
100
AcDbEntity
  8
1
  6
CONTINUOUS
 62
     7
100
AcDbLine
 10
-209.4500000000002
 20
83.84999999999995
 30
0.0
 11
-204.9500000000002
 21
88.84999999999995
 31
0.0
  0
LINE
  5
87
330
1F
100
AcDbEntity
  8
1
  6
CONTINUOUS
 62
     7
100
AcDbLine
 10
-217.95
 20
81.84999999999995
 30
0.0
 11
-225.95
 21
81.84999999999995
 31
0.0
  0
LINE
  5
88
330
1F
100
AcDbEntity
  8
1
  6
CONTINUOUS
 62
     7
100
AcDbLine
 10
-225.95
 20
82.84999999999995
 30
0.0
 11
-225.95
 21
81.84999999999995
 31
0.0
  0
LINE
  5
89
330
1F
100
AcDbEntity
  8
1
  6
CONTINUOUS
 62
     7
100
AcDbLine
 10
-217.95
 20
83.84999999999995
 30
0.0
 11
-209.4500000000002
 21
83.84999999999995
 31
0.0
  0
LINE
  5
8A
330
1F
100
AcDbEntity
  8
1
  6
CONTINUOUS
 62
     7
100
AcDbLine
 10
-204.9500000000002
 20
88.84999999999995
 30
0.0
 11
-204.9500000000002
 21
93.59999999999995
 31
0.0
  0
LINE
  5
8B
330
1F
100
AcDbEntity
  8
1
  6
CONTINUOUS
 62
     7
100
AcDbLine
 10
-202.4500000000002
 20
93.59999999999995
 30
0.0
 11
-202.4500000000001
 21
83.84999999999995
 31
0.0
  0
ARC
  5
8C
330
1F
100
AcDbEntity
  8
1
  6
CONTINUOUS
 62
     7
100
AcDbCircle
 10
-204.4500000000001
 20
83.84999999999995
 30
0.0
 40
2.0
100
AcDbArc
 50
270.0
 51
0.0
  0
LINE
  5
8D
330
1F
100
AcDbEntity
  8
1
  6
CONTINUOUS
 62
     7
100
AcDbLine
 10
-204.4500000000001
 20
81.84999999999995
 30
0.0
 11
-217.95
 21
81.84999999999995
 31
0.0
  0
ARC
  5
8E
330
1F
100
AcDbEntity
  8
1
  6
CONTINUOUS
 62
     7
100
AcDbCircle
 10
-190.7000000000001
 20
93.59999999999995
 30
0.0
 40
11.75
100
AcDbArc
 50
127.301717721545
 51
180.0
  0
LINE
  5
8F
330
1F
100
AcDbEntity
  8
1
  6
CONTINUOUS
 62
     7
100
AcDbLine
 10
-210.4761806033723
 20
86.84999999999995
 30
0.0
 11
-223.4238193966277
 21
86.84999999999995
 31
0.0
  0
LINE
  5
90
330
1F
100
AcDbEntity
  8
1
  6
CONTINUOUS
 62
     7
100
AcDbLine
 10
-184.4805443904776
 20
105.3499999999999
 30
0.0
 11
-190.7000000000002
 21
105.3499999999999
 31
0.0
  0
LINE
  5
91
330
1F
100
AcDbEntity
  8
1
  6
CONTINUOUS
 62
     7
100
AcDbLine
 10
-190.7000000000002
 20
105.3499999999999
 30
0.0
 11
-192.5136340154732
 21
105.2091873814629
 31
0.0
  0
ARC
  5
92
330
1F
100
AcDbEntity
  8
1
  6
CONTINUOUS
 62
     7
100
AcDbCircle
 10
-190.6999825795922
 20
93.59983235576462
 30
0.0
 40
14.25016764424598
100
AcDbArc
 50
90.00007004239346
 51
101.8648941648703
  0
LINE
  5
93
330
1F
100
AcDbEntity
  8
1
  6
CONTINUOUS
 62
     7
100
AcDbLine
 10
-217.2271546494343
 20
86.85000001342539
 30
0.0
 11
-217.2343113221717
 21
94.84999999999995
 31
0.0
  0
LINE
  5
94
330
1F
100
AcDbEntity
  8
1
  6
CONTINUOUS
 62
     7
100
AcDbLine
 10
-215.8529792574171
 20
94.84999999999995
 30
0.0
 11
-217.2343113221717
 21
94.84999999999995
 31
0.0
  0
LINE
  5
95
330
1F
100
AcDbEntity
  8
1
  6
CONTINUOUS
 62
     7
100
AcDbLine
 10
-215.7940660902207
 20
86.85000011897239
 30
0.0
 11
-215.852979257417
 21
94.84999999999995
 31
0.0
  0
LINE
  5
96
330
1F
100
AcDbEntity
  8
1
  6
CONTINUOUS
 62
     7
100
AcDbLine
 10
-217.2343113221717
 20
94.84999999999995
 30
0.0
 11
-217.9445125060165
 21
94.84999999999995
 31
0.0
  0
LINE
  5
97
330
1F
100
AcDbEntity
  8
1
  6
CONTINUOUS
 62
     7
100
AcDbLine
 10
-217.9445125060165
 20
94.84999999999995
 30
0.0
 11
-218.0179921725227
 21
94.84999999999995
 31
0.0
  0
LINE
  5
98
330
1F
100
AcDbEntity
  8
1
  6
CONTINUOUS
 62
     7
100
AcDbLine
 10
-218.855204687282
 20
86.85000011897239
 30
0.0
 11
-218.8266106276554
 21
94.84999999999995
 31
0.0
  0
LINE
  5
99
330
1F
100
AcDbEntity
  8
1
  6
CONTINUOUS
 62
     7
100
AcDbLine
 10
-218.0179921725227
 20
94.84999999999995
 30
0.0
 11
-218.8266106276554
 21
94.84999999999995
 31
0.0
  0
LINE
  5
9A
330
1F
100
AcDbEntity
  8
1
  6
CONTINUOUS
 62
     7
100
AcDbLine
 10
-190.7000000000001
 20
107.8499999999999
 30
0.0
 11
-184.4741959067877
 21
107.8499999999999
 31
0.0
  0
LINE
  5
9B
330
1F
100
AcDbEntity
  8
1
  6
CONTINUOUS
 62
     7
100
AcDbLine
 10
-214.4309155681951
 20
94.84999999999995
 30
0.0
 11
-215.8529792574171
 21
94.84999999999995
 31
0.0
  0
LINE
  5
9C
330
1F
100
AcDbEntity
  8
1
  6
CONTINUOUS
 62
     7
100
AcDbLine
 10
-213.8185653891044
 20
94.84999999999995
 30
0.0
 11
-214.0020703120616
 21
94.84999999999995
 31
0.0
  0
LINE
  5
9D
330
1F
100
AcDbEntity
  8
1
  6
CONTINUOUS
 62
     7
100
AcDbLine
 10
-213.4123608757042
 20
86.85000001342539
 30
0.0
 11
-213.4816600908795
 21
94.84999999999997
 31
0.0
  0
LINE
  5
9E
330
1F
100
AcDbEntity
  8
1
  6
CONTINUOUS
 62
     7
100
AcDbLine
 10
-213.4816600908795
 20
94.84999999999995
 30
0.0
 11
-213.8185653891044
 21
94.84999999999995
 31
0.0
  0
LINE
  5
9F
330
1F
100
AcDbEntity
  8
1
  6
CONTINUOUS
 62
     7
100
AcDbLine
 10
-218.8266106276554
 20
94.84999999999995
 30
0.0
 11
-220.594053969609
 21
94.84999999999995
 31
0.0
  0
LINE
  5
A0
330
1F
100
AcDbEntity
  8
1
  6
CONTINUOUS
 62
     7
100
AcDbLine
 10
-213.4804611650486
 20
94.84999999999995
 30
0.0
 11
-213.4816600908795
 21
94.84999999999995
 31
0.0
  0
LINE
  5
A1
330
1F
100
AcDbEntity
  8
1
  6
CONTINUOUS
 62
     7
100
AcDbLine
 10
-214.2511317523947
 20
94.84999999999995
 30
0.0
 11
-213.9982836850116
 21
94.84999999999995
 31
0.0
  0
ARC
  5
A2
330
1F
100
AcDbEntity
  8
1
  6
CONTINUOUS
 62
     7
100
AcDbCircle
 10
-178.2000000000001
 20
93.59999999999995
 30
0.0
 40
11.75
100
AcDbArc
 50
0.0
 51
90.0
  0
LINE
  5
A3
330
1F
100
AcDbEntity
  8
1
  6
CONTINUOUS
 62
     7
100
AcDbLine
 10
-166.4500000000002
 20
91.09999999999994
 30
0.0
 11
-166.4500000000002
 21
93.59999999999995
 31
0.0
  0
LINE
  5
A4
330
1F
100
AcDbEntity
  8
1
  6
CONTINUOUS
 62
     7
100
AcDbLine
 10
-178.2000000000001
 20
105.3499999999999
 30
0.0
 11
-184.4805443904776
 21
105.3499999999999
 31
0.0
  0
LINE
  5
A5
330
1F
100
AcDbEntity
  8
1
  6
CONTINUOUS
 62
     7
100
AcDbLine
 10
-163.9500000000002
 20
93.59999999999995
 30
0.0
 11
-163.9500000000002
 21
90.09999999999994
 31
0.0
  0
LINE
  5
A6
330
1F
100
AcDbEntity
  8
1
  6
CONTINUOUS
 62
     7
100
AcDbLine
 10
-220.594053969609
 20
94.84999999999995
 30
0.0
 11
-220.6960771418506
 21
94.84999999999995
 31
0.0
  0
ARC
  5
A7
330
1F
100
AcDbEntity
  8
1
  6
CONTINUOUS
 62
     7
100
AcDbCircle
 10
-178.2000000000001
 20
93.59999999999995
 30
0.0
 40
14.24999999999999
100
AcDbArc
 50
0.0
 51
89.99999999999994
  0
LINE
  5
A8
330
1F
100
AcDbEntity
  8
1
  6
CONTINUOUS
 62
     7
100
AcDbLine
 10
-214.4309155681951
 20
94.84999999999995
 30
0.0
 11
-214.2511317523947
 21
94.84999999999995
 31
0.0
  0
LINE
  5
A9
330
1F
100
AcDbEntity
  8
1
  6
CONTINUOUS
 62
     7
100
AcDbLine
 10
-220.6960771418506
 20
94.84999999999995
 30
0.0
 11
-220.6961817514013
 21
94.84999999999995
 31
0.0
  0
LINE
  5
AA
330
1F
100
AcDbEntity
  8
1
  6
CONTINUOUS
 62
     7
100
AcDbLine
 10
-184.4741959067877
 20
107.8499999999999
 30
0.0
 11
-178.2000000000001
 21
107.8499999999999
 31
0.0
  0
LINE
  5
AB
330
1F
100
AcDbEntity
  8
1
  6
CONTINUOUS
 62
     7
100
AcDbLine
 10
-225.95
 20
84.34999999999995
 30
0.0
 11
-225.95
 21
82.86452463603064
 31
0.0
  0
LINE
  5
AC
330
1F
100
AcDbEntity
  8
1
  6
CONTINUOUS
 62
     7
100
AcDbLine
 10
-225.95
 20
82.86452463603062
 30
0.0
 11
-225.95
 21
82.84999999999995
 31
0.0
  0
LINE
  5
AD
330
1F
100
AcDbEntity
  8
1
  6
CONTINUOUS
 62
     7
100
AcDbLine
 10
-154.95
 20
83.84999999999995
 30
0.0
 11
-161.4782634564868
 21
83.84999999999995
 31
0.0
  0
LINE
  5
AE
330
1F
100
AcDbEntity
  8
1
  6
CONTINUOUS
 62
     7
100
AcDbLine
 10
-154.95
 20
81.84999999999995
 30
0.0
 11
-161.45
 21
81.84999999999995
 31
0.0
  0
LINE
  5
AF
330
1F
100
AcDbEntity
  8
1
  6
CONTINUOUS
 62
     7
100
AcDbLine
 10
-225.95
 20
84.34999999999995
 30
0.0
 11
-225.95
 21
85.34999999999995
 31
0.0
  0
LINE
  5
B0
330
1F
100
AcDbEntity
  8
1
  6
CONTINUOUS
 62
     7
100
AcDbLine
 10
-225.0716536858992
 20
86.34257260727219
 30
0.0
 11
-224.95
 21
86.34999999999995
 31
0.0
  0
LWPOLYLINE
  5
B1
330
1F
100
AcDbEntity
  8
1
  6
CONTINUOUS
 62
     7
100
AcDbPolyline
 90
       42
 70
     0
 43
0.0
 10
225.95
 20
85.34999999999995
 10
225.9495392416022
 20
85.38035299816018
 10
225.9481533761472
 20
85.41074403415985
 10
225.9458420176807
 20
85.44109706812829
 10
225.9426022003013
 20
85.47141199264084
 10
225.9379429811597
 20
85.50481817069516
 10
225.9321615775801
 20
85.53803892024088
 10
225.9252457379163
 20
85.57112383561274
 10
225.9172243909218
 20
85.60392317264471
 10
225.9109283950896
 20
85.62679707279979
 10
225.9041015685307
 20
85.64948321643665
 10
225.8967402633285
 20
85.67199825122606
 10
225.8888615927068
 20
85.69429480062901
 10
225.880412624831
 20
85.71651377539621
 10
225.8714560144959
 20
85.73848270662843
 10
225.8520289358892
 20
85.78167557125536
 10
225.833070963762
 20
85.8192394622798
 10
225.8126218542824
 20
85.85584932194712
 10
225.7906469937123
 20
85.8915834487525
 10
225.7672844182514
 20
85.92623448324738
 10
225.7420906450397
 20
85.96040348134738
 10
225.7155788138747
 20
85.9933421171867
 10
225.6877079443164
 20
86.02511998110937
 10
225.6586381194615
 20
86.05557211937978
 10
225.6383990315753
 20
86.07533218136669
 10
225.617671346733
 20
86.09445615905285
 10
225.5948394544241
 20
86.11431804768564
 10
225.5714867317426
 20
86.13342468831907
 10
225.54759655302
 20
86.15179695672823
 10
225.5232306122755
 20
86.16939408415622
 10
225.4982067735612
 20
86.18634283246863
 10
225.472745439622
 20
86.20248883004666
 10
225.446828332313
 20
86.21784883949401
 10
225.4205173823334
 20
86.2323907257684
 10
225.379015589063
 20
86.2532970853175
 10
225.3366739929219
 20
86.27221647306787
 10
225.2934166858301
 20
86.28918314502292
 10
225.249468918137
 20
86.30410605651046
 10
225.2041029925749
 20
86.31717716534544
 10
225.158178933484
 20
86.32809075839279
 10
225.1116122653265
 20
86.33685433357539
 10
225.0716536858992
 20
86.34257260727219
210
0.0
220
0.0
230
-1.0
  0
LINE
  5
B2
330
1F
100
AcDbEntity
  8
1
  6
CONTINUOUS
 62
     7
100
AcDbLine
 10
-223.4281828305231
 20
86.34999999999995
 30
0.0
 11
-224.95
 21
86.34999999999995
 31
0.0
  0
ARC
  5
B3
330
1F
100
AcDbEntity
  8
1
  6
CONTINUOUS
 62
     7
100
AcDbCircle
 10
-201.9500000000001
 20
84.39289321881344
 30
0.0
 40
0.5000000000000004
100
AcDbArc
 50
134.9999999999998
 51
180.0000000000002
  0
LINE
  5
B4
330
1F
100
AcDbEntity
  8
1
  6
CONTINUOUS
 62
     7
100
AcDbLine
 10
-168.0895994156156
 20
87.61962935186108
 30
0.0
 11
-168.0998227741761
 21
87.87201703402569
 31
0.0
  0
ARC
  5
B5
330
1F
100
AcDbEntity
  8
1
  6
CONTINUOUS
 62
     7
100
AcDbCircle
 10
-204.8042599814174
 20
87.90741818097638
 30
0.0
 40
4.004239247952616
100
AcDbArc
 50
337.4232728940285
 51
359.4934461682739
  0
ARC
  5
B6
330
1F
100
AcDbEntity
  8
1
  6
CONTINUOUS
 62
     7
100
AcDbCircle
 10
-204.7998341968794
 20
87.9070200526131
 30
0.0
 40
4.000000000000002
100
AcDbArc
 50
315.0
 51
337.4042001283452
  0
LINE
  5
B7
330
1F
100
AcDbEntity
  8
1
  6
CONTINUOUS
 62
     7
100
AcDbLine
 10
-200.7500000000001
 20
93.59999999999935
 30
0.0
 11
-200.7865386312022
 21
89.41308757298455
 31
0.0
  0
LINE
  5
B8
330
1F
100
AcDbEntity
  8
1
  6
CONTINUOUS
 62
     7
100
AcDbLine
 10
-200.8001772258242
 20
87.87201703402575
 30
0.0
 11
-200.7865386312022
 21
89.41308757298454
 31
0.0
  0
ARC
  5
B9
330
1F
100
AcDbEntity
  8
1
  6
CONTINUOUS
 62
     7
100
AcDbCircle
 10
-190.7000000000001
 20
93.59999999999995
 30
0.0
 40
10.05
100
AcDbArc
 50
89.99999999999996
 51
180.0000000000034
  0
LINE
  5
BA
330
1F
100
AcDbEntity
  8
1
  6
CONTINUOUS
 62
     7
100
AcDbLine
 10
-168.1134613687981
 20
89.4130875729844
 30
0.0
 11
-168.0998227741761
 21
87.87201703402569
 31
0.0
  0
LINE
  5
BB
330
1F
100
AcDbEntity
  8
1
  6
CONTINUOUS
 62
     7
100
AcDbLine
 10
-168.1134613687981
 20
89.41308757298438
 30
0.0
 11
-168.1500000000001
 21
93.60000000000151
 31
0.0
  0
ARC
  5
BC
330
1F
100
AcDbEntity
  8
1
  6
CONTINUOUS
 62
     7
100
AcDbCircle
 10
-178.2000000000001
 20
93.59999999999995
 30
0.0
 40
10.04999999999999
100
AcDbArc
 50
0.0000000000089206
 51
89.99999999999991
  0
LINE
  5
BD
330
1F
100
AcDbEntity
  8
1
  6
CONTINUOUS
 62
     7
100
AcDbLine
 10
-178.2000000000001
 20
103.6499999999999
 30
0.0
 11
-190.7000000000001
 21
103.6499999999999
 31
0.0
  0
LINE
  5
BE
330
1F
100
AcDbEntity
  8
1
  6
CONTINUOUS
 62
     7
100
AcDbLine
 10
-201.9714070721332
 20
85.07859292786694
 30
0.0
 11
-202.3035533905934
 21
84.7464466094067
 31
0.0
  0
LINE
  5
BF
330
1F
100
AcDbEntity
  8
1
  6
CONTINUOUS
 62
     7
100
AcDbLine
 10
-210.4718171694769
 20
86.34999999999995
 30
0.0
 11
-209.8231242204222
 21
86.34999999999995
 31
0.0
  0
LINE
  5
C0
330
1F
100
AcDbEntity
  8
1
  6
CONTINUOUS
 62
     7
100
AcDbLine
 10
-209.8231242204222
 20
86.34999999999995
 30
0.0
 11
-207.2000000000002
 21
86.34999999999995
 31
0.0
  0
LINE
  5
C1
330
1F
100
AcDbEntity
  8
1
  6
CONTINUOUS
 62
     7
100
AcDbLine
 10
-154.95
 20
83.84999999999995
 30
0.0
 11
-153.95
 21
83.84999999999995
 31
0.0
  0
LINE
  5
C2
330
1F
100
AcDbEntity
  8
1
  6
CONTINUOUS
 62
     7
100
AcDbLine
 10
-153.95
 20
83.84999999999995
 30
0.0
 11
-144.95
 21
83.84999999999995
 31
0.0
  0
LINE
  5
C3
330
1F
100
AcDbEntity
  8
1
  6
CONTINUOUS
 62
     7
100
AcDbLine
 10
-153.95
 20
81.84999999999995
 30
0.0
 11
-143.95
 21
81.84999999999995
 31
0.0
  0
LINE
  5
C4
330
1F
100
AcDbEntity
  8
1
  6
CONTINUOUS
 62
     7
100
AcDbLine
 10
-154.95
 20
81.84999999999995
 30
0.0
 11
-153.95
 21
81.84999999999995
 31
0.0
  0
LINE
  5
C5
330
1F
100
AcDbEntity
  8
1
  6
CONTINUOUS
 62
     7
100
AcDbLine
 10
-224.4586513684422
 20
90.34999999999994
 30
0.0
 11
-220.7354526564597
 21
90.34999999999994
 31
0.0
  0
LINE
  5
C6
330
1F
100
AcDbEntity
  8
1
  6
CONTINUOUS
 62
     7
100
AcDbLine
 10
-213.4411902599902
 20
90.34999999999994
 30
0.0
 11
-209.4413486315579
 21
90.34999999999994
 31
0.0
  0
LINE
  5
C7
330
1F
100
AcDbEntity
  8
1
  6
CONTINUOUS
 62
     7
100
AcDbLine
 10
-158.415092528837
 20
87.84999999999995
 30
0.0
 11
-158.3990020722877
 21
87.84999999999995
 31
0.0
  0
LINE
  5
C8
330
1F
100
AcDbEntity
  8
1
  6
CONTINUOUS
 62
     7
100
AcDbLine
 10
-156.8581343977849
 20
86.84999999996657
 30
0.0
 11
-156.8324634231499
 21
87.84999999996687
 31
0.0
  0
LINE
  5
C9
330
1F
100
AcDbEntity
  8
1
  6
CONTINUOUS
 62
     7
100
AcDbLine
 10
-156.8324634231495
 20
87.84999999999995
 30
0.0
 11
-156.1878027712521
 21
87.84999999999995
 31
0.0
  0
LINE
  5
CA
330
1F
100
AcDbEntity
  8
1
  6
CONTINUOUS
 62
     7
100
AcDbLine
 10
-156.187802771253
 20
87.84999999994044
 30
0.0
 11
-156.1714398388995
 21
86.84999999994471
 31
0.0
  0
LINE
  5
CB
330
1F
100
AcDbEntity
  8
1
  6
CONTINUOUS
 62
     7
100
AcDbLine
 10
-152.4355663791922
 20
86.84999999999995
 30
0.0
 11
-156.1714398388985
 21
86.84999999999995
 31
0.0
  0
LINE
  5
CC
330
1F
100
AcDbEntity
  8
1
  6
CONTINUOUS
 62
     7
100
AcDbLine
 10
-152.4355663791921
 20
86.84999999994015
 30
0.0
 11
-152.4058439185207
 21
87.84999999994042
 31
0.0
  0
LINE
  5
CD
330
1F
100
AcDbEntity
  8
1
  6
CONTINUOUS
 62
     7
100
AcDbLine
 10
-152.4058439185208
 20
87.84999999999995
 30
0.0
 11
-151.4941560814792
 21
87.84999999999995
 31
0.0
  0
LINE
  5
CE
330
1F
100
AcDbEntity
  8
1
  6
CONTINUOUS
 62
     7
100
AcDbLine
 10
-151.4941560814793
 20
87.84999999998121
 30
0.0
 11
-151.464433620808
 21
86.84999999998216
 31
0.0
  0
LINE
  5
CF
330
1F
100
AcDbEntity
  8
1
  6
CONTINUOUS
 62
     7
100
AcDbLine
 10
-147.7285601611016
 20
86.84999999999995
 30
0.0
 11
-151.4644336208079
 21
86.84999999999995
 31
0.0
  0
LINE
  5
D0
330
1F
100
AcDbEntity
  8
1
  6
CONTINUOUS
 62
     7
100
AcDbLine
 10
-147.7285601611013
 20
86.84999999998001
 30
0.0
 11
-147.7121972287477
 21
87.84999999998007
 31
0.0
  0
LINE
  5
D1
330
1F
100
AcDbEntity
  8
1
  6
CONTINUOUS
 62
     7
100
AcDbLine
 10
-147.712197228748
 20
87.84999999999995
 30
0.0
 11
-147.0675365768506
 21
87.84999999999995
 31
0.0
  0
LINE
  5
D2
330
1F
100
AcDbEntity
  8
1
  6
CONTINUOUS
 62
     7
100
AcDbLine
 10
-147.0675365768498
 20
87.8499999999378
 30
0.0
 11
-147.0418656022149
 21
86.84999999994156
 31
0.0
  0
LINE
  5
D3
330
1F
100
AcDbEntity
  8
1
  6
CONTINUOUS
 62
     7
100
AcDbLine
 10
-145.4944161478956
 20
86.84999999999995
 30
0.0
 11
-147.0418656022156
 21
86.84999999999995
 31
0.0
  0
LINE
  5
D4
330
1F
100
AcDbEntity
  8
1
  6
CONTINUOUS
 62
     7
100
AcDbLine
 10
-145.4944161478944
 20
86.84999999994032
 30
0.0
 11
-145.5009979277112
 21
87.84999999994058
 31
0.0
  0
LINE
  5
D5
330
1F
100
AcDbEntity
  8
1
  6
CONTINUOUS
 62
     7
100
AcDbLine
 10
-145.5009979277123
 20
87.84999999999995
 30
0.0
 11
-145.4849074711631
 21
87.84999999999995
 31
0.0
  0
LINE
  5
D6
330
1F
100
AcDbEntity
  8
1
  6
CONTINUOUS
 62
     7
100
AcDbLine
 10
-158.3990020722883
 20
87.8499999999773
 30
0.0
 11
-158.4055838521051
 21
86.84999999997397
 31
0.0
  0
LINE
  5
D7
330
1F
100
AcDbEntity
  8
1
  6
CONTINUOUS
 62
     7
100
AcDbLine
 10
-156.8581343977844
 20
86.84999999999995
 30
0.0
 11
-158.4055838521045
 21
86.84999999999995
 31
0.0
  0
LINE
  5
D8
330
1F
100
AcDbEntity
  8
1
  6
CONTINUOUS
 62
     7
100
AcDbLine
 10
-151.4941560814792
 20
87.84999999999995
 30
0.0
 11
-147.712197228748
 21
87.84999999999995
 31
0.0
  0
LINE
  5
D9
330
1F
100
AcDbEntity
  8
1
  6
CONTINUOUS
 62
     7
100
AcDbLine
 10
-156.1878027712521
 20
87.84999999999995
 30
0.0
 11
-152.4058439185208
 21
87.84999999999995
 31
0.0
  0
LINE
  5
DA
330
1F
100
AcDbEntity
  8
1
  6
CONTINUOUS
 62
     7
100
AcDbLine
 10
-221.9755177166426
 20
96.34999999999995
 30
0.0
 11
-211.9244822833575
 21
96.34999999999995
 31
0.0
  0
LINE
  5
DB
330
1F
100
AcDbEntity
  8
1
  6
CONTINUOUS
 62
     7
100
AcDbLine
 10
-158.3990020722877
 20
87.84999999999995
 30
0.0
 11
-156.8324634231495
 21
87.84999999999995
 31
0.0
  0
LINE
  5
DC
330
1F
100
AcDbEntity
  8
1
  6
CONTINUOUS
 62
     7
100
AcDbLine
 10
-147.0675365768506
 20
87.84999999999995
 30
0.0
 11
-145.5009979277123
 21
87.84999999999995
 31
0.0
  0
LINE
  5
DD
330
1F
100
AcDbEntity
  8
1
  6
CONTINUOUS
 62
     7
100
AcDbLine
 10
-152.2280435458511
 20
87.85000000241878
 30
0.0
 11
-152.2343113221717
 21
94.84999999999995
 31
0.0
  0
LINE
  5
DE
330
1F
100
AcDbEntity
  8
1
  6
CONTINUOUS
 62
     7
100
AcDbLine
 10
-150.8529792574171
 20
94.84999999999995
 30
0.0
 11
-152.2343113221717
 21
94.84999999999995
 31
0.0
  0
LINE
  5
DF
330
1F
100
AcDbEntity
  8
1
  6
CONTINUOUS
 62
     7
100
AcDbLine
 10
-150.8014053870776
 20
87.85000002146603
 30
0.0
 11
-150.8529792574171
 21
94.84999999999997
 31
0.0
  0
LINE
  5
E0
330
1F
100
AcDbEntity
  8
1
  6
CONTINUOUS
 62
     7
100
AcDbLine
 10
-152.2343113221717
 20
94.84999999999995
 30
0.0
 11
-152.9445125060165
 21
94.84999999999995
 31
0.0
  0
LINE
  5
E1
330
1F
100
AcDbEntity
  8
1
  6
CONTINUOUS
 62
     7
100
AcDbLine
 10
-152.9445125060165
 20
94.84999999999995
 30
0.0
 11
-153.0179921725227
 21
94.84999999999995
 31
0.0
  0
LINE
  5
E2
330
1F
100
AcDbEntity
  8
1
  6
CONTINUOUS
 62
     7
100
AcDbLine
 10
-153.8516336272924
 20
87.85000002146603
 30
0.0
 11
-153.8266106276554
 21
94.84999999999997
 31
0.0
  0
LINE
  5
E3
330
1F
100
AcDbEntity
  8
1
  6
CONTINUOUS
 62
     7
100
AcDbLine
 10
-153.0179921725227
 20
94.84999999999995
 30
0.0
 11
-153.8266106276554
 21
94.84999999999995
 31
0.0
  0
LINE
  5
E4
330
1F
100
AcDbEntity
  8
1
  6
CONTINUOUS
 62
     7
100
AcDbLine
 10
-149.4309155681951
 20
94.84999999999995
 30
0.0
 11
-150.8529792574171
 21
94.84999999999995
 31
0.0
  0
LINE
  5
E5
330
1F
100
AcDbEntity
  8
1
  6
CONTINUOUS
 62
     7
100
AcDbLine
 10
-148.8185653891044
 20
94.84999999999995
 30
0.0
 11
-149.0020703120616
 21
94.84999999999995
 31
0.0
  0
LINE
  5
E6
330
1F
100
AcDbEntity
  8
1
  6
CONTINUOUS
 62
     7
100
AcDbLine
 10
-148.4210190305349
 20
87.85000000241878
 30
0.0
 11
-148.4816600908795
 21
94.84999999999997
 31
0.0
  0
LINE
  5
E7
330
1F
100
AcDbEntity
  8
1
  6
CONTINUOUS
 62
     7
100
AcDbLine
 10
-148.4816600908795
 20
94.84999999999995
 30
0.0
 11
-148.8185653891044
 21
94.84999999999995
 31
0.0
  0
LINE
  5
E8
330
1F
100
AcDbEntity
  8
1
  6
CONTINUOUS
 62
     7
100
AcDbLine
 10
-153.8266106276554
 20
94.84999999999995
 30
0.0
 11
-155.594053969609
 21
94.84999999999995
 31
0.0
  0
LINE
  5
E9
330
1F
100
AcDbEntity
  8
1
  6
CONTINUOUS
 62
     7
100
AcDbLine
 10
-148.4804611650486
 20
94.84999999999995
 30
0.0
 11
-148.4816600908795
 21
94.84999999999995
 31
0.0
  0
LINE
  5
EA
330
1F
100
AcDbEntity
  8
1
  6
CONTINUOUS
 62
     7
100
AcDbLine
 10
-149.2511317523947
 20
94.84999999999995
 30
0.0
 11
-148.9982836850116
 21
94.84999999999995
 31
0.0
  0
ARC
  5
EB
330
1F
100
AcDbEntity
  8
1
  6
CONTINUOUS
 62
     7
100
AcDbCircle
 10
-224.95
 20
85.34999999999995
 30
0.0
 40
1.000000000000001
100
AcDbArc
 50
96.29869505060225
 51
98.17793914943229
  0
LINE
  5
EC
330
1F
100
AcDbEntity
  8
1
  6
CONTINUOUS
 62
     7
100
AcDbLine
 10
-155.594053969609
 20
94.84999999999995
 30
0.0
 11
-155.6960771418506
 21
94.84999999999995
 31
0.0
  0
LINE
  5
ED
330
1F
100
AcDbEntity
  8
1
  6
CONTINUOUS
 62
     7
100
AcDbLine
 10
-149.4309155681951
 20
94.84999999999995
 30
0.0
 11
-149.2511317523947
 21
94.84999999999995
 31
0.0
  0
LINE
  5
EE
330
1F
100
AcDbEntity
  8
1
  6
CONTINUOUS
 62
     7
100
AcDbLine
 10
-155.6960771418506
 20
94.84999999999995
 30
0.0
 11
-155.6961817514013
 21
94.84999999999995
 31
0.0
  0
ARC
  5
EF
330
1F
100
AcDbEntity
  8
1
  6
CONTINUOUS
 62
     7
100
AcDbCircle
 10
-190.7000000000002
 20
93.59999999999995
 30
0.0
 40
11.74999999999999
100
AcDbArc
 50
210.6020064555821
 51
218.0722254136427
  0
LINE
  5
F0
330
1F
100
AcDbEntity
  8
1
  6
CONTINUOUS
 62
     7
100
AcDbLine
 10
-199.9500000000002
 20
86.35431162690521
 30
0.0
 11
-199.9500000000002
 21
85.78094809746477
 31
0.0
  0
ARC
  5
F1
330
1F
100
AcDbEntity
  8
1
  6
CONTINUOUS
 62
     7
100
AcDbCircle
 10
-200.9500000000002
 20
85.78094809746477
 30
0.0
 40
1.0
100
AcDbArc
 50
313.3729315261638
 51
0.0
  0
LINE
  5
F2
330
1F
100
AcDbEntity
  8
1
  6
CONTINUOUS
 62
     7
100
AcDbLine
 10
-200.263255824432
 20
85.05404890409385
 30
0.0
 11
-203.0765098155647
 21
82.39620334528307
 31
0.0
  0
LINE
  5
F3
330
1F
100
AcDbEntity
  8
1
  6
CONTINUOUS
 62
     7
100
AcDbLine
 10
-208.8815975781361
 20
86.4312278759635
 30
0.0
 11
-205.3955785263778
 21
90.57087549992643
 31
0.0
  0
LINE
  5
F4
330
1F
100
AcDbEntity
  8
1
  6
CONTINUOUS
 62
     7
100
AcDbLine
 10
-205.3955785263778
 20
90.57087549992642
 30
0.0
 11
-204.9500767760346
 21
90.9788318271071
 31
0.0
  0
LINE
  5
F5
330
1F
100
AcDbEntity
  8
1
  6
CONTINUOUS
 62
     7
100
AcDbLine
 10
-163.9500000000001
 20
88.84999999999995
 30
0.0
 11
-159.4500000000001
 21
83.84999999999995
 31
0.0
  0
LINE
  5
F6
330
1F
100
AcDbEntity
  8
1
  6
CONTINUOUS
 62
     7
100
AcDbLine
 10
-210.45
 20
83.84999999999995
 30
0.0
 11
-210.4761806033723
 21
86.84999999999995
 31
0.0
  0
LINE
  5
F7
330
1F
100
AcDbEntity
  8
1
  6
CONTINUOUS
 62
     7
100
AcDbLine
 10
-223.4238193966277
 20
86.84999999999995
 30
0.0
 11
-223.45
 21
83.84999999999995
 31
0.0
  0
LINE
  5
F8
330
1F
100
AcDbEntity
  8
1
  6
CONTINUOUS
 62
     7
100
AcDbLine
 10
-218.0179921725227
 20
94.84999999999995
 30
0.0
 11
-218.0878071148488
 21
86.84999999999995
 31
0.0
  0
LINE
  5
F9
330
1F
100
AcDbEntity
  8
1
  6
CONTINUOUS
 62
     7
100
AcDbLine
 10
-214.0020703120617
 20
94.84999999999995
 30
0.0
 11
-214.0718852543878
 21
86.84999999999995
 31
0.0
  0
LINE
  5
FA
330
1F
100
AcDbEntity
  8
1
  6
CONTINUOUS
 62
     7
100
AcDbLine
 10
-213.4106462227225
 20
86.84999999999995
 30
0.0
 11
-213.4804611650486
 21
94.84999999999997
 31
0.0
  0
LINE
  5
FB
330
1F
100
AcDbEntity
  8
1
  6
CONTINUOUS
 62
     7
100
AcDbLine
 10
-220.6961817514013
 20
94.84999999999995
 30
0.0
 11
-220.7659966937273
 21
86.84999999999995
 31
0.0
  0
LINE
  5
FC
330
1F
100
AcDbEntity
  8
1
  6
CONTINUOUS
 62
     7
100
AcDbLine
 10
-224.9463440877201
 20
86.34989678391564
 30
0.0
 11
-224.9475036776506
 21
86.34997474603297
 31
0.0
  0
LINE
  5
FD
330
1F
100
AcDbEntity
  8
1
  6
CONTINUOUS
 62
     7
100
AcDbLine
 10
-224.9475036776506
 20
86.34997474603297
 30
0.0
 11
-224.95
 21
86.34999999999995
 31
0.0
  0
ARC
  5
FE
330
1F
100
AcDbEntity
  8
1
  6
CONTINUOUS
 62
     7
100
AcDbCircle
 10
-144.95
 20
82.84999999999995
 30
0.0
 40
1.000000000000001
100
AcDbArc
 50
0.0
 51
90.0
  0
LINE
  5
FF
330
1F
100
AcDbEntity
  8
1
  6
CONTINUOUS
 62
     7
100
AcDbLine
 10
-143.95
 20
81.84999999999995
 30
0.0
 11
-143.95
 21
82.84999999999995
 31
0.0
  0
LINE
  5
100
330
1F
100
AcDbEntity
  8
1
  6
CONTINUOUS
 62
     7
100
AcDbLine
 10
-208.8801797402872
 20
86.34999999999995
 30
0.0
 11
-208.9414247839797
 21
89.85872620321858
 31
0.0
  0
LINE
  5
101
330
1F
100
AcDbEntity
  8
1
  6
CONTINUOUS
 62
     7
100
AcDbLine
 10
-224.9585752160204
 20
89.85872620321858
 30
0.0
 11
-225.0198202597129
 21
86.34999999999995
 31
0.0
  0
ARC
  5
102
330
1F
100
AcDbEntity
  8
1
  6
CONTINUOUS
 62
     7
100
AcDbCircle
 10
-209.4413486315579
 20
89.84999999999994
 30
0.0
 40
0.4999999999999986
100
AcDbArc
 50
0.9999999999986544
 51
90.0
  0
ARC
  5
103
330
1F
100
AcDbEntity
  8
1
  6
CONTINUOUS
 62
     7
100
AcDbCircle
 10
-224.4586513684422
 20
89.84999999999994
 30
0.0
 40
0.5000000000000004
100
AcDbArc
 50
90.0
 51
179.0000000000013
  0
LINE
  5
104
330
1F
100
AcDbEntity
  8
1
  6
CONTINUOUS
 62
     7
100
AcDbLine
 10
-145.45
 20
83.84999999999995
 30
0.0
 11
-145.484907471163
 21
87.84999999999995
 31
0.0
  0
LINE
  5
105
330
1F
100
AcDbEntity
  8
1
  6
CONTINUOUS
 62
     7
100
AcDbLine
 10
-158.415092528837
 20
87.84999999999995
 30
0.0
 11
-158.45
 21
83.84999999999995
 31
0.0
  0
LINE
  5
106
330
1F
100
AcDbEntity
  8
1
  6
CONTINUOUS
 62
     7
100
AcDbLine
 10
-211.1355533243018
 20
90.34999999999994
 30
0.0
 11
-211.4251675159802
 21
95.8761679781214
 31
0.0
  0
LINE
  5
107
330
1F
100
AcDbEntity
  8
1
  6
CONTINUOUS
 62
     7
100
AcDbLine
 10
-222.4748324840199
 20
95.87616797812142
 30
0.0
 11
-222.7644466756983
 21
90.34999999999995
 31
0.0
  0
ARC
  5
108
330
1F
100
AcDbEntity
  8
1
  6
CONTINUOUS
 62
     7
100
AcDbCircle
 10
-211.9244822833575
 20
95.84999999999995
 30
0.0
 40
0.5000000000000001
100
AcDbArc
 50
2.999999999999194
 51
90.00000000000004
  0
ARC
  5
109
330
1F
100
AcDbEntity
  8
1
  6
CONTINUOUS
 62
     7
100
AcDbCircle
 10
-221.9755177166426
 20
95.84999999999995
 30
0.0
 40
0.5000000000000004
100
AcDbArc
 50
90.0
 51
177.0000000000009
  0
LINE
  5
10A
330
1F
100
AcDbEntity
  8
1
  6
CONTINUOUS
 62
     7
100
AcDbLine
 10
-153.0179921725227
 20
94.84999999999995
 30
0.0
 11
-153.079080247058
 21
87.84999999999994
 31
0.0
  0
LINE
  5
10B
330
1F
100
AcDbEntity
  8
1
  6
CONTINUOUS
 62
     7
100
AcDbLine
 10
-149.0020703120617
 20
94.84999999999995
 30
0.0
 11
-149.063158386597
 21
87.84999999999994
 31
0.0
  0
LINE
  5
10C
330
1F
100
AcDbEntity
  8
1
  6
CONTINUOUS
 62
     7
100
AcDbLine
 10
-148.4193730905133
 20
87.84999999999995
 30
0.0
 11
-148.4804611650486
 21
94.84999999999997
 31
0.0
  0
LINE
  5
10D
330
1F
100
AcDbEntity
  8
1
  6
CONTINUOUS
 62
     7
100
AcDbLine
 10
-155.6961817514013
 20
94.84999999999995
 30
0.0
 11
-155.7572698259366
 21
87.84999999999994
 31
0.0
  0
LINE
  5
10E
330
1F
100
AcDbEntity
  8
1
  6
CONTINUOUS
 62
     7
100
AcDbLine
 10
-204.9500000000001
 20
126.0
 30
0.0
 11
-204.9500000000001
 21
156.3676082057945
 31
0.0
  0
LINE
  5
10F
330
1F
100
AcDbEntity
  8
1
  6
CONTINUOUS
 62
     7
100
AcDbLine
 10
-163.9500000000002
 20
133.6323917942055
 30
0.0
 11
-163.9500000000002
 21
164.0
 31
0.0
  0
ARC
  5
110
330
1F
100
AcDbEntity
  8
1
  6
CONTINUOUS
 62
     7
100
AcDbCircle
 10
-184.4207838366377
 20
165.7491442240048
 30
0.0
 40
8.995955176842642
100
AcDbArc
 50
270.0084595584021
 51
313.7496771465822
  0
ARC
  5
111
330
1F
100
AcDbEntity
  8
1
  6
CONTINUOUS
 62
     7
100
AcDbCircle
 10
-184.4267057864191
 20
165.748638271784
 30
0.0
 40
8.999685964500841
100
AcDbArc
 50
313.7791390080178
 51
333.3039372403872
  0
ARC
  5
112
330
1F
100
AcDbEntity
  8
1
  6
CONTINUOUS
 62
     7
100
AcDbCircle
 10
-184.4792161633627
 20
124.2508557759952
 30
0.0
 40
8.995955176842573
100
AcDbArc
 50
90.00845955840182
 51
133.7496771465822
  0
ARC
  5
113
330
1F
100
AcDbEntity
  8
1
  6
CONTINUOUS
 62
     7
100
AcDbCircle
 10
-184.4729908536937
 20
124.2511375938744
 30
0.0
 40
9.000057681195894
100
AcDbArc
 50
133.7795461580707
 51
153.3035300903337
  0
ARC
  5
114
330
1F
100
AcDbEntity
  8
1
  6
CONTINUOUS
 62
     7
100
AcDbCircle
 10
-197.8470422887483
 20
130.9641931052755
 30
0.0
 40
5.964251526476507
100
AcDbArc
 50
270.2535976647065
 51
333.4096026092832
  0
ARC
  5
115
330
1F
100
AcDbEntity
  8
1
  6
CONTINUOUS
 62
     7
100
AcDbCircle
 10
-171.052957711252
 20
159.0358068947245
 30
0.0
 40
5.964251526476512
100
AcDbArc
 50
90.25359766470626
 51
153.4096026092826
  0
LINE
  5
116
330
1F
100
AcDbEntity
  8
1
  6
CONTINUOUS
 62
     7
100
AcDbLine
 10
-166.4500000000002
 20
132.5
 30
0.0
 11
-166.4500000000002
 21
132.6310194482076
 31
0.0
  0
LWPOLYLINE
  5
117
330
1F
100
AcDbEntity
  8
1
  6
CONTINUOUS
 62
     7
100
AcDbPolyline
 90
        9
 70
     0
 43
0.0
 10
-166.4500000000001
 20
132.6310194482076
 10
-166.6757729552622
 20
132.7511543920112
 10
-167.3444154929925
 20
132.8666726172969
 10
-168.4302320554452
 20
132.9731348234504
 10
-169.8914953210582
 20
133.0664497275937
 10
-171.6720497620198
 20
133.1430312902924
 10
-173.7034696697103
 20
133.1999365250393
 10
-175.9076887163106
 20
133.2349785955759
 10
-178.2000000000001
 20
133.2468108547833
  0
LINE
  5
118
330
1F
100
AcDbEntity
  8
1
  6
CONTINUOUS
 62
     7
100
AcDbLine
 10
-178.2000000000001
 20
133.2468108547833
 30
0.0
 11
-184.4805443904776
 21
133.2468108547833
 31
0.0
  0
LINE
  5
119
330
1F
100
AcDbEntity
  8
1
  6
CONTINUOUS
 62
     7
100
AcDbLine
 10
-164.9500000000002
 20
132.5
 30
0.0
 11
-166.4500000000002
 21
132.5
 31
0.0
  0
LINE
  5
11A
330
1F
100
AcDbEntity
  8
1
  6
CONTINUOUS
 62
     7
100
AcDbLine
 10
-202.4500000000001
 20
157.5
 30
0.0
 11
-202.4500000000001
 21
157.3689805517924
 31
0.0
  0
LWPOLYLINE
  5
11B
330
1F
100
AcDbEntity
  8
1
  6
CONTINUOUS
 62
     7
100
AcDbPolyline
 90
        9
 70
     0
 43
0.0
 10
-202.4500000000001
 20
157.3689805517924
 10
-202.2242270447381
 20
157.2488456079888
 10
-201.5555845070078
 20
157.1333273827031
 10
-200.4697679445551
 20
157.0268651765497
 10
-199.0085046789421
 20
156.9335502724063
 10
-197.2279502379805
 20
156.8569687097077
 10
-195.19653033029
 20
156.8000634749608
 10
-192.9923112836896
 20
156.7650214044242
 10
-190.7000000000001
 20
156.7531891452167
  0
LINE
  5
11C
330
1F
100
AcDbEntity
  8
1
  6
CONTINUOUS
 62
     7
100
AcDbLine
 10
-190.7000000000002
 20
156.7531891452167
 30
0.0
 11
-184.4194556095227
 21
156.7531891452167
 31
0.0
  0
LINE
  5
11D
330
1F
100
AcDbEntity
  8
1
  6
CONTINUOUS
 62
     7
100
AcDbLine
 10
-203.9500000000001
 20
157.5
 30
0.0
 11
-202.4500000000002
 21
157.5
 31
0.0
  0
LINE
  5
11E
330
1F
100
AcDbEntity
  8
1
  6
CONTINUOUS
 62
     7
100
AcDbLine
 10
-197.8602120536248
 20
125.0
 30
0.0
 11
-203.9500000000001
 21
125.0
 31
0.0
  0
ARC
  5
11F
330
1F
100
AcDbEntity
  8
1
  6
CONTINUOUS
 62
     7
100
AcDbCircle
 10
-203.9500000000002
 20
126.0
 30
0.0
 40
1.000000000000001
100
AcDbArc
 50
180.0
 51
270.0000000000005
  0
LINE
  5
120
330
1F
100
AcDbEntity
  8
1
  6
CONTINUOUS
 62
     7
100
AcDbLine
 10
-171.0397879463753
 20
165.0
 30
0.0
 11
-164.9500000000002
 21
165.0
 31
0.0
  0
ARC
  5
121
330
1F
100
AcDbEntity
  8
1
  6
CONTINUOUS
 62
     7
100
AcDbCircle
 10
-164.9500000000002
 20
164.0
 30
0.0
 40
1.000000000000001
100
AcDbArc
 50
0.0
 51
90.0000000000004
  0
CIRCLE
  5
122
330
1F
100
AcDbEntity
  8
1
  6
CONTINUOUS
 62
     7
100
AcDbCircle
 10
-216.95
 20
155.0
 30
0.0
 40
5.814446675698248
  0
ARC
  5
123
330
1F
100
AcDbEntity
  8
1
  6
CONTINUOUS
 62
     7
100
AcDbCircle
 10
-216.6686228048814
 20
130.839839878115
 30
0.0
 40
0.0040044543016709
100
AcDbArc
 50
322.9599334811009
 51
96.0379829668343
  0
ARC
  5
124
330
1F
100
AcDbEntity
  8
1
  6
CONTINUOUS
 62
     7
100
AcDbCircle
 10
-217.7861230628456
 20
131.6831625764043
 30
0.0
 40
2.095995545698354
100
AcDbArc
 50
285.5424212839729
 51
343.9242205568318
  0
CIRCLE
  5
125
330
1F
100
AcDbEntity
  8
1
  6
CONTINUOUS
 62
     7
100
AcDbCircle
 10
-216.95
 20
133.5
 30
0.0
 40
1.92982067789714
  0
ARC
  5
126
330
1F
100
AcDbEntity
  8
1
  6
CONTINUOUS
 62
     7
100
AcDbCircle
 10
-217.7861230628456
 20
131.6831625764043
 30
0.0
 40
1.404004454301647
100
AcDbArc
 50
286.016005386661
 51
322.9599334811436
  0
ARC
  5
127
330
1F
100
AcDbEntity
  8
1
  6
CONTINUOUS
 62
     7
100
AcDbCircle
 10
-216.95
 20
133.5
 30
0.0
 40
3.845995545698335
100
AcDbArc
 50
254.6209646607257
 51
265.9071914951129
  0
ARC
  5
128
330
1F
100
AcDbEntity
  8
1
  6
CONTINUOUS
 62
     7
100
AcDbCircle
 10
-217.9179921725227
 20
129.9806973483466
 30
0.0
 40
0.1959955456983512
100
AcDbArc
 50
106.0160053866601
 51
254.6209646607273
  0
LINE
  5
129
330
1F
100
AcDbEntity
  8
1
  6
CONTINUOUS
 62
     7
100
AcDbLine
 10
-217.9720684941408
 20
130.1690852603098
 30
0.0
 11
-217.3987499919245
 21
130.333655032289
 31
0.0
  0
ARC
  5
12A
330
1F
100
AcDbEntity
  8
1
  6
CONTINUOUS
 62
     7
100
AcDbCircle
 10
-216.95
 20
133.5
 30
0.0
 40
2.670995545698334
100
AcDbArc
 50
224.1677565069252
 51
276.0379829668
  0
LINE
  5
12B
330
1F
100
AcDbEntity
  8
1
  6
CONTINUOUS
 62
     7
100
AcDbLine
 10
-218.0809917794585
 20
136.7955234189121
 30
0.0
 11
-218.4480845059985
 21
136.3253955161513
 31
0.0
  0
ARC
  5
12C
330
1F
100
AcDbEntity
  8
1
  6
CONTINUOUS
 62
     7
100
AcDbCircle
 10
-150.2056519893666
 20
155.9783915462631
 30
0.0
 40
2.095995545698332
100
AcDbArc
 50
69.54242128397287
 51
127.9242205568319
  0
ARC
  5
12D
330
1F
100
AcDbEntity
  8
1
  6
CONTINUOUS
 62
     7
100
AcDbCircle
 10
-215.4804611650486
 20
132.1433660727486
 30
0.0
 40
1.404004454301654
100
AcDbArc
 50
358.0160053866609
 51
34.95993348114354
  0
ARC
  5
12E
330
1F
100
AcDbEntity
  8
1
  6
CONTINUOUS
 62
     7
100
AcDbCircle
 10
-217.3414724761717
 20
135.4613131571475
 30
0.0
 40
2.095995545698345
100
AcDbArc
 50
141.542421283973
 51
199.9242205568319
  0
LINE
  5
12F
330
1F
100
AcDbEntity
  8
1
  6
CONTINUOUS
 62
     7
100
AcDbLine
 10
-220.4337247025107
 20
133.4427356400743
 30
0.0
 11
-220.1000443881102
 21
132.9483321989309
 31
0.0
  0
CIRCLE
  5
130
330
1F
100
AcDbEntity
  8
1
  6
CONTINUOUS
 62
     7
100
AcDbCircle
 10
-151.95
 20
155.0
 30
0.0
 40
1.929820677897126
  0
ARC
  5
131
330
1F
100
AcDbEntity
  8
1
  6
CONTINUOUS
 62
     7
100
AcDbCircle
 10
-214.0982836850116
 20
135.7782041301931
 30
0.0
 40
0.1959955456983366
100
AcDbArc
 50
250.0160053866599
 51
38.62096466072472
  0
ARC
  5
132
330
1F
100
AcDbEntity
  8
1
  6
CONTINUOUS
 62
     7
100
AcDbCircle
 10
-218.9362913065677
 20
133.7337666474365
 30
0.0
 40
2.095995545698365
100
AcDbArc
 50
213.5424212839729
 51
271.924220556832
  0
LINE
  5
133
330
1F
100
AcDbEntity
  8
1
  6
CONTINUOUS
 62
     7
100
AcDbLine
 10
-214.1652666581914
 20
135.5940098435347
 30
0.0
 11
-214.7258227546165
 21
135.7978582617122
 31
0.0
  0
ARC
  5
134
330
1F
100
AcDbEntity
  8
1
  6
CONTINUOUS
 62
     7
100
AcDbCircle
 10
-151.95
 20
155.0
 30
0.0
 40
3.845995545698346
100
AcDbArc
 50
38.62096466072546
 51
49.9071914951129
  0
ARC
  5
135
330
1F
100
AcDbEntity
  8
1
  6
CONTINUOUS
 62
     7
100
AcDbCircle
 10
-216.95
 20
133.5
 30
0.0
 40
3.845995545698362
100
AcDbArc
 50
110.6209646607257
 51
121.9071914951129
  0
ARC
  5
136
330
1F
100
AcDbEntity
  8
1
  6
CONTINUOUS
 62
     7
100
AcDbCircle
 10
-150.4804611650486
 20
153.6433660727486
 30
0.0
 40
2.095995545698353
100
AcDbArc
 50
357.5424212839729
 51
55.92422055683187
  0
ARC
  5
137
330
1F
100
AcDbEntity
  8
1
  6
CONTINUOUS
 62
     7
100
AcDbCircle
 10
-152.3414724761717
 20
156.9613131571475
 30
0.0
 40
1.404004454301675
100
AcDbArc
 50
142.0160053866609
 51
178.9599334811435
  0
ARC
  5
138
330
1F
100
AcDbEntity
  8
1
  6
CONTINUOUS
 62
     7
100
AcDbCircle
 10
-218.9362913065677
 20
133.7337666474365
 30
0.0
 40
1.40400445430165
100
AcDbArc
 50
214.016005386661
 51
250.9599334811437
  0
ARC
  5
139
330
1F
100
AcDbEntity
  8
1
  6
CONTINUOUS
 62
     7
100
AcDbCircle
 10
-217.3414724761717
 20
135.4613131571475
 30
0.0
 40
1.404004454301647
100
AcDbArc
 50
142.0160053866609
 51
178.9599334811435
  0
ARC
  5
13A
330
1F
100
AcDbEntity
  8
1
  6
CONTINUOUS
 62
     7
100
AcDbCircle
 10
-215.2056519893666
 20
134.4783915462631
 30
0.0
 40
1.404004454301652
100
AcDbArc
 50
70.01600538666098
 51
106.9599334811435
  0
ARC
  5
13B
330
1F
100
AcDbEntity
  8
1
  6
CONTINUOUS
 62
     7
100
AcDbCircle
 10
-216.95
 20
133.5
 30
0.0
 40
3.845995545698341
100
AcDbArc
 50
182.6209646607257
 51
193.9071914951129
  0
ARC
  5
13C
330
1F
100
AcDbEntity
  8
1
  6
CONTINUOUS
 62
     7
100
AcDbCircle
 10
-150.4804611650486
 20
153.6433660727486
 30
0.0
 40
1.404004454301655
100
AcDbArc
 50
358.0160053866609
 51
34.95993348114354
  0
ARC
  5
13D
330
1F
100
AcDbEntity
  8
1
  6
CONTINUOUS
 62
     7
100
AcDbCircle
 10
-152.7861230628456
 20
153.1831625764044
 30
0.0
 40
1.404004454301678
100
AcDbArc
 50
286.016005386661
 51
322.9599334811435
  0
LINE
  5
13E
330
1F
100
AcDbEntity
  8
1
  6
CONTINUOUS
 62
     7
100
AcDbLine
 10
-152.9720684941408
 20
151.6690852603097
 30
0.0
 11
-152.3987499919245
 21
151.833655032289
 31
0.0
  0
LINE
  5
13F
330
1F
100
AcDbEntity
  8
1
  6
CONTINUOUS
 62
     7
100
AcDbLine
 10
-214.0979483656988
 20
131.4986458371692
 30
0.0
 11
-214.0772983593505
 21
132.0947589909165
 31
0.0
  0
ARC
  5
140
330
1F
100
AcDbEntity
  8
1
  6
CONTINUOUS
 62
     7
100
AcDbCircle
 10
-153.7412418210611
 20
156.9867253807413
 30
0.0
 40
0.0040044543016678
100
AcDbArc
 50
178.9599334811389
 51
312.0379829668205
  0
ARC
  5
141
330
1F
100
AcDbEntity
  8
1
  6
CONTINUOUS
 62
     7
100
AcDbCircle
 10
-215.4804611650486
 20
132.1433660727486
 30
0.0
 40
2.095995545698353
100
AcDbArc
 50
357.5424212839729
 51
55.92422055683187
  0
ARC
  5
142
330
1F
100
AcDbEntity
  8
1
  6
CONTINUOUS
 62
     7
100
AcDbCircle
 10
-215.6140360443
 20
135.8175041119857
 30
0.0
 40
0.0040044543016488
100
AcDbArc
 50
106.9599334811527
 51
240.0379829667634
  0
ARC
  5
143
330
1F
100
AcDbEntity
  8
1
  6
CONTINUOUS
 62
     7
100
AcDbCircle
 10
-153.9362913065677
 20
155.2337666474365
 30
0.0
 40
2.095995545698337
100
AcDbArc
 50
213.5424212839729
 51
271.9242205568319
  0
ARC
  5
144
330
1F
100
AcDbEntity
  8
1
  6
CONTINUOUS
 62
     7
100
AcDbCircle
 10
-151.6686228048814
 20
152.339839878115
 30
0.0
 40
0.0040044543016542
100
AcDbArc
 50
322.9599334811009
 51
96.03798296683561
  0
ARC
  5
145
330
1F
100
AcDbEntity
  8
1
  6
CONTINUOUS
 62
     7
100
AcDbCircle
 10
-148.9020703120617
 20
152.9918604088899
 30
0.0
 40
0.1959955456983217
100
AcDbArc
 50
178.0160053866607
 51
326.620964660726
  0
ARC
  5
146
330
1F
100
AcDbEntity
  8
1
  6
CONTINUOUS
 62
     7
100
AcDbCircle
 10
-151.95
 20
155.0
 30
0.0
 40
2.670995545698372
100
AcDbArc
 50
152.1677565069254
 51
204.0379829667999
  0
ARC
  5
147
330
1F
100
AcDbEntity
  8
1
  6
CONTINUOUS
 62
     7
100
AcDbCircle
 10
-151.95
 20
155.0
 30
0.0
 40
2.670995545698339
100
AcDbArc
 50
80.16775650692546
 51
132.0379829668
  0
ARC
  5
148
330
1F
100
AcDbEntity
  8
1
  6
CONTINUOUS
 62
     7
100
AcDbCircle
 10
-153.9362913065677
 20
155.2337666474365
 30
0.0
 40
1.40400445430165
100
AcDbArc
 50
214.0160053866609
 51
250.9599334811437
  0
LINE
  5
149
330
1F
100
AcDbEntity
  8
1
  6
CONTINUOUS
 62
     7
100
AcDbLine
 10
-153.0809917794585
 20
158.2955234189121
 30
0.0
 11
-153.4480845059985
 21
157.8253955161514
 31
0.0
  0
ARC
  5
14A
330
1F
100
AcDbEntity
  8
1
  6
CONTINUOUS
 62
     7
100
AcDbCircle
 10
-151.95
 20
155.0
 30
0.0
 40
3.845995545698346
100
AcDbArc
 50
110.6209646607257
 51
121.9071914951129
  0
ARC
  5
14B
330
1F
100
AcDbEntity
  8
1
  6
CONTINUOUS
 62
     7
100
AcDbCircle
 10
-149.3330870465716
 20
154.4455709295334
 30
0.0
 40
0.0040044543016564
100
AcDbArc
 50
34.95993348116533
 51
168.0379829668053
  0
LINE
  5
14C
330
1F
100
AcDbEntity
  8
1
  6
CONTINUOUS
 62
     7
100
AcDbLine
 10
-149.0979483656988
 20
152.9986458371692
 30
0.0
 11
-149.0772983593505
 21
153.5947589909165
 31
0.0
  0
LINE
  5
14D
330
1F
100
AcDbEntity
  8
1
  6
CONTINUOUS
 62
     7
100
AcDbLine
 10
-149.1652666581914
 20
157.0940098435347
 30
0.0
 11
-149.7258227546165
 21
157.2978582617122
 31
0.0
  0
ARC
  5
14E
330
1F
100
AcDbEntity
  8
1
  6
CONTINUOUS
 62
     7
100
AcDbCircle
 10
-149.0982836850116
 20
157.278204130193
 30
0.0
 40
0.1959955456983366
100
AcDbArc
 50
250.0160053866608
 51
38.62096466072472
  0
ARC
  5
14F
330
1F
100
AcDbEntity
  8
1
  6
CONTINUOUS
 62
     7
100
AcDbCircle
 10
-216.95
 20
133.5
 30
0.0
 40
2.670995545698335
100
AcDbArc
 50
296.1677565069253
 51
348.0379829668
  0
ARC
  5
150
330
1F
100
AcDbEntity
  8
1
  6
CONTINUOUS
 62
     7
100
AcDbCircle
 10
-216.95
 20
133.5
 30
0.0
 40
3.845995545698346
100
AcDbArc
 50
38.62096466072546
 51
49.9071914951129
  0
ARC
  5
151
330
1F
100
AcDbEntity
  8
1
  6
CONTINUOUS
 62
     7
100
AcDbCircle
 10
-215.2056519893666
 20
134.4783915462631
 30
0.0
 40
2.095995545698341
100
AcDbArc
 50
69.542421283973
 51
127.924220556832
  0
ARC
  5
152
330
1F
100
AcDbEntity
  8
1
  6
CONTINUOUS
 62
     7
100
AcDbCircle
 10
-150.6140360443
 20
157.3175041119856
 30
0.0
 40
0.0040044543016488
100
AcDbArc
 50
106.9599334811052
 51
240.0379829668063
  0
ARC
  5
153
330
1F
100
AcDbEntity
  8
1
  6
CONTINUOUS
 62
     7
100
AcDbCircle
 10
-220.5961817514013
 20
133.3330909356907
 30
0.0
 40
0.1959955456983514
100
AcDbArc
 50
34.01600538666128
 51
182.6209646607258
  0
ARC
  5
154
330
1F
100
AcDbEntity
  8
1
  6
CONTINUOUS
 62
     7
100
AcDbCircle
 10
-151.95
 20
155.0
 30
0.0
 40
3.845995545698375
100
AcDbArc
 50
182.6209646607257
 51
193.9071914951129
  0
ARC
  5
155
330
1F
100
AcDbEntity
  8
1
  6
CONTINUOUS
 62
     7
100
AcDbCircle
 10
-218.235472079003
 20
136.9161471768798
 30
0.0
 40
0.1959955456983552
100
AcDbArc
 50
322.0160053866603
 51
110.6209646607271
  0
ARC
  5
156
330
1F
100
AcDbEntity
  8
1
  6
CONTINUOUS
 62
     7
100
AcDbCircle
 10
-214.3330870465716
 20
132.9455709295335
 30
0.0
 40
0.004004454301645
100
AcDbArc
 50
34.95993348113689
 51
168.037982966795
  0
ARC
  5
157
330
1F
100
AcDbEntity
  8
1
  6
CONTINUOUS
 62
     7
100
AcDbCircle
 10
-216.95
 20
133.5
 30
0.0
 40
3.84599554569834
100
AcDbArc
 50
326.6209646607256
 51
337.9071914951128
  0
ARC
  5
158
330
1F
100
AcDbEntity
  8
1
  6
CONTINUOUS
 62
     7
100
AcDbCircle
 10
-216.95
 20
133.5
 30
0.0
 40
2.670995545698336
100
AcDbArc
 50
152.1677565069254
 51
204.0379829667999
  0
ARC
  5
159
330
1F
100
AcDbEntity
  8
1
  6
CONTINUOUS
 62
     7
100
AcDbCircle
 10
-154.393012283186
 20
153.9103596996246
 30
0.0
 40
0.0040044543016762
100
AcDbArc
 50
250.9599334811495
 51
24.03798296680123
  0
ARC
  5
15A
330
1F
100
AcDbEntity
  8
1
  6
CONTINUOUS
 62
     7
100
AcDbCircle
 10
-216.95
 20
133.5
 30
0.0
 40
2.67099554569835
100
AcDbArc
 50
80.16775650692551
 51
132.0379829667999
  0
ARC
  5
15B
330
1F
100
AcDbEntity
  8
1
  6
CONTINUOUS
 62
     7
100
AcDbCircle
 10
-152.7861230628456
 20
153.1831625764044
 30
0.0
 40
2.095995545698367
100
AcDbArc
 50
285.5424212839729
 51
343.9242205568318
  0
ARC
  5
15C
330
1F
100
AcDbEntity
  8
1
  6
CONTINUOUS
 62
     7
100
AcDbCircle
 10
-153.235472079003
 20
158.4161471768798
 30
0.0
 40
0.1959955456983552
100
AcDbArc
 50
322.0160053866603
 51
110.6209646607262
  0
ARC
  5
15D
330
1F
100
AcDbEntity
  8
1
  6
CONTINUOUS
 62
     7
100
AcDbCircle
 10
-151.95
 20
155.0
 30
0.0
 40
2.670995545698327
100
AcDbArc
 50
296.1677565069253
 51
348.0379829668
  0
ARC
  5
15E
330
1F
100
AcDbEntity
  8
1
  6
CONTINUOUS
 62
     7
100
AcDbCircle
 10
-151.95
 20
155.0
 30
0.0
 40
2.67099554569836
100
AcDbArc
 50
224.1677565069252
 51
276.0379829668
  0
ARC
  5
15F
330
1F
100
AcDbEntity
  8
1
  6
CONTINUOUS
 62
     7
100
AcDbCircle
 10
-213.9020703120617
 20
131.4918604088899
 30
0.0
 40
0.1959955456983449
100
AcDbArc
 50
178.0160053866606
 51
326.6209646607256
  0
ARC
  5
160
330
1F
100
AcDbEntity
  8
1
  6
CONTINUOUS
 62
     7
100
AcDbCircle
 10
-152.3414724761717
 20
156.9613131571475
 30
0.0
 40
2.095995545698332
100
AcDbArc
 50
141.5424212839729
 51
199.9242205568319
  0
ARC
  5
161
330
1F
100
AcDbEntity
  8
1
  6
CONTINUOUS
 62
     7
100
AcDbCircle
 10
-152.9179921725227
 20
151.4806973483466
 30
0.0
 40
0.1959955456983609
100
AcDbArc
 50
106.0160053866602
 51
254.6209646607273
  0
LINE
  5
162
330
1F
100
AcDbEntity
  8
1
  6
CONTINUOUS
 62
     7
100
AcDbLine
 10
-155.4337247025107
 20
154.9427356400742
 30
0.0
 11
-155.1000443881102
 21
154.4483321989309
 31
0.0
  0
ARC
  5
163
330
1F
100
AcDbEntity
  8
1
  6
CONTINUOUS
 62
     7
100
AcDbCircle
 10
-216.95
 20
133.5
 30
0.0
 40
2.670995545698352
100
AcDbArc
 50
8.167756506925402
 51
60.03798296680002
  0
ARC
  5
164
330
1F
100
AcDbEntity
  8
1
  6
CONTINUOUS
 62
     7
100
AcDbCircle
 10
-150.2056519893666
 20
155.9783915462631
 30
0.0
 40
1.404004454301657
100
AcDbArc
 50
70.01600538666098
 51
106.9599334811433
  0
ARC
  5
165
330
1F
100
AcDbEntity
  8
1
  6
CONTINUOUS
 62
     7
100
AcDbCircle
 10
-151.95
 20
155.0
 30
0.0
 40
3.845995545698337
100
AcDbArc
 50
326.6209646607256
 51
337.9071914951128
  0
ARC
  5
166
330
1F
100
AcDbEntity
  8
1
  6
CONTINUOUS
 62
     7
100
AcDbCircle
 10
-151.95
 20
155.0
 30
0.0
 40
2.670995545698321
100
AcDbArc
 50
8.167756506925402
 51
60.03798296680002
  0
ARC
  5
167
330
1F
100
AcDbEntity
  8
1
  6
CONTINUOUS
 62
     7
100
AcDbCircle
 10
-218.7412418210611
 20
135.4867253807413
 30
0.0
 40
0.0040044543016539
100
AcDbArc
 50
178.9599334811371
 51
312.0379829668942
  0
ARC
  5
168
330
1F
100
AcDbEntity
  8
1
  6
CONTINUOUS
 62
     7
100
AcDbCircle
 10
-151.95
 20
155.0
 30
0.0
 40
3.845995545698362
100
AcDbArc
 50
254.6209646607257
 51
265.9071914951129
  0
ARC
  5
169
330
1F
100
AcDbEntity
  8
1
  6
CONTINUOUS
 62
     7
100
AcDbCircle
 10
-155.5961817514013
 20
154.8330909356906
 30
0.0
 40
0.1959955456983501
100
AcDbArc
 50
34.01600538666047
 51
182.6209646607257
  0
ARC
  5
16A
330
1F
100
AcDbEntity
  8
1
  6
CONTINUOUS
 62
     7
100
AcDbCircle
 10
-219.393012283186
 20
132.4103596996246
 30
0.0
 40
0.00400445430165
100
AcDbArc
 50
250.9599334811965
 51
24.03798296678099
  0
LINE
  5
16B
330
1F
100
AcDbEntity
  8
1
  6
CONTINUOUS
 62
     7
100
AcDbLine
 10
-163.9500000000002
 20
133.6323917942055
 30
0.0
 11
-163.9500000000002
 21
133.4489645667149
 31
0.0
  0
LWPOLYLINE
  5
16C
330
1F
100
AcDbEntity
  8
1
  6
CONTINUOUS
 62
     7
100
AcDbPolyline
 90
       33
 70
     0
 43
0.0
 10
-164.9500000000002
 20
132.5
 10
-164.9009323256727
 20
132.5011430693804
 10
-164.8519828596706
 20
132.5045695237671
 10
-164.8032695255448
 20
132.5102711085316
 10
-164.754909677984
 20
132.5182340880567
 10
-164.7070198200969
 20
132.5284392788272
 10
-164.6597153227457
 20
132.5408620956447
 10
-164.613110146608
 20
132.5554726108555
 10
-164.5673165676351
 20
132.5722356264485
 10
-164.5224449065699
 20
132.5911107588511
 10
-164.4786032631742
 20
132.6120525362159
 10
-164.435897255807
 20
132.635010507967
 10
-164.3944297669806
 20
132.6599293663396
 10
-164.3543006955077
 20
132.6867490796213
 10
-164.3156067158365
 20
132.7154050367734
 10
-164.2784410451532
 20
132.7458282030855
 10
-164.2428932188136
 20
132.777945286485
 10
-164.2090488746452
 20
132.811678914105
 10
-164.1769895466374
 20
132.8469478186817
 10
-164.1467924685195
 20
132.8836670343348
 10
-164.1185303876976
 20
132.9217481012577
 10
-164.0922713899999
 20
132.9610992788247
 10
-164.0680787356518
 20
133.001625766602
 10
-164.0460107068767
 20
133.0432299327311
 10
-164.0261204674889
 20
133.0858115491316
 10
-164.0084559348171
 20
133.1292680329599
 10
-163.993059664268
 20
133.1734946937401
 10
-163.9799687468056
 20
133.2183849855727
 10
-163.9692147195969
 20
133.2638307638126
 10
-163.9608234900354
 20
133.3097225455995
 10
-163.954815273328
 20
133.3559497736114
 10
-163.951204543795
 20
133.4024010824071
 10
-163.9500000000002
 20
133.4489645667149
  0
LINE
  5
16D
330
1F
100
AcDbEntity
  8
1
  6
CONTINUOUS
 62
     7
100
AcDbLine
 10
-204.9500000000001
 20
156.3676082057945
 30
0.0
 11
-204.9500000000001
 21
156.5510354332851
 31
0.0
  0
LWPOLYLINE
  5
16E
330
1F
100
AcDbEntity
  8
1
  6
CONTINUOUS
 62
     7
100
AcDbPolyline
 90
       33
 70
     0
 43
0.0
 10
204.9500000000001
 20
156.5510354332851
 10
204.9487954562053
 20
156.597598917593
 10
204.9451847266723
 20
156.6440502263886
 10
204.9391765099649
 20
156.6902774544006
 10
204.9307852804034
 20
156.7361692361874
 10
204.9200312531947
 20
156.7816150144273
 10
204.9069403357324
 20
156.8265053062599
 10
204.8915440651832
 20
156.8707319670401
 10
204.8738795325114
 20
156.9141884508685
 10
204.8539892931236
 20
156.956770067269
 10
204.8319212643485
 20
156.9983742333981
 10
204.8077286100004
 20
157.0389007211754
 10
204.7814696123027
 20
157.0782518987423
 10
204.7532075314808
 20
157.1163329656652
 10
204.7230104533629
 20
157.1530521813184
 10
204.6909511253551
 20
157.188321085895
 10
204.6571067811867
 20
157.222054713515
 10
204.6215589548472
 20
157.2541717969145
 10
204.5843932841638
 20
157.2845949632266
 10
204.5456993044926
 20
157.3132509203788
 10
204.5055702330197
 20
157.3400706336604
 10
204.4641027441934
 20
157.364989492033
 10
204.4213967368261
 20
157.3879474637841
 10
204.3775550934304
 20
157.4088892411489
 10
204.3326834323652
 20
157.4277643735515
 10
204.2868898533924
 20
157.4445273891446
 10
204.2402846772546
 20
157.4591379043553
 10
204.1929801799034
 20
157.4715607211728
 10
204.1450903220163
 20
157.4817659119433
 10
204.0967304744555
 20
157.4897288914684
 10
204.0480171403297
 20
157.4954304762329
 10
203.9990676743275
 20
157.4988569306197
 10
203.9500000000001
 20
157.5
210
0.0
220
0.0
230
-1.0
  0
LINE
  5
16F
330
1F
100
AcDbEntity
  8
1
  6
CONTINUOUS
 62
     7
100
AcDbLine
 10
-166.4500000000002
 20
132.5
 30
0.0
 11
-166.4500000000002
 21
127.0
 31
0.0
  0
ARC
  5
170
330
1F
100
AcDbEntity
  8
1
  6
CONTINUOUS
 62
     7
100
AcDbCircle
 10
-164.9500000000002
 20
126.0
 30
0.0
 40
1.000000000000001
100
AcDbArc
 50
270.0
 51
359.9999999999998
  0
LINE
  5
171
330
1F
100
AcDbEntity
  8
1
  6
CONTINUOUS
 62
     7
100
AcDbLine
 10
-163.9500000000002
 20
127.0
 30
0.0
 11
-163.9500000000002
 21
126.0
 31
0.0
  0
LWPOLYLINE
  5
172
330
1F
100
AcDbEntity
  8
1
  6
CONTINUOUS
 62
     7
100
AcDbPolyline
 90
        9
 70
     0
 43
0.0
 10
-167.3414177335231
 20
125.0
 10
-167.1675107608392
 20
125.0384294391935
 10
-167.0002869355874
 20
125.1522409349774
 10
-166.846172575592
 20
125.3370607753949
 10
-166.7110902092791
 20
125.5857864376269
 10
-166.6002309762312
 20
125.8888595339608
 10
-166.5178551346036
 20
126.2346331352698
 10
-166.4671283417934
 20
126.6098193559677
 10
-166.4500000000001
 20
127.0
  0
LINE
  5
173
330
1F
100
AcDbEntity
  8
1
  6
CONTINUOUS
 62
     7
100
AcDbLine
 10
-164.9500000000002
 20
125.0
 30
0.0
 11
-167.3414177335231
 21
125.0
 31
0.0
  0
LINE
  5
174
330
1F
100
AcDbEntity
  8
1
  6
CONTINUOUS
 62
     7
100
AcDbLine
 10
-163.9500000000002
 20
133.4489645667149
 30
0.0
 11
-163.9500000000002
 21
127.0
 31
0.0
  0
LINE
  5
175
330
1F
100
AcDbEntity
  8
1
  6
CONTINUOUS
 62
     7
100
AcDbLine
 10
-166.4500000000002
 20
132.5
 30
0.0
 11
-167.4677566045908
 21
132.3803291397705
 31
0.0
  0
LINE
  5
176
330
1F
100
AcDbEntity
  8
1
  6
CONTINUOUS
 62
     7
100
AcDbLine
 10
-167.3414177335231
 20
125.0
 30
0.0
 11
-167.4677566045908
 21
125.0
 31
0.0
  0
LINE
  5
177
330
1F
100
AcDbEntity
  8
1
  6
CONTINUOUS
 62
     7
100
AcDbLine
 10
-202.4500000000001
 20
157.5
 30
0.0
 11
-202.4500000000001
 21
163.0
 31
0.0
  0
LWPOLYLINE
  5
178
330
1F
100
AcDbEntity
  8
1
  6
CONTINUOUS
 62
     7
100
AcDbPolyline
 90
        3
 70
     0
 43
0.0
 10
-204.4847639633292
 20
162.8108422171175
 10
-204.2331048803294
 20
162.6857055723027
 10
-203.9500000000002
 20
162.6083601549138
  0
LINE
  5
179
330
1F
100
AcDbEntity
  8
1
  6
CONTINUOUS
 62
     7
100
AcDbLine
 10
-202.4500000000001
 20
157.5
 30
0.0
 11
-201.4322433954095
 21
157.6196708602295
 31
0.0
  0
LWPOLYLINE
  5
17A
330
1F
100
AcDbEntity
  8
1
  6
CONTINUOUS
 62
     7
100
AcDbPolyline
 90
        9
 70
     0
 43
0.0
 10
-201.5585822664772
 20
165.0
 10
-201.7324892391611
 20
164.9615705608065
 10
-201.8997130644129
 20
164.8477590650226
 10
-202.0538274244084
 20
164.6629392246051
 10
-202.1889097907212
 20
164.4142135623731
 10
-202.2997690237691
 20
164.1111404660392
 10
-202.3821448653966
 20
163.7653668647302
 10
-202.4328716582069
 20
163.3901806440323
 10
-202.4500000000002
 20
163.0
  0
LINE
  5
17B
330
1F
100
AcDbEntity
  8
1
  6
CONTINUOUS
 62
     7
100
AcDbLine
 10
-201.5585822664771
 20
165.0
 30
0.0
 11
-201.4322433954095
 21
165.0
 31
0.0
  0
ARC
  5
17C
330
1F
100
AcDbEntity
  8
1
  6
CONTINUOUS
 62
     7
100
AcDbCircle
 10
-206.6558269917973
 20
151.9094223456415
 30
0.0
 40
11.03579493993133
100
AcDbArc
 50
75.80714949386581
 51
79.5271164019563
  0
LWPOLYLINE
  5
17D
330
1F
100
AcDbEntity
  8
1
  6
CONTINUOUS
 62
     7
100
AcDbPolyline
 90
        5
 70
     0
 43
0.0
 10
-204.6498487846584
 20
162.7613724647997
 10
-204.7557063397326
 20
162.7609610536277
 10
-204.8584141387707
 20
162.7348099140871
 10
-204.9398824414689
 20
162.6648317079378
 10
-204.9500000000001
 20
162.626986735372
  0
LINE
  5
17E
330
1F
100
AcDbEntity
  8
1
  6
CONTINUOUS
 62
     7
100
AcDbLine
 10
-204.9500000000001
 20
156.5510354332851
 30
0.0
 11
-204.9500000000001
 21
162.626986735372
 31
0.0
  0
LINE
  5
17F
330
1F
100
AcDbEntity
  8
1
  6
CONTINUOUS
 62
     7
100
AcDbLine
 10
-205.3268692264871
 20
165.0
 30
0.0
 11
-201.5585822664771
 21
165.0
 31
0.0
  0
LINE
  5
180
330
1F
100
AcDbEntity
  8
1
  6
CONTINUOUS
 62
     7
100
AcDbLine
 10
-204.7423124715947
 20
163.0000000000005
 30
0.0
 11
-204.4847639633292
 21
162.8108422171175
 31
0.0
  0
LWPOLYLINE
  5
181
330
1F
100
AcDbEntity
  8
1
  6
CONTINUOUS
 62
     7
100
AcDbPolyline
 90
        9
 70
     0
 43
0.0
 10
-208.9500000000002
 20
163.4889088967787
 10
-208.9252369444655
 20
163.2953927126829
 10
-208.8518858786
 20
163.1096334528533
 10
-208.7327255664768
 20
162.9386682496254
 10
-208.5722701673699
 20
162.7889737909498
 10
-208.376598225512
 20
162.6662209635244
 10
-208.1531223961344
 20
162.5750600221573
 10
-207.9103086312794
 20
162.5189444238056
 10
-207.6573554634869
 20
162.5
  0
LINE
  5
182
330
1F
100
AcDbEntity
  8
1
  6
CONTINUOUS
 62
     7
100
AcDbLine
 10
-205.3955785263778
 20
163.5625845526839
 30
0.0
 11
-204.7423124715951
 21
163.0
 31
0.0
  0
LINE
  5
183
330
1F
100
AcDbEntity
  8
1
  6
CONTINUOUS
 62
     7
100
AcDbLine
 10
-208.9500000000001
 20
164.0
 30
0.0
 11
-208.9500000000001
 21
163.4889088967787
 31
0.0
  0
ARC
  5
184
330
1F
100
AcDbEntity
  8
1
  6
CONTINUOUS
 62
     7
100
AcDbCircle
 10
-216.95
 20
155.0
 30
0.0
 40
8.06982025971287
100
AcDbArc
 50
187.5424085703126
 51
172.4575914296873
  0
ARC
  5
185
330
1F
100
AcDbEntity
  8
1
  6
CONTINUOUS
 62
     7
100
AcDbCircle
 10
-216.95
 20
155.0
 30
0.0
 40
8.06982025971287
100
AcDbArc
 50
172.4575914296873
 51
187.5424085703127
  0
ARC
  5
186
330
1F
100
AcDbEntity
  8
1
  6
CONTINUOUS
 62
     7
100
AcDbCircle
 10
-207.3136638550386
 20
164.0451590993981
 30
0.0
 40
1.636959169791942
100
AcDbArc
 50
153.59993278101
 51
181.5808299663082
  0
LWPOLYLINE
  5
187
330
1F
100
AcDbEntity
  8
1
  6
CONTINUOUS
 62
     7
100
AcDbPolyline
 90
        5
 70
     0
 43
0.0
 10
208.7799065805442
 20
164.7730104533628
 10
208.7239430864793
 20
164.8577286100003
 10
208.641497263516
 20
164.9415440651831
 10
208.5303650692219
 20
164.9951847266722
 10
208.4847639633292
 20
165.0
210
0.0
220
0.0
230
-1.0
  0
LINE
  5
188
330
1F
100
AcDbEntity
  8
1
  6
CONTINUOUS
 62
     7
100
AcDbLine
 10
-208.4847639633292
 20
165.0
 30
0.0
 11
-205.3268692264871
 21
165.0
 31
0.0
  0
LINE
  5
189
330
1F
100
AcDbEntity
  8
1
  6
CONTINUOUS
 62
     7
100
AcDbLine
 10
-205.9500000000001
 20
162.5
 30
0.0
 11
-204.9500000000001
 21
162.5174550649282
 31
0.0
  0
LINE
  5
18A
330
1F
100
AcDbEntity
  8
1
  6
CONTINUOUS
 62
     7
100
AcDbLine
 10
-207.6573554634869
 20
162.5
 30
0.0
 11
-205.9500000000002
 21
162.5
 31
0.0
  0
LWPOLYLINE
  5
18B
330
1F
100
AcDbEntity
  8
1
  6
CONTINUOUS
 62
     7
100
AcDbPolyline
 90
        9
 70
     0
 43
0.0
 10
-160.7796552389139
 20
162.5
 10
-160.5194291568001
 20
162.518933930419
 10
-160.2696504850851
 20
162.5750188434344
 10
-160.0397763671614
 20
162.6661312468324
 10
-159.8385103183474
 20
162.7888214342876
 10
-159.6734726925774
 20
162.9384440984658
 10
-159.5509121598494
 20
163.1093342120842
 10
-159.4754691184982
 20
163.2950215177034
 10
-159.4500000000001
 20
163.4884755052188
  0
LWPOLYLINE
  5
18C
330
1F
100
AcDbEntity
  8
1
  6
CONTINUOUS
 62
     7
100
AcDbPolyline
 90
        5
 70
     0
 43
0.0
 10
159.8953624047075
 20
165.0
 10
159.7871481674896
 20
164.9700312531945
 10
159.7049454401525
 20
164.9039892931234
 10
159.6300603299763
 20
164.8032075314806
 10
159.5804436282534
 20
164.7071067811866
210
0.0
220
0.0
230
-1.0
  0
ARC
  5
18D
330
1F
100
AcDbEntity
  8
1
  6
CONTINUOUS
 62
     7
100
AcDbCircle
 10
-161.2796550776177
 20
164.0280593028202
 30
0.0
 40
1.829870221498347
100
AcDbArc
 50
359.1213898021371
 51
21.78288774133751
  0
LINE
  5
18E
330
1F
100
AcDbEntity
  8
1
  6
CONTINUOUS
 62
     7
100
AcDbLine
 10
-164.9500000000002
 20
165.0
 30
0.0
 11
-159.8953624047075
 21
165.0
 31
0.0
  0
LWPOLYLINE
  5
18F
330
1F
100
AcDbEntity
  8
1
  6
CONTINUOUS
 62
     7
100
AcDbPolyline
 90
        9
 70
     0
 43
0.0
 10
-208.1203447610863
 20
127.5
 10
-208.3805708432001
 20
127.481066069581
 10
-208.6303495149152
 20
127.4249811565656
 10
-208.8602236328389
 20
127.3338687531676
 10
-209.0614896816528
 20
127.2111785657124
 10
-209.2265273074229
 20
127.0615559015342
 10
-209.3490878401509
 20
126.8906657879158
 10
-209.4245308815021
 20
126.7049784822966
 10
-209.4500000000002
 20
126.5115244947813
  0
LWPOLYLINE
  5
190
330
1F
100
AcDbEntity
  8
1
  6
CONTINUOUS
 62
     7
100
AcDbPolyline
 90
        5
 70
     0
 43
0.0
 10
209.0046375952928
 20
125.0
 10
209.1128518325107
 20
125.0299687468054
 10
209.1950545598478
 20
125.0960107068765
 10
209.2699396700241
 20
125.1967924685193
 10
209.3195563717469
 20
125.2928932188134
210
0.0
220
0.0
230
-1.0
  0
ARC
  5
191
330
1F
100
AcDbEntity
  8
1
  6
CONTINUOUS
 62
     7
100
AcDbCircle
 10
-207.6203449223829
 20
125.9719406971798
 30
0.0
 40
1.829870221498148
100
AcDbArc
 50
179.1213898021366
 51
201.7828877413396
  0
LINE
  5
192
330
1F
100
AcDbEntity
  8
1
  6
CONTINUOUS
 62
     7
100
AcDbLine
 10
-203.9500000000001
 20
125.0
 30
0.0
 11
-209.0046375952928
 21
125.0
 31
0.0
  0
LINE
  5
193
330
1F
100
AcDbEntity
  8
1
  6
CONTINUOUS
 62
     7
100
AcDbLine
 10
-162.45
 20
125.0
 30
0.0
 11
-164.9500000000002
 21
125.0
 31
0.0
  0
LINE
  5
194
330
1F
100
AcDbEntity
  8
1
  6
CONTINUOUS
 62
     7
100
AcDbLine
 10
-162.45
 20
127.49520454735
 30
0.0
 11
-162.5593077855314
 21
127.5
 31
0.0
  0
LINE
  5
195
330
1F
100
AcDbEntity
  8
1
  6
CONTINUOUS
 62
     7
100
AcDbLine
 10
-161.6680268398182
 20
127.2827368085081
 30
0.0
 11
-162.45
 21
127.49520454735
 31
0.0
  0
LINE
  5
196
330
1F
100
AcDbEntity
  8
1
  6
CONTINUOUS
 62
     7
100
AcDbLine
 10
-209.4500000000002
 20
126.0
 30
0.0
 11
-209.4500000000002
 21
126.5115244947813
 31
0.0
  0
LINE
  5
197
330
1F
100
AcDbEntity
  8
1
  6
CONTINUOUS
 62
     7
100
AcDbLine
 10
-159.4500000000001
 20
164.0
 30
0.0
 11
-159.4500000000001
 21
163.4884755052188
 31
0.0
  0
LINE
  5
198
330
1F
100
AcDbEntity
  8
1
  6
CONTINUOUS
 62
     7
100
AcDbLine
 10
-168.9500000000002
 20
132.2512890111967
 30
0.0
 11
-168.9500000000002
 21
125.0
 31
0.0
  0
LINE
  5
199
330
1F
100
AcDbEntity
  8
1
  6
CONTINUOUS
 62
     7
100
AcDbLine
 10
-168.9500000000002
 20
125.0
 30
0.0
 11
-167.4677566045908
 21
125.0
 31
0.0
  0
LINE
  5
19A
330
1F
100
AcDbEntity
  8
1
  6
CONTINUOUS
 62
     7
100
AcDbLine
 10
-168.9500000000002
 20
132.2512890111968
 30
0.0
 11
-167.4677566045909
 21
132.3803291397705
 31
0.0
  0
LINE
  5
19B
330
1F
100
AcDbEntity
  8
1
  6
CONTINUOUS
 62
     7
100
AcDbLine
 10
-199.9500000000002
 20
157.7487109888033
 30
0.0
 11
-199.9500000000002
 21
165.0
 31
0.0
  0
LINE
  5
19C
330
1F
100
AcDbEntity
  8
1
  6
CONTINUOUS
 62
     7
100
AcDbLine
 10
-199.9500000000002
 20
165.0
 30
0.0
 11
-201.4322433954095
 21
165.0
 31
0.0
  0
LINE
  5
19D
330
1F
100
AcDbEntity
  8
1
  6
CONTINUOUS
 62
     7
100
AcDbLine
 10
-199.9500000000002
 20
157.7487109888033
 30
0.0
 11
-201.4322433954095
 21
157.6196708602295
 31
0.0
  0
LINE
  5
19E
330
1F
100
AcDbEntity
  8
1
  6
CONTINUOUS
 62
     7
100
AcDbLine
 10
-147.0675365768498
 20
150.7621972287471
 30
0.0
 11
-147.0418656022149
 21
150.7785601611006
 31
0.0
  0
LINE
  5
19F
330
1F
100
AcDbEntity
  8
1
  6
CONTINUOUS
 62
     7
100
AcDbLine
 10
-145.4944161478944
 20
154.5144336208079
 30
0.0
 11
-145.5009979277112
 21
154.5441560814793
 31
0.0
  0
LINE
  5
1A0
330
1F
100
AcDbEntity
  8
1
  6
CONTINUOUS
 62
     7
100
AcDbLine
 10
-145.4944161478956
 20
154.5144336208078
 30
0.0
 11
-147.0418656022156
 21
150.7785601611016
 31
0.0
  0
ARC
  5
1A1
330
1F
100
AcDbEntity
  8
1
  6
CONTINUOUS
 62
     7
100
AcDbCircle
 10
-151.95
 20
155.0
 30
0.0
 40
6.46509252883697
100
AcDbArc
 50
175.956806226231
 51
184.043193773769
  0
ARC
  5
1A2
330
1F
100
AcDbEntity
  8
1
  6
CONTINUOUS
 62
     7
100
AcDbCircle
 10
-151.95
 20
155.0
 30
0.0
 40
6.465092528836954
100
AcDbArc
 50
130.956806226231
 51
139.043193773769
  0
ARC
  5
1A3
330
1F
100
AcDbEntity
  8
1
  6
CONTINUOUS
 62
     7
100
AcDbCircle
 10
-151.95
 20
155.0
 30
0.0
 40
6.465092528836943
100
AcDbArc
 50
85.95680622623095
 51
94.04319377376888
  0
ARC
  5
1A4
330
1F
100
AcDbEntity
  8
1
  6
CONTINUOUS
 62
     7
100
AcDbCircle
 10
-151.95
 20
155.0
 30
0.0
 40
6.465092528836954
100
AcDbArc
 50
40.956806226231
 51
49.04319377376895
  0
ARC
  5
1A5
330
1F
100
AcDbEntity
  8
1
  6
CONTINUOUS
 62
     7
100
AcDbCircle
 10
-151.95
 20
155.0
 30
0.0
 40
6.465092528836946
100
AcDbArc
 50
355.9568062262308
 51
4.043193773768962
  0
ARC
  5
1A6
330
1F
100
AcDbEntity
  8
1
  6
CONTINUOUS
 62
     7
100
AcDbCircle
 10
-151.95
 20
155.0
 30
0.0
 40
6.465092528836974
100
AcDbArc
 50
310.9568062262309
 51
319.0431937737693
  0
ARC
  5
1A7
330
1F
100
AcDbEntity
  8
1
  6
CONTINUOUS
 62
     7
100
AcDbCircle
 10
-151.95
 20
155.0
 30
0.0
 40
6.465092528836972
100
AcDbArc
 50
265.956806226231
 51
274.0431937737688
  0
ARC
  5
1A8
330
1F
100
AcDbEntity
  8
1
  6
CONTINUOUS
 62
     7
100
AcDbCircle
 10
-151.95
 20
155.0
 30
0.0
 40
6.465092528836974
100
AcDbArc
 50
220.956806226231
 51
229.0431937737689
  0
CIRCLE
  5
1A9
330
1F
100
AcDbEntity
  8
1
  6
CONTINUOUS
 62
     7
100
AcDbCircle
 10
-151.95
 20
155.0
 30
0.0
 40
5.284907471163002
  0
LINE
  5
1AA
330
1F
100
AcDbEntity
  8
1
  6
CONTINUOUS
 62
     7
100
AcDbLine
 10
-158.3990020722884
 20
154.5441560814793
 30
0.0
 11
-158.4055838521051
 21
154.5144336208079
 31
0.0
  0
LINE
  5
1AB
330
1F
100
AcDbEntity
  8
1
  6
CONTINUOUS
 62
     7
100
AcDbLine
 10
-156.8581343977849
 20
150.778560161101
 30
0.0
 11
-156.8324634231499
 21
150.7621972287475
 31
0.0
  0
LINE
  5
1AC
330
1F
100
AcDbEntity
  8
1
  6
CONTINUOUS
 62
     7
100
AcDbLine
 10
-156.8581343977844
 20
150.7785601611015
 30
0.0
 11
-158.4055838521045
 21
154.5144336208078
 31
0.0
  0
LINE
  5
1AD
330
1F
100
AcDbEntity
  8
1
  6
CONTINUOUS
 62
     7
100
AcDbLine
 10
-156.187802771253
 20
150.1175365768498
 30
0.0
 11
-156.1714398388994
 21
150.0918656022149
 31
0.0
  0
LINE
  5
1AE
330
1F
100
AcDbEntity
  8
1
  6
CONTINUOUS
 62
     7
100
AcDbLine
 10
-152.4355663791921
 20
148.5444161478944
 30
0.0
 11
-152.4058439185207
 21
148.5509979277111
 31
0.0
  0
LINE
  5
1AF
330
1F
100
AcDbEntity
  8
1
  6
CONTINUOUS
 62
     7
100
AcDbLine
 10
-152.4355663791922
 20
148.5444161478955
 30
0.0
 11
-156.1714398388985
 21
150.0918656022156
 31
0.0
  0
ARC
  5
1B0
330
1F
100
AcDbEntity
  8
1
  6
CONTINUOUS
 62
     7
100
AcDbCircle
 10
-151.95
 20
155.0
 30
0.0
 40
6.473819396627745
100
AcDbArc
 50
229.3014878955366
 51
265.6985121044634
  0
LINE
  5
1B1
330
1F
100
AcDbEntity
  8
1
  6
CONTINUOUS
 62
     7
100
AcDbLine
 10
-151.4941560814793
 20
148.5509979277119
 30
0.0
 11
-151.4644336208079
 21
148.5444161478952
 31
0.0
  0
ARC
  5
1B2
330
1F
100
AcDbEntity
  8
1
  6
CONTINUOUS
 62
     7
100
AcDbCircle
 10
-151.95
 20
155.0
 30
0.0
 40
6.473819396627722
100
AcDbArc
 50
274.3014878955366
 51
310.6985121044634
  0
LINE
  5
1B3
330
1F
100
AcDbEntity
  8
1
  6
CONTINUOUS
 62
     7
100
AcDbLine
 10
-147.7285601611013
 20
150.0918656022154
 30
0.0
 11
-147.7121972287477
 21
150.1175365768503
 31
0.0
  0
ARC
  5
1B4
330
1F
100
AcDbEntity
  8
1
  6
CONTINUOUS
 62
     7
100
AcDbCircle
 10
-151.95
 20
155.0
 30
0.0
 40
6.473819396627719
100
AcDbArc
 50
319.3014878955369
 51
355.698512104463
  0
LINE
  5
1B5
330
1F
100
AcDbEntity
  8
1
  6
CONTINUOUS
 62
     7
100
AcDbLine
 10
-145.5009979277122
 20
155.4558439185208
 30
0.0
 11
-145.4944161478955
 21
155.4855663791921
 31
0.0
  0
ARC
  5
1B6
330
1F
100
AcDbEntity
  8
1
  6
CONTINUOUS
 62
     7
100
AcDbCircle
 10
-151.95
 20
155.0
 30
0.0
 40
6.473819396627701
100
AcDbArc
 50
4.301487895536752
 51
40.6985121044633
  0
LINE
  5
1B7
330
1F
100
AcDbEntity
  8
1
  6
CONTINUOUS
 62
     7
100
AcDbLine
 10
-147.0418656022156
 20
159.2214398388985
 30
0.0
 11
-147.0675365768505
 21
159.2378027712521
 31
0.0
  0
LINE
  5
1B8
330
1F
100
AcDbEntity
  8
1
  6
CONTINUOUS
 62
     7
100
AcDbLine
 10
-147.7121972287471
 20
159.8824634231502
 30
0.0
 11
-147.7285601611007
 21
159.9081343977851
 31
0.0
  0
ARC
  5
1B9
330
1F
100
AcDbEntity
  8
1
  6
CONTINUOUS
 62
     7
100
AcDbCircle
 10
-151.95
 20
155.0
 30
0.0
 40
6.473819396627715
100
AcDbArc
 50
49.3014878955367
 51
85.6985121044632
  0
LINE
  5
1BA
330
1F
100
AcDbEntity
  8
1
  6
CONTINUOUS
 62
     7
100
AcDbLine
 10
-151.464433620808
 20
161.4555838521056
 30
0.0
 11
-151.4941560814794
 21
161.4490020722889
 31
0.0
  0
LINE
  5
1BB
330
1F
100
AcDbEntity
  8
1
  6
CONTINUOUS
 62
     7
100
AcDbLine
 10
-152.4058439185208
 20
161.4490020722878
 30
0.0
 11
-152.4355663791922
 21
161.4555838521046
 31
0.0
  0
ARC
  5
1BC
330
1F
100
AcDbEntity
  8
1
  6
CONTINUOUS
 62
     7
100
AcDbCircle
 10
-151.95
 20
155.0
 30
0.0
 40
6.47381939662772
100
AcDbArc
 50
94.30148789553665
 51
130.6985121044632
  0
LINE
  5
1BD
330
1F
100
AcDbEntity
  8
1
  6
CONTINUOUS
 62
     7
100
AcDbLine
 10
-156.1714398388986
 20
159.9081343977845
 30
0.0
 11
-156.1878027712522
 21
159.8824634231495
 31
0.0
  0
LINE
  5
1BE
330
1F
100
AcDbEntity
  8
1
  6
CONTINUOUS
 62
     7
100
AcDbLine
 10
-156.8324634231499
 20
159.2378027712525
 30
0.0
 11
-156.8581343977849
 21
159.221439838899
 31
0.0
  0
ARC
  5
1BF
330
1F
100
AcDbEntity
  8
1
  6
CONTINUOUS
 62
     7
100
AcDbCircle
 10
-151.95
 20
155.0
 30
0.0
 40
6.473819396627743
100
AcDbArc
 50
139.3014878955368
 51
175.6985121044634
  0
LINE
  5
1C0
330
1F
100
AcDbEntity
  8
1
  6
CONTINUOUS
 62
     7
100
AcDbLine
 10
-158.4055838521051
 20
155.4855663791921
 30
0.0
 11
-158.3990020722884
 21
155.4558439185207
 31
0.0
  0
ARC
  5
1C1
330
1F
100
AcDbEntity
  8
1
  6
CONTINUOUS
 62
     7
100
AcDbCircle
 10
-151.95
 20
155.0
 30
0.0
 40
6.47381939662774
100
AcDbArc
 50
184.3014878955366
 51
220.6985121044632
  0
LINE
  5
1C2
330
1F
100
AcDbEntity
  8
1
  6
CONTINUOUS
 62
     7
100
AcDbLine
 10
-147.7285601611016
 20
150.0918656022156
 30
0.0
 11
-151.4644336208079
 21
148.5444161478955
 31
0.0
  0
LINE
  5
1C3
330
1F
100
AcDbEntity
  8
1
  6
CONTINUOUS
 62
     7
100
AcDbLine
 10
-156.1714398388985
 20
159.9081343977844
 30
0.0
 11
-152.4355663791922
 21
161.4555838521044
 31
0.0
  0
LINE
  5
1C4
330
1F
100
AcDbEntity
  8
1
  6
CONTINUOUS
 62
     7
100
AcDbLine
 10
-158.4055838521045
 20
155.4855663791921
 30
0.0
 11
-156.8581343977844
 21
159.2214398388984
 31
0.0
  0
LINE
  5
1C5
330
1F
100
AcDbEntity
  8
1
  6
CONTINUOUS
 62
     7
100
AcDbLine
 10
-147.0418656022157
 20
159.2214398388985
 30
0.0
 11
-145.4944161478956
 21
155.4855663791922
 31
0.0
  0
LINE
  5
1C6
330
1F
100
AcDbEntity
  8
1
  6
CONTINUOUS
 62
     7
100
AcDbLine
 10
-151.4644336208079
 20
161.4555838521044
 30
0.0
 11
-147.7285601611016
 21
159.9081343977844
 31
0.0
  0
LINE
  5
1C7
330
1F
100
AcDbEntity
  8
1
  6
CONTINUOUS
 62
     7
100
AcDbLine
 10
-163.9500000000002
 20
162.5174550649283
 30
0.0
 11
-162.9500000000002
 21
162.5
 31
0.0
  0
LINE
  5
1C8
330
1F
100
AcDbEntity
  8
1
  6
CONTINUOUS
 62
     7
100
AcDbLine
 10
-160.7796552389139
 20
162.5
 30
0.0
 11
-162.9500000000002
 21
162.5
 31
0.0
  0
LINE
  5
1C9
330
1F
100
AcDbEntity
  8
1
  6
CONTINUOUS
 62
     7
100
AcDbLine
 10
-204.9500000000001
 20
127.4825449350718
 30
0.0
 11
-205.9500000000001
 21
127.5
 31
0.0
  0
LINE
  5
1CA
330
1F
100
AcDbEntity
  8
1
  6
CONTINUOUS
 62
     7
100
AcDbLine
 10
-208.1203447610864
 20
127.5
 30
0.0
 11
-205.9500000000002
 21
127.5
 31
0.0
  0
CIRCLE
  5
1CB
330
1F
100
AcDbEntity
  8
1
  6
CONTINUOUS
 62
     7
100
AcDbCircle
 10
-216.95
 20
133.5
 30
0.0
 40
5.526180603372274
  0
CIRCLE
  5
1CC
330
1F
100
AcDbEntity
  8
1
  6
CONTINUOUS
 62
     7
100
AcDbCircle
 10
-216.95
 20
133.5
 30
0.0
 40
6.499999999999992
  0
LINE
  5
1CD
330
1F
100
AcDbEntity
  8
1
  6
CONTINUOUS
 62
     7
100
AcDbLine
 10
-162.9500000000002
 20
127.5
 30
0.0
 11
-163.9500000000002
 21
127.4825449350718
 31
0.0
  0
LINE
  5
1CE
330
1F
100
AcDbEntity
  8
1
  6
CONTINUOUS
 62
     7
100
AcDbLine
 10
-162.5593077855314
 20
127.5
 30
0.0
 11
-162.9500000000002
 21
127.5
 31
0.0
  0
ARC
  5
1CF
330
1F
100
AcDbEntity
  8
1
  6
CONTINUOUS
 62
     7
100
AcDbCircle
 10
-216.95
 20
133.5
 30
0.0
 40
9.500000000000009
100
AcDbArc
 50
90.0
 51
142.7608398828688
  0
LINE
  5
1D0
330
1F
100
AcDbEntity
  8
1
  6
CONTINUOUS
 62
     7
100
AcDbLine
 10
-224.5131067961165
 20
139.2488621126738
 30
0.0
 11
-224.516543692979
 21
139.25656403282
 31
0.0
  0
LINE
  5
1D1
330
1F
100
AcDbEntity
  8
1
  6
CONTINUOUS
 62
     7
100
AcDbLine
 10
-225.95
 20
139.732976816899
 30
0.0
 11
-225.9426022003013
 21
139.7373667294598
 31
0.0
  0
ARC
  5
1D2
330
1F
100
AcDbEntity
  8
1
  6
CONTINUOUS
 62
     7
100
AcDbCircle
 10
-212.5273837106675
 20
148.0
 30
0.0
 40
4.999999999999997
100
AcDbArc
 50
270.0
 51
312.5368983629862
  0
LINE
  5
1D3
330
1F
100
AcDbEntity
  8
1
  6
CONTINUOUS
 62
     7
100
AcDbLine
 10
-212.5273837106675
 20
143.0
 30
0.0
 11
-216.95
 21
143.0
 31
0.0
  0
LINE
  5
1D4
330
1F
100
AcDbEntity
  8
1
  6
CONTINUOUS
 62
     7
100
AcDbLine
 10
-225.95
 20
139.732976816899
 30
0.0
 11
-225.95
 21
153.9407554465222
 31
0.0
  0
ARC
  5
1D5
330
1F
100
AcDbEntity
  8
1
  6
CONTINUOUS
 62
     7
100
AcDbCircle
 10
-218.95
 20
155.0
 30
0.0
 40
14.5
100
AcDbArc
 50
312.5368983629862
 51
334.1580672368319
  0
ARC
  5
1D6
330
1F
100
AcDbEntity
  8
1
  6
CONTINUOUS
 62
     7
100
AcDbCircle
 10
-205.4500000000001
 20
148.4616515846888
 30
0.0
 40
0.4999999999999967
100
AcDbArc
 50
109.4712206344906
 51
154.1580672368317
  0
ARC
  5
1D7
330
1F
100
AcDbEntity
  8
1
  6
CONTINUOUS
 62
     7
100
AcDbCircle
 10
-217.95
 20
157.0
 30
0.0
 40
7.999999999999993
100
AcDbArc
 50
89.9999999999999
 51
180.0
  0
LINE
  5
1D8
330
1F
100
AcDbEntity
  8
1
  6
CONTINUOUS
 62
     7
100
AcDbLine
 10
-225.95
 20
153.9407554465222
 30
0.0
 11
-225.95
 21
156.0592445534778
 31
0.0
  0
LINE
  5
1D9
330
1F
100
AcDbEntity
  8
1
  6
CONTINUOUS
 62
     7
100
AcDbLine
 10
-217.95
 20
165.0
 30
0.0
 11
-208.4847639633292
 21
165.0
 31
0.0
  0
LINE
  5
1DA
330
1F
100
AcDbEntity
  8
1
  6
CONTINUOUS
 62
     7
100
AcDbLine
 10
-225.95
 20
156.0592445534778
 30
0.0
 11
-225.95
 21
157.0
 31
0.0
  0
LINE
  5
1DB
330
1F
100
AcDbEntity
  8
1
  6
CONTINUOUS
 62
     7
100
AcDbLine
 10
-161.45
 20
126.7310933142504
 30
0.0
 11
-161.45
 21
126.0
 31
0.0
  0
ARC
  5
1DC
330
1F
100
AcDbEntity
  8
1
  6
CONTINUOUS
 62
     7
100
AcDbCircle
 10
-162.45
 20
126.0
 30
0.0
 40
1.000000000000001
100
AcDbArc
 50
270.0
 51
0.0
  0
LINE
  5
1DD
330
1F
100
AcDbEntity
  8
1
  6
CONTINUOUS
 62
     7
100
AcDbLine
 10
-225.95
 20
133.0
 30
0.0
 11
-225.95
 21
137.6231056256177
 31
0.0
  0
LINE
  5
1DE
330
1F
100
AcDbEntity
  8
1
  6
CONTINUOUS
 62
     7
100
AcDbLine
 10
-209.0046375952928
 20
125.0
 30
0.0
 11
-217.95
 21
125.0
 31
0.0
  0
LINE
  5
1DF
330
1F
100
AcDbEntity
  8
1
  6
CONTINUOUS
 62
     7
100
AcDbLine
 10
-159.8953624047075
 20
165.0
 30
0.0
 11
-153.95
 21
165.0
 31
0.0
  0
LINE
  5
1E0
330
1F
100
AcDbEntity
  8
1
  6
CONTINUOUS
 62
     7
100
AcDbLine
 10
-161.45
 20
138.5
 30
0.0
 11
-161.45
 21
127.0069137200907
 31
0.0
  0
LWPOLYLINE
  5
1E1
330
1F
100
AcDbEntity
  8
1
  6
CONTINUOUS
 62
     7
100
AcDbPolyline
 90
       20
 70
     0
 43
0.0
 10
161.6680268398182
 20
127.2827368085081
 10
161.649194876777
 20
127.2774829274315
 10
161.6311535407434
 20
127.2713780337514
 10
161.6139527978286
 20
127.26446646997
 10
161.5974599322059
 20
127.2567101121265
 10
161.5818493204823
 20
127.2482065294636
 10
161.5670004074298
 20
127.2389067047245
 10
161.5530617016698
 20
127.2289207034748
 10
161.5400175676561
 20
127.2182698296401
 10
161.5241015968066
 20
127.2031740006682
 10
161.5097822754365
 20
127.1870626699215
 10
161.4969721985997
 20
127.1698993203196
 10
161.4857531117202
 20
127.1518581080961
 10
161.4760115340142
 20
127.1328035772296
 10
161.4678543167013
 20
127.1129929708175
 10
161.4612233533364
 20
127.0923667725849
 10
161.4561478979685
 20
127.0711047008043
 10
161.4516817305204
 20
127.0411188586463
 10
161.4500148277866
 20
127.0101802638815
 10
161.45
 20
127.0069137200908
210
0.0
220
0.0
230
-1.0
  0
ARC
  5
1E2
330
1F
100
AcDbEntity
  8
1
  6
CONTINUOUS
 62
     7
100
AcDbCircle
 10
-217.95
 20
133.0
 30
0.0
 40
7.999999999999993
100
AcDbArc
 50
180.0
 51
270.0
  0
ARC
  5
1E3
330
1F
100
AcDbEntity
  8
1
  6
CONTINUOUS
 62
     7
100
AcDbCircle
 10
-154.95
 20
138.5
 30
0.0
 40
6.500000000000005
100
AcDbArc
 50
90.00000000000004
 51
179.9999999999996
  0
ARC
  5
1E4
330
1F
100
AcDbEntity
  8
1
  6
CONTINUOUS
 62
     7
100
AcDbCircle
 10
-153.95
 20
155.0
 30
0.0
 40
10.00000000000001
100
AcDbArc
 50
270.0000000000001
 51
90.0
  0
LINE
  5
1E5
330
1F
100
AcDbEntity
  8
1
  6
CONTINUOUS
 62
     7
100
AcDbLine
 10
-153.95
 20
145.0
 30
0.0
 11
-154.95
 21
145.0
 31
0.0
  0
LINE
  5
1E6
330
1F
100
AcDbEntity
  8
1
  6
CONTINUOUS
 62
     7
100
AcDbLine
 10
-161.45
 20
127.0069137200908
 30
0.0
 11
-161.45
 21
126.7310933142504
 31
0.0
  0
LWPOLYLINE
  5
1E7
330
1F
100
AcDbEntity
  8
1
  6
CONTINUOUS
 62
     7
100
AcDbPolyline
 90
       36
 70
     0
 43
0.0
 10
205.6166666666668
 20
148.9330561054798
 10
205.606446835329
 20
148.9365521795867
 10
205.596300232198
 20
148.939795032256
 10
205.5862315910009
 20
148.9427933434951
 10
205.5762448044574
 20
148.9455557920056
 10
205.566342891801
 20
148.9480910150608
 10
205.5565279710256
 20
148.9504075632076
 10
205.5468012363829
 20
148.9525138503149
 10
205.5355651224191
 20
148.954716395953
 10
205.5244481115495
 20
148.9566565575699
 10
205.5134471993999
 20
148.9583463656798
 10
205.5025576196801
 20
148.9597971221245
 10
205.4917728688248
 20
148.9610192590162
 10
205.481123131765
 20
148.9620197687619
 10
205.4633369797934
 20
148.9632442308936
 10
205.4460899480828
 20
148.9639067704733
 10
205.4293073587245
 20
148.9640613379002
 10
205.4129121445258
 20
148.9637469162483
 10
205.3968268141284
 20
148.9629881909144
 10
205.3809752271746
 20
148.9617963324601
 10
205.3653960459761
 20
148.9601889150626
 10
205.3302316954745
 20
148.9549170844395
 10
205.2960885724607
 20
148.9474238909144
 10
205.2625448033039
 20
148.9374941169115
 10
205.2299893822442
 20
148.9251396476679
 10
205.1982961926687
 20
148.9101720270585
 10
205.1673943233654
 20
148.8923500138519
 10
205.1272668252554
 20
148.863529224019
 10
205.0898431142
 20
148.8294674761687
 10
205.0557381805467
 20
148.7903102547008
 10
205.0253648938326
 20
148.7460106594242
 10
204.9992395318741
 20
148.6965853490695
 10
204.9783360175888
 20
148.6432728107675
 10
204.9628788683941
 20
148.5860999291644
 10
204.953293000068
 20
148.525442232644
 10
204.9500000000001
 20
148.4616515846888
210
0.0
220
0.0
230
-1.0
  0
LWPOLYLINE
  5
1E8
330
1F
100
AcDbEntity
  8
1
  6
CONTINUOUS
 62
     7
100
AcDbPolyline
 90
       13
 70
     0
 43
0.0
 10
-225.9426022003013
 20
139.7373667294598
 10
-225.919458454077
 20
139.584840445827
 10
-225.8643248699865
 20
139.4386431938351
 10
-225.7794891992938
 20
139.304841383886
 10
-225.6684716722916
 20
139.1889870812934
 10
-225.5358789274185
 20
139.0958876250244
 10
-225.3872128602011
 20
139.0294061486349
 10
-225.228642323777
 20
138.9923012807203
 10
-225.0667471542137
 20
138.9861126764632
 10
-224.9082451422175
 20
139.0110971301105
 10
-224.7597132804558
 20
139.0662179193749
 10
-224.6273148532515
 20
139.1491878239096
 10
-224.516543692979
 20
139.25656403282
  0
LINE
  5
1E9
330
1F
100
AcDbEntity
  8
1
  6
CONTINUOUS
 62
     7
100
AcDbLine
 10
-225.9439005756793
 20
139.6343772431867
 30
0.0
 11
-225.9418494159184
 21
139.6044436348184
 31
0.0
  0
LINE
  5
1EA
330
1F
100
AcDbEntity
  8
1
  6
CONTINUOUS
 62
     7
100
AcDbLine
 10
-225.9418494159184
 20
139.6044436348183
 30
0.0
 11
-225.9333053684166
 21
137.6231056256177
 31
0.0
  0
LINE
  5
1EB
330
1F
100
AcDbEntity
  8
1
  6
CONTINUOUS
 62
     7
100
AcDbLine
 10
-100.0
 20
82.84999999999995
 30
0.0
 11
-100.0
 21
81.84999999999995
 31
0.0
  0
LINE
  5
1EC
330
1F
100
AcDbEntity
  8
1
  6
CONTINUOUS
 62
     7
100
AcDbLine
 10
-80.00000000000001
 20
82.84999999999995
 30
0.0
 11
-80.00000000000001
 21
81.84999999999995
 31
0.0
  0
LINE
  5
1ED
330
1F
100
AcDbEntity
  8
1
  6
CONTINUOUS
 62
     7
100
AcDbLine
 10
-100.0
 20
81.84999999999995
 30
0.0
 11
-79.99999999999999
 21
81.84999999999995
 31
0.0
  0
ARC
  5
1EE
330
1F
100
AcDbEntity
  8
1
  6
CONTINUOUS
 62
     7
100
AcDbCircle
 10
-99.0
 20
82.84999999999995
 30
0.0
 40
1.000000000000001
100
AcDbArc
 50
90.00000000000055
 51
180.0
  0
LINE
  5
1EF
330
1F
100
AcDbEntity
  8
1
  6
CONTINUOUS
 62
     7
100
AcDbLine
 10
-99.0
 20
83.84999999999995
 30
0.0
 11
-80.99999999999999
 21
83.84999999999995
 31
0.0
  0
ARC
  5
1F0
330
1F
100
AcDbEntity
  8
1
  6
CONTINUOUS
 62
     7
100
AcDbCircle
 10
-81.00000000000001
 20
82.84999999999995
 30
0.0
 40
1.000000000000001
100
AcDbArc
 50
0.0
 51
89.99999999999962
  0
LINE
  5
1F1
330
1F
100
AcDbEntity
  8
1
  6
CONTINUOUS
 62
     7
100
AcDbLine
 10
-96.46509252883698
 20
87.84999999999995
 30
0.0
 11
-96.44900207228771
 21
87.84999999999995
 31
0.0
  0
LINE
  5
1F2
330
1F
100
AcDbEntity
  8
1
  6
CONTINUOUS
 62
     7
100
AcDbLine
 10
-96.44900207228802
 20
87.849999999991
 30
0.0
 11
-96.45558385210478
 21
86.84999999998836
 31
0.0
  0
LINE
  5
1F3
330
1F
100
AcDbEntity
  8
1
  6
CONTINUOUS
 62
     7
100
AcDbLine
 10
-94.9081343977844
 20
86.84999999999995
 30
0.0
 11
-96.45558385210445
 21
86.84999999999995
 31
0.0
  0
LINE
  5
1F4
330
1F
100
AcDbEntity
  8
1
  6
CONTINUOUS
 62
     7
100
AcDbLine
 10
-94.90813439778465
 20
86.84999999997993
 30
0.0
 11
-94.8824634231497
 21
87.84999999998008
 31
0.0
  0
LINE
  5
1F5
330
1F
100
AcDbEntity
  8
1
  6
CONTINUOUS
 62
     7
100
AcDbLine
 10
-94.88246342314946
 20
87.84999999999995
 30
0.0
 11
-94.23780277125199
 21
87.84999999999995
 31
0.0
  0
LINE
  5
1F6
330
1F
100
AcDbEntity
  8
1
  6
CONTINUOUS
 62
     7
100
AcDbLine
 10
-94.23780277125293
 20
87.84999999994163
 30
0.0
 11
-94.22143983889933
 21
86.84999999993963
 31
0.0
  0
LINE
  5
1F7
330
1F
100
AcDbEntity
  8
1
  6
CONTINUOUS
 62
     7
100
AcDbLine
 10
-90.48556637919219
 20
86.84999999999995
 30
0.0
 11
-94.22143983889843
 21
86.84999999999995
 31
0.0
  0
LINE
  5
1F8
330
1F
100
AcDbEntity
  8
1
  6
CONTINUOUS
 62
     7
100
AcDbLine
 10
-90.48556637919208
 20
86.84999999994018
 30
0.0
 11
-90.45584391852073
 21
87.84999999994042
 31
0.0
  0
LINE
  5
1F9
330
1F
100
AcDbEntity
  8
1
  6
CONTINUOUS
 62
     7
100
AcDbLine
 10
-90.45584391852086
 20
87.84999999999995
 30
0.0
 11
-89.5441560814792
 21
87.84999999999995
 31
0.0
  0
LINE
  5
1FA
330
1F
100
AcDbEntity
  8
1
  6
CONTINUOUS
 62
     7
100
AcDbLine
 10
-89.54415608147927
 20
87.84999999999602
 30
0.0
 11
-89.51443362080799
 21
86.84999999999756
 31
0.0
  0
LINE
  5
1FB
330
1F
100
AcDbEntity
  8
1
  6
CONTINUOUS
 62
     7
100
AcDbLine
 10
-85.77856016110155
 20
86.84999999999995
 30
0.0
 11
-89.51443362080785
 21
86.84999999999995
 31
0.0
  0
LINE
  5
1FC
330
1F
100
AcDbEntity
  8
1
  6
CONTINUOUS
 62
     7
100
AcDbLine
 10
-85.77856016110144
 20
86.84999999999314
 30
0.0
 11
-85.76219722874787
 21
87.8499999999932
 31
0.0
  0
LINE
  5
1FD
330
1F
100
AcDbEntity
  8
1
  6
CONTINUOUS
 62
     7
100
AcDbLine
 10
-85.76219722874798
 20
87.84999999999995
 30
0.0
 11
-85.11753657685055
 21
87.84999999999995
 31
0.0
  0
LINE
  5
1FE
330
1F
100
AcDbEntity
  8
1
  6
CONTINUOUS
 62
     7
100
AcDbLine
 10
-85.1175365768501
 20
87.84999999995186
 30
0.0
 11
-85.09186560221487
 21
86.8499999999406
 31
0.0
  0
LINE
  5
1FF
330
1F
100
AcDbEntity
  8
1
  6
CONTINUOUS
 62
     7
100
AcDbLine
 10
-83.54441614789556
 20
86.84999999999995
 30
0.0
 11
-85.09186560221562
 21
86.84999999999995
 31
0.0
  0
LINE
  5
200
330
1F
100
AcDbEntity
  8
1
  6
CONTINUOUS
 62
     7
100
AcDbLine
 10
-83.5444161478944
 20
86.84999999993995
 30
0.0
 11
-83.55099792771114
 21
87.84999999994038
 31
0.0
  0
LINE
  5
201
330
1F
100
AcDbEntity
  8
1
  6
CONTINUOUS
 62
     7
100
AcDbLine
 10
-83.55099792771232
 20
87.84999999999995
 30
0.0
 11
-83.53490747116304
 21
87.84999999999995
 31
0.0
  0
LINE
  5
202
330
1F
100
AcDbEntity
  8
1
  6
CONTINUOUS
 62
     7
100
AcDbLine
 10
-94.23780277125202
 20
87.84999999999995
 30
0.0
 11
-90.45584391852086
 21
87.84999999999995
 31
0.0
  0
LINE
  5
203
330
1F
100
AcDbEntity
  8
1
  6
CONTINUOUS
 62
     7
100
AcDbLine
 10
-89.5441560814792
 20
87.84999999999995
 30
0.0
 11
-85.76219722874798
 21
87.84999999999995
 31
0.0
  0
LINE
  5
204
330
1F
100
AcDbEntity
  8
1
  6
CONTINUOUS
 62
     7
100
AcDbLine
 10
-85.11753657685055
 20
87.84999999999995
 30
0.0
 11
-83.55099792771232
 21
87.84999999999995
 31
0.0
  0
LINE
  5
205
330
1F
100
AcDbEntity
  8
1
  6
CONTINUOUS
 62
     7
100
AcDbLine
 10
-96.44900207228771
 20
87.84999999999995
 30
0.0
 11
-94.88246342314946
 21
87.84999999999995
 31
0.0
  0
LINE
  5
206
330
1F
100
AcDbEntity
  8
1
  6
CONTINUOUS
 62
     7
100
AcDbLine
 10
-91.43898770976594
 20
87.85000000241878
 30
0.0
 11
-91.42587456489062
 21
94.84999999999995
 31
0.0
  0
LINE
  5
207
330
1F
100
AcDbEntity
  8
1
  6
CONTINUOUS
 62
     7
100
AcDbLine
 10
-89.67656617362806
 20
94.84999999999995
 30
0.0
 11
-91.42587456489062
 21
94.84999999999995
 31
0.0
  0
LINE
  5
208
330
1F
100
AcDbEntity
  8
1
  6
CONTINUOUS
 62
     7
100
AcDbLine
 10
-89.64082528457482
 20
87.85000002146603
 30
0.0
 11
-89.67656617362806
 21
94.84999999999995
 31
0.0
  0
LINE
  5
209
330
1F
100
AcDbEntity
  8
1
  6
CONTINUOUS
 62
     7
100
AcDbLine
 10
-91.42587456489062
 20
94.84999999999995
 30
0.0
 11
-92.06315711415422
 21
94.84999999999995
 31
0.0
  0
LINE
  5
20A
330
1F
100
AcDbEntity
  8
1
  6
CONTINUOUS
 62
     7
100
AcDbLine
 10
-92.06315711415422
 20
94.84999999999995
 30
0.0
 11
-92.1081395911101
 21
94.84999999999995
 31
0.0
  0
LINE
  5
20B
330
1F
100
AcDbEntity
  8
1
  6
CONTINUOUS
 62
     7
100
AcDbLine
 10
-87.65937931829478
 20
94.84999999999995
 30
0.0
 11
-87.82179586980693
 21
94.84999999999995
 31
0.0
  0
LINE
  5
20C
330
1F
100
AcDbEntity
  8
1
  6
CONTINUOUS
 62
     7
100
AcDbLine
 10
-87.14203220110258
 20
94.84999999999995
 30
0.0
 11
-87.65937931829478
 21
94.84999999999995
 31
0.0
  0
LINE
  5
20D
330
1F
100
AcDbEntity
  8
1
  6
CONTINUOUS
 62
     7
100
AcDbLine
 10
-87.82179586980693
 20
94.84999999999995
 30
0.0
 11
-89.67656617362806
 21
94.84999999999995
 31
0.0
  0
LINE
  5
20E
330
1F
100
AcDbEntity
  8
1
  6
CONTINUOUS
 62
     7
100
AcDbLine
 10
-92.37269693616464
 20
87.85000002146603
 30
0.0
 11
-92.32962883102496
 21
94.84999999999995
 31
0.0
  0
LINE
  5
20F
330
1F
100
AcDbEntity
  8
1
  6
CONTINUOUS
 62
     7
100
AcDbLine
 10
-92.1081395911101
 20
94.84999999999995
 30
0.0
 11
-92.32962883102496
 21
94.84999999999995
 31
0.0
  0
LINE
  5
210
330
1F
100
AcDbEntity
  8
1
  6
CONTINUOUS
 62
     7
100
AcDbLine
 10
-87.02160845373693
 20
94.84999999999995
 30
0.0
 11
-87.14203220110261
 21
94.84999999999995
 31
0.0
  0
LINE
  5
211
330
1F
100
AcDbEntity
  8
1
  6
CONTINUOUS
 62
     7
100
AcDbLine
 10
-93.80093200390574
 20
87.85000000241878
 30
0.0
 11
-93.73920674369379
 21
94.84999999999995
 31
0.0
  0
LINE
  5
212
330
1F
100
AcDbEntity
  8
1
  6
CONTINUOUS
 62
     7
100
AcDbLine
 10
-92.32962883102496
 20
94.84999999999995
 30
0.0
 11
-93.73920674369379
 21
94.84999999999995
 31
0.0
  0
LINE
  5
213
330
1F
100
AcDbEntity
  8
1
  6
CONTINUOUS
 62
     7
100
AcDbLine
 10
-86.48385282312019
 20
94.84999999999995
 30
0.0
 11
-86.64539695543091
 21
94.84999999999995
 31
0.0
  0
LINE
  5
214
330
1F
100
AcDbEntity
  8
1
  6
CONTINUOUS
 62
     7
100
AcDbLine
 10
-86.64539695543091
 20
94.84999999999995
 30
0.0
 11
-87.02160845373693
 21
94.84999999999995
 31
0.0
  0
LINE
  5
215
330
1F
100
AcDbEntity
  8
1
  6
CONTINUOUS
 62
     7
100
AcDbLine
 10
-100.0
 20
81.84999999999995
 30
0.0
 11
-106.5
 21
81.84999999999995
 31
0.0
  0
LINE
  5
216
330
1F
100
AcDbEntity
  8
1
  6
CONTINUOUS
 62
     7
100
AcDbLine
 10
-99.0
 20
83.84999999999995
 30
0.0
 11
-106.5
 21
83.84999999999995
 31
0.0
  0
LWPOLYLINE
  5
217
330
1F
100
AcDbEntity
  8
1
  6
CONTINUOUS
 62
     7
100
AcDbPolyline
 90
        4
 70
     0
 43
0.0
 10
-80.00000000000001
 20
88.46626399476958
 10
-80.0430596642678
 20
88.5776566771988
 10
-80.11807873565166
 20
88.64715589543782
 10
-80.22698954663726
 20
88.70970353937953
  0
ARC
  5
218
330
1F
100
AcDbEntity
  8
1
  6
CONTINUOUS
 62
     7
100
AcDbCircle
 10
-80.95085316172553
 20
86.92106246299701
 30
0.0
 40
1.929563534422094
100
AcDbArc
 50
67.9668049840347
 51
91.45950673042711
  0
LINE
  5
219
330
1F
100
AcDbEntity
  8
1
  6
CONTINUOUS
 62
     7
100
AcDbLine
 10
-80.00000000000001
 20
88.46626399476958
 30
0.0
 11
-80.00000000000001
 21
82.84999999999995
 31
0.0
  0
LINE
  5
21A
330
1F
100
AcDbEntity
  8
1
  6
CONTINUOUS
 62
     7
100
AcDbLine
 10
-82.49999999999999
 20
83.84999999999995
 30
0.0
 11
-82.43851269594488
 21
87.37260529009575
 31
0.0
  0
LWPOLYLINE
  5
21B
330
1F
100
AcDbEntity
  8
1
  6
CONTINUOUS
 62
     7
100
AcDbPolyline
 90
        9
 70
     0
 43
0.0
 10
-81.42424917014016
 20
88.85
 10
-81.61819711889665
 20
88.8217009794466
 10
-81.80534760583274
 20
88.7378753779452
 10
-81.97861472173607
 20
88.60169700824741
 10
-82.13143821088472
 20
88.41832186850296
 10
-82.25803185606202
 20
88.19469292537632
 10
-82.353602556853
 20
87.93927723879446
 10
-82.41453180646002
 20
87.66174538133328
 10
-82.43851269594491
 20
87.37260529009575
  0
LINE
  5
21C
330
1F
100
AcDbEntity
  8
1
  6
CONTINUOUS
 62
     7
100
AcDbLine
 10
-81.00000000000001
 20
88.84999999999995
 30
0.0
 11
-81.42424917014016
 21
88.84999999999995
 31
0.0
  0
LINE
  5
21D
330
1F
100
AcDbEntity
  8
1
  6
CONTINUOUS
 62
     7
100
AcDbLine
 10
-119.0
 20
81.84999999999995
 30
0.0
 11
-106.5
 21
81.84999999999995
 31
0.0
  0
LINE
  5
21E
330
1F
100
AcDbEntity
  8
1
  6
CONTINUOUS
 62
     7
100
AcDbLine
 10
-117.50479545265
 20
83.84999999999995
 30
0.0
 11
-106.5
 21
83.84999999999995
 31
0.0
  0
LINE
  5
21F
330
1F
100
AcDbEntity
  8
1
  6
CONTINUOUS
 62
     7
100
AcDbLine
 10
-120.0
 20
81.84999999999995
 30
0.0
 11
-120.0
 21
83.61393202249991
 31
0.0
  0
LINE
  5
220
330
1F
100
AcDbEntity
  8
1
  6
CONTINUOUS
 62
     7
100
AcDbLine
 10
-119.0
 20
81.84999999999995
 30
0.0
 11
-120.0
 21
81.84999999999995
 31
0.0
  0
LWPOLYLINE
  5
221
330
1F
100
AcDbEntity
  8
1
  6
CONTINUOUS
 62
     7
100
AcDbPolyline
 90
        9
 70
     0
 43
0.0
 10
-117.5485492457974
 20
86.63138442893744
 10
-117.5751481307342
 20
87.06513453721492
 10
-117.638778842124
 20
87.4817165246125
 10
-117.7370202504093
 20
87.86527957097113
 10
-117.8661342993563
 20
88.2012292169733
 10
-118.0212082379776
 20
88.47678267895976
 10
-118.19634154924
 20
88.6814552300285
 10
-118.384870462974
 20
88.80745914076104
 10
-118.5796215103388
 20
88.84999999999995
  0
LINE
  5
222
330
1F
100
AcDbEntity
  8
1
  6
CONTINUOUS
 62
     7
100
AcDbLine
 10
-117.5485492457974
 20
86.63138442893745
 30
0.0
 11
-117.5
 21
83.84999999999995
 31
0.0
  0
LWPOLYLINE
  5
223
330
1F
100
AcDbEntity
  8
1
  6
CONTINUOUS
 62
     7
100
AcDbPolyline
 90
        3
 70
     0
 43
0.0
 10
120.0
 20
88.61393202250018
 10
119.9238795325113
 20
88.70427132640127
 10
119.8314696123026
 20
88.7450843637682
210
0.0
220
0.0
230
-1.0
  0
ARC
  5
224
330
1F
100
AcDbEntity
  8
1
  6
CONTINUOUS
 62
     7
100
AcDbCircle
 10
-119.0726337783272
 20
86.07842338480296
 30
0.0
 40
2.772528196368957
100
AcDbArc
 50
88.49881233601586
 51
105.8844473325083
  0
LINE
  5
225
330
1F
100
AcDbEntity
  8
1
  6
CONTINUOUS
 62
     7
100
AcDbLine
 10
-120.0
 20
83.61393202249991
 30
0.0
 11
-120.0
 21
88.61393202250017
 31
0.0
  0
LINE
  5
226
330
1F
100
AcDbEntity
  8
1
  6
CONTINUOUS
 62
     7
100
AcDbLine
 10
-119.0
 20
88.84999999999995
 30
0.0
 11
-118.5796215103388
 21
88.84999999999995
 31
0.0
  0
LINE
  5
227
330
1F
100
AcDbEntity
  8
1
  6
CONTINUOUS
 62
     7
100
AcDbLine
 10
-80.00000000000001
 20
93.59999999999995
 30
0.0
 11
-80.00000000000001
 21
88.46626399476958
 31
0.0
  0
LINE
  5
228
330
1F
100
AcDbEntity
  8
1
  6
CONTINUOUS
 62
     7
100
AcDbLine
 10
-112.5
 20
91.09999999999994
 30
0.0
 11
-112.366237740549
 21
93.6523359562429
 31
0.0
  0
ARC
  5
229
330
1F
100
AcDbEntity
  8
1
  6
CONTINUOUS
 62
     7
100
AcDbCircle
 10
-110.6732051302942
 20
106.8499999999999
 30
0.0
 40
0.9999999999999966
100
AcDbArc
 50
90.00000000000011
 51
122.6214145669463
  0
LINE
  5
22A
330
1F
100
AcDbEntity
  8
1
  6
CONTINUOUS
 62
     7
100
AcDbLine
 10
-112.366237740549
 20
93.6523359562429
 30
0.0
 11
-111.75793882623
 21
105.2593706873621
 31
0.0
  0
LINE
  5
22B
330
1F
100
AcDbEntity
  8
1
  6
CONTINUOUS
 62
     7
100
AcDbLine
 10
-80.00000000000001
 20
104.7487157712062
 30
0.0
 11
-80.01921509046988
 21
104.9128687777414
 31
0.0
  0
LINE
  5
22C
330
1F
100
AcDbEntity
  8
1
  6
CONTINUOUS
 62
     7
100
AcDbLine
 10
-80.00000000000001
 20
104.7487157712054
 30
0.0
 11
-80.00000000000001
 21
93.59999999999995
 31
0.0
  0
ARC
  5
22D
330
1F
100
AcDbEntity
  8
1
  6
CONTINUOUS
 62
     7
100
AcDbCircle
 10
-118.0
 20
89.09999999999995
 30
0.0
 40
2.000000000000002
100
AcDbArc
 50
90.0
 51
180.0
  0
LINE
  5
22E
330
1F
100
AcDbEntity
  8
1
  6
CONTINUOUS
 62
     7
100
AcDbLine
 10
-118.0
 20
91.09999999999994
 30
0.0
 11
-112.5
 21
91.09999999999994
 31
0.0
  0
LINE
  5
22F
330
1F
100
AcDbEntity
  8
1
  6
CONTINUOUS
 62
     7
100
AcDbLine
 10
-120.0
 20
88.61393202250017
 30
0.0
 11
-120.0
 21
89.09999999999995
 31
0.0
  0
LINE
  5
230
330
1F
100
AcDbEntity
  8
1
  6
CONTINUOUS
 62
     7
100
AcDbLine
 10
-86.63504044416462
 20
107.8355866313495
 30
0.0
 11
-87.14975714530551
 21
107.8499999999999
 31
0.0
  0
LINE
  5
231
330
1F
100
AcDbEntity
  8
1
  6
CONTINUOUS
 62
     7
100
AcDbLine
 10
-114.2507553466298
 20
105.3499999999999
 30
0.0
 11
-116.7054608913386
 21
105.2091873814629
 31
0.0
  0
LINE
  5
232
330
1F
100
AcDbEntity
  8
1
  6
CONTINUOUS
 62
     7
100
AcDbLine
 10
-111.7531891452167
 20
105.3499999999999
 30
0.0
 11
-111.8017303521355
 21
105.3499999999999
 31
0.0
  0
LINE
  5
233
330
1F
100
AcDbEntity
  8
1
  6
CONTINUOUS
 62
     7
100
AcDbLine
 10
-111.8017303521355
 20
105.3499999999999
 30
0.0
 11
-114.2507553466298
 21
105.3499999999999
 31
0.0
  0
LINE
  5
234
330
1F
100
AcDbEntity
  8
1
  6
CONTINUOUS
 62
     7
100
AcDbLine
 10
-112.8502428546945
 20
107.8499999999999
 30
0.0
 11
-110.73051699262
 21
107.8499999999999
 31
0.0
  0
LINE
  5
235
330
1F
100
AcDbEntity
  8
1
  6
CONTINUOUS
 62
     7
100
AcDbLine
 10
-112.8502428546945
 20
107.8499999999999
 30
0.0
 11
-112.9991491492359
 21
107.831714102618
 31
0.0
  0
LINE
  5
236
330
1F
100
AcDbEntity
  8
1
  6
CONTINUOUS
 62
     7
100
AcDbLine
 10
-120.0
 20
93.59999999999995
 30
0.0
 11
-120.0
 21
102.9465999280771
 31
0.0
  0
ARC
  5
237
330
1F
100
AcDbEntity
  8
1
  6
CONTINUOUS
 62
     7
100
AcDbCircle
 10
-117.1320388824681
 20
101.9389174385709
 30
0.0
 40
3.297974269441664
100
AcDbArc
 50
82.5682295353043
 51
145.7451526794765
  0
ARC
  5
238
330
1F
100
AcDbEntity
  8
1
  6
CONTINUOUS
 62
     7
100
AcDbCircle
 10
-117.7508353884032
 20
103.0063624666354
 30
0.0
 40
2.249958446521722
100
AcDbArc
 50
159.4741780943775
 51
181.5220476621155
  0
LINE
  5
239
330
1F
100
AcDbEntity
  8
1
  6
CONTINUOUS
 62
     7
100
AcDbLine
 10
-120.0
 20
102.9465999280771
 30
0.0
 11
-120.0
 21
104.7487157712055
 31
0.0
  0
LINE
  5
23A
330
1F
100
AcDbEntity
  8
1
  6
CONTINUOUS
 62
     7
100
AcDbLine
 10
-119.9685221439119
 20
105.0594928064225
 30
0.0
 11
-120.0
 21
104.7487157712055
 31
0.0
  0
LINE
  5
23B
330
1F
100
AcDbEntity
  8
1
  6
CONTINUOUS
 62
     7
100
AcDbLine
 10
-120.0
 20
93.59999999999995
 30
0.0
 11
-120.0
 21
89.09999999999995
 31
0.0
  0
LINE
  5
23C
330
1F
100
AcDbEntity
  8
1
  6
CONTINUOUS
 62
     7
100
AcDbLine
 10
-83.50000000000001
 20
83.84999999999995
 30
0.0
 11
-83.53490747116304
 21
87.84999999999995
 31
0.0
  0
LINE
  5
23D
330
1F
100
AcDbEntity
  8
1
  6
CONTINUOUS
 62
     7
100
AcDbLine
 10
-96.46509252883698
 20
87.84999999999995
 30
0.0
 11
-96.5
 21
83.84999999999995
 31
0.0
  0
LINE
  5
23E
330
1F
100
AcDbEntity
  8
1
  6
CONTINUOUS
 62
     7
100
AcDbLine
 10
-92.1081395911101
 20
94.84999999999995
 30
0.0
 11
-92.16922766564542
 21
87.84999999999995
 31
0.0
  0
LINE
  5
23F
330
1F
100
AcDbEntity
  8
1
  6
CONTINUOUS
 62
     7
100
AcDbLine
 10
-87.82179586980693
 20
94.84999999999995
 30
0.0
 11
-87.88288394434224
 21
87.84999999999995
 31
0.0
  0
LINE
  5
240
330
1F
100
AcDbEntity
  8
1
  6
CONTINUOUS
 62
     7
100
AcDbLine
 10
-86.96052037920163
 20
87.84999999999995
 30
0.0
 11
-87.02160845373693
 21
94.84999999999995
 31
0.0
  0
LINE
  5
241
330
1F
100
AcDbEntity
  8
1
  6
CONTINUOUS
 62
     7
100
AcDbLine
 10
-86.42276474858487
 20
87.84999999999995
 30
0.0
 11
-86.48385282312019
 21
94.84999999999995
 31
0.0
  0
LWPOLYLINE
  5
242
330
1F
100
AcDbEntity
  8
1
  6
CONTINUOUS
 62
     7
100
AcDbPolyline
 90
        4
 70
     0
 43
0.0
 10
-111.2122900690816
 20
107.692251404133
 10
-111.3057535804946
 20
107.6211169461196
 10
-111.3997220230468
 20
107.513396484908
 10
-111.49019388293
 20
107.3401623604659
  0
ARC
  5
243
330
1F
100
AcDbEntity
  8
1
  6
CONTINUOUS
 62
     7
100
AcDbCircle
 10
-103.4374594038656
 20
105.2837363324623
 30
0.0
 40
8.311162409612963
100
AcDbArc
 50
165.6745499913871
 51
179.5643203909465
  0
ARC
  5
244
330
1F
100
AcDbEntity
  8
1
  6
CONTINUOUS
 62
     7
100
AcDbCircle
 10
-82.93251132309234
 20
104.5504921768102
 30
0.0
 40
2.935747394419912
100
AcDbArc
 50
7.090408678743369
 51
92.82452528429391
  0
LWPOLYLINE
  5
245
330
1F
100
AcDbEntity
  8
1
  6
CONTINUOUS
 62
     7
100
AcDbPolyline
 90
        4
 70
     0
 43
0.0
 10
-83.07717703180867
 20
107.4826730369491
 10
-83.25100266848975
 20
107.507994867475
 10
-83.43446770038781
 20
107.5317150035767
 10
-83.62790663717203
 20
107.5537504247863
  0
LINE
  5
246
330
1F
100
AcDbEntity
  8
1
  6
CONTINUOUS
 62
     7
100
AcDbLine
 10
-83.62790663717223
 20
107.5537504247863
 30
0.0
 11
-86.60200329134773
 21
107.8341314332743
 31
0.0
  0
LINE
  5
247
330
1F
100
AcDbEntity
  8
1
  6
CONTINUOUS
 62
     7
100
AcDbLine
 10
-86.60200329134773
 20
107.8341314332743
 30
0.0
 11
-86.64131666690066
 21
107.8359096766879
 31
0.0
  0
LINE
  5
248
330
1F
100
AcDbEntity
  8
1
  6
CONTINUOUS
 62
     7
100
AcDbLine
 10
-112.9991495962228
 20
107.8317139918142
 30
0.0
 11
-116.372093362828
 21
107.5537504247862
 31
0.0
  0
ARC
  5
249
330
1F
100
AcDbEntity
  8
1
  6
CONTINUOUS
 62
     7
100
AcDbCircle
 10
-116.7396545165728
 20
104.173666158755
 30
0.0
 40
3.400010418691982
100
AcDbArc
 50
83.79386006234567
 51
159.5613962933834
  0
LWPOLYLINE
  5
24A
330
1F
100
AcDbEntity
  8
1
  6
CONTINUOUS
 62
     7
100
AcDbPolyline
 90
        4
 70
     0
 43
0.0
 10
-119.9256238150034
 20
105.360961604999
 10
-119.9459396389085
 20
105.2567762037489
 10
-119.9618787297738
 20
105.148792765966
 10
-119.9730781617842
 20
105.0372269655077
  0
MTEXT
  5
24B
330
1F
100
AcDbEntity
  8
1
 62
     7
100
AcDbMText
 10
-162.3147055145679
 20
66.1659090909091
 30
0.0
 40
3.0
 41
0.0
 71
     1
 72
     1
  1
{\fＭＳ ゴシック;ＧＧＴ－ＶＯ７}
  0
LINE
  5
24C
330
1F
100
AcDbEntity
  8
0
  6
CENTER
 62
     1
100
AcDbLine
 10
-100.0
 20
76.84999999999994
 30
0.0
 11
-100.0
 21
113.6139320224999
 31
0.0
  0
LINE
  5
24E
330
1F
100
AcDbEntity
  8
0
  6
CENTER
 62
     1
100
AcDbLine
 10
-184.95
 20
112.8499999999999
 30
0.0
 11
-184.95
 21
76.84999999999994
 31
0.0
  0
LINE
  5
24F
330
1F
100
AcDbEntity
  8
0
  6
CENTER
 62
     1
100
AcDbLine
 10
-184.95
 20
119.732976816899
 30
0.0
 11
-184.95
 21
173.9407554465222
 31
0.0
  0
ENDSEC
  0
SECTION
  2
OBJECTS
  0
DICTIONARY
  5
C
330
0
100
AcDbDictionary
  3
ACAD_GROUP
350
D
  3
ACAD_LAYOUT
350
1A
  3
ACAD_MATERIAL
350
43
  3
ACAD_MLEADERSTYLE
350
6B
  3
ACAD_MLINESTYLE
350
17
  3
ACAD_PLOTSETTINGS
350
19
  3
ACAD_SCALELIST
350
47
  3
ACAD_VISUALSTYLE
350
2A
  3
ACDBHEADERROUNDTRIPXREC
350
250
  3
ACDBVARIABLEDICTIONARY
350
271
  0
DICTIONARY
  5
278
330
8
100
AcDbDictionary
280
     1
  3
ACAD_XREC_ROUNDTRIP
360
279
  0
DICTIONARY
  5
D
102
{ACAD_REACTORS
330
C
102
}
330
C
100
AcDbDictionary
  0
DICTIONARY
  5
1A
102
{ACAD_REACTORS
330
C
102
}
330
C
100
AcDbDictionary
  0
DICTIONARY
  5
43
102
{ACAD_REACTORS
330
C
102
}
330
C
100
AcDbDictionary
  3
BYBLOCK
350
45
  3
BYLAYER
350
44
  3
GLOBAL
350
46
  0
DICTIONARY
  5
6B
102
{ACAD_REACTORS
330
C
102
}
330
C
100
AcDbDictionary
  3
STANDARD
350
6C
  0
DICTIONARY
  5
17
102
{ACAD_REACTORS
330
C
102
}
330
C
100
AcDbDictionary
  3
STANDARD
350
18
  0
DICTIONARY
  5
19
102
{ACAD_REACTORS
330
C
102
}
330
C
100
AcDbDictionary
  0
DICTIONARY
  5
47
102
{ACAD_REACTORS
330
C
102
}
330
C
100
AcDbDictionary
  3
A0
350
48
  3
A1
350
49
  3
A2
350
4A
  3
A3
350
4B
  3
A4
350
4C
  3
A5
350
4D
  3
A6
350
4E
  3
A7
350
4F
  3
A8
350
50
  3
A9
350
51
  3
B0
350
52
  3
B1
350
53
  3
B2
350
54
  3
B3
350
55
  3
B4
350
56
  3
B5
350
57
  3
B6
350
58
  3
B7
350
59
  3
B8
350
5A
  3
B9
350
5B
  3
C0
350
5C
  3
C1
350
5D
  3
C2
350
5E
  3
C3
350
5F
  3
C4
350
60
  3
C5
350
61
  3
C6
350
62
  3
C7
350
63
  3
C8
350
64
  3
C9
350
65
  3
D0
350
66
  3
D1
350
67
  3
D2
350
68
  0
DICTIONARY
  5
2A
102
{ACAD_REACTORS
330
C
102
}
330
C
100
AcDbDictionary
  3
2DWIREFRAME
350
2F
  3
BASIC
350
32
  3
BRIGHTEN
350
36
  3
COLORCHANGE
350
3A
  3
CONCEPTUAL
350
34
  3
DIM
350
35
  3
EDGECOLOROFF
350
3D
  3
FACEPATTERN
350
39
  3
FLAT
350
2B
  3
FLATWITHEDGES
350
2C
  3
GOURAUD
350
2D
  3
GOURAUDWITHEDGES
350
2E
  3
HIDDEN
350
31
  3
JITTEROFF
350
3B
  3
LINEPATTERN
350
38
  3
OVERHANGOFF
350
3C
  3
REALISTIC
350
33
  3
SHADED
350
42
  3
SHADED_WITH_EDGES
350
41
  3
SHADES_OF_GRAY
350
3E
  3
SKETCHY
350
3F
  3
THICKEN
350
37
  3
WIREFRAME
350
30
  3
X-RAY
350
40
  0
DICTIONARY
  5
250
102
{ACAD_REACTORS
330
C
102
}
330
C
100
AcDbDictionary
  3
CEPSNID
350
25A
  3
CEPSNTYPE
350
259
  3
DIMSTYLEDATA
350
270
  3
FINGERPRINTGUID
350
25B
  3
HYPERLINKBASE
350
253
  3
INSUNITS
350
258
  3
LAYOUTDICT
350
255
  3
LWETCUNION
350
257
  3
PLOTSETDICT
350
256
  3
PSVPSCALE
350
25D
  3
PUCSBASE
350
260
  3
PUCSORGBACK
350
266
  3
PUCSORGBOTTOM
350
262
  3
PUCSORGFRONT
350
265
  3
PUCSORGLEFT
350
263
  3
PUCSORGRIGHT
350
264
  3
PUCSORGTOP
350
261
  3
PUCSORTHOREF
350
25E
  3
PUCSORTHOVIEW
350
25F
  3
STYLESHEET
350
254
  3
TSTACKALIGN
350
251
  3
TSTACKSIZE
350
252
  3
UCSBASE
350
269
  3
UCSORGBACK
350
26F
  3
UCSORGBOTTOM
350
26B
  3
UCSORGFRONT
350
26E
  3
UCSORGLEFT
350
26C
  3
UCSORGRIGHT
350
26D
  3
UCSORGTOP
350
26A
  3
UCSORTHOREF
350
267
  3
UCSORTHOVIEW
350
268
  3
VERSIONGUID
350
25C
  0
DICTIONARY
  5
271
102
{ACAD_REACTORS
330
C
102
}
330
C
100
AcDbDictionary
  3
CANNOSCALE
350
27A
  3
CMLEADERSTYLE
350
273
  3
CTABLESTYLE
350
272
  3
DIMASSOC
350
276
  3
HIDETEXT
350
277
  3
MSLTSCALE
350
27B
  0
XRECORD
  5
279
102
{ACAD_REACTORS
330
278
102
}
330
278
100
AcDbXrecord
102
VTR_0.000_0.000_1.000_1.000_VISUALSTYLE
340
2F
102
VTR_0.000_0.000_1.000_1.000_GRIDDISPLAY
 70
     3
102
VTR_0.000_0.000_1.000_1.000_GRIDMAJOR
 70
     5
102
VTR_0.000_0.000_1.000_1.000_DEFAULTLIGHTING
280
     1
102
VTR_0.000_0.000_1.000_1.000_DEFAULTLIGHTINGTYPE
 70
     1
102
VTR_0.000_0.000_1.000_1.000_BRIGHTNESS
141
0.0
102
VTR_0.000_0.000_1.000_1.000_CONTRAST
142
0.0
  0
MATERIAL
  5
45
102
{ACAD_REACTORS
330
43
102
}
102
{ACAD_XDICTIONARY
360
27E
102
}
330
43
100
AcDbMaterial
  1
BYBLOCK
  0
MATERIAL
  5
44
102
{ACAD_REACTORS
330
43
102
}
102
{ACAD_XDICTIONARY
360
27C
102
}
330
43
100
AcDbMaterial
  1
BYLAYER
  0
MATERIAL
  5
46
102
{ACAD_REACTORS
330
43
102
}
102
{ACAD_XDICTIONARY
360
280
102
}
330
43
100
AcDbMaterial
  1
GLOBAL
  0
ACAD_PROXY_OBJECT
  5
6C
102
{ACAD_REACTORS
330
6B
102
}
330
6B
100
AcDbProxyObject
 90
      499
 91
      505
 93
      610
310
40901902A4063FBFFFFFE056BD1B81E855B9FC0AD7A3703D0AD73F4214DD185B99185C9900AD7A3703D0AC73F90141901A02B5E8DC0F42B1CFC02B5E8DC0F42B1CFE5764000000000000300FC0
340
14
340
0
340
11
340
0
 94
        0
1001
ACAD_MLEADERVER
1070
     2
  0
MLINESTYLE
  5
18
102
{ACAD_REACTORS
330
17
102
}
330
17
100
AcDbMlineStyle
  2
Standard
 70
     0
  3

 62
   256
 51
90.0
 52
90.0
 71
     2
 49
0.5
 62
   256
  6
BYLAYER
 49
-0.5
 62
   256
  6
BYLAYER
  0
ACAD_PROXY_OBJECT
  5
48
102
{ACAD_REACTORS
330
47
102
}
330
47
100
AcDbProxyObject
 90
      499
 91
      503
 93
       41
310
903313A31580
  0
ACAD_PROXY_OBJECT
  5
49
102
{ACAD_REACTORS
330
47
102
}
330
47
100
AcDbProxyObject
 90
      499
 91
      503
 93
      105
310
903313A324000000000000004000
  0
ACAD_PROXY_OBJECT
  5
4A
102
{ACAD_REACTORS
330
47
102
}
330
47
100
AcDbProxyObject
 90
      499
 91
      503
 93
      105
310
903313A344000000000000104000
  0
ACAD_PROXY_OBJECT
  5
4B
102
{ACAD_REACTORS
330
47
102
}
330
47
100
AcDbProxyObject
 90
      499
 91
      503
 93
      105
310
903313A354000000000000144000
  0
ACAD_PROXY_OBJECT
  5
4C
102
{ACAD_REACTORS
330
47
102
}
330
47
100
AcDbProxyObject
 90
      499
 91
      503
 93
      105
310
903313A384000000000000204000
  0
ACAD_PROXY_OBJECT
  5
4D
102
{ACAD_REACTORS
330
47
102
}
330
47
100
AcDbProxyObject
 90
      499
 91
      503
 93
      113
310
904313A31304000000000000244000
  0
ACAD_PROXY_OBJECT
  5
4E
102
{ACAD_REACTORS
330
47
102
}
330
47
100
AcDbProxyObject
 90
      499
 91
      503
 93
      113
310
904313A31364000000000000304000
  0
ACAD_PROXY_OBJECT
  5
4F
102
{ACAD_REACTORS
330
47
102
}
330
47
100
AcDbProxyObject
 90
      499
 91
      503
 93
      113
310
904313A32304000000000000344000
  0
ACAD_PROXY_OBJECT
  5
50
102
{ACAD_REACTORS
330
47
102
}
330
47
100
AcDbProxyObject
 90
      499
 91
      503
 93
      113
310
904313A333040000000000003E4000
  0
ACAD_PROXY_OBJECT
  5
51
102
{ACAD_REACTORS
330
47
102
}
330
47
100
AcDbProxyObject
 90
      499
 91
      503
 93
      113
310
904313A34304000000000000444000
  0
ACAD_PROXY_OBJECT
  5
52
102
{ACAD_REACTORS
330
47
102
}
330
47
100
AcDbProxyObject
 90
      499
 91
      503
 93
      113
310
904313A35304000000000000494000
  0
ACAD_PROXY_OBJECT
  5
53
102
{ACAD_REACTORS
330
47
102
}
330
47
100
AcDbProxyObject
 90
      499
 91
      503
 93
      121
310
905313A3130304000000000000594000
  0
ACAD_PROXY_OBJECT
  5
54
102
{ACAD_REACTORS
330
47
102
}
330
47
100
AcDbProxyObject
 90
      499
 91
      503
 93
      105
310
903323A310000000000000010100
  0
ACAD_PROXY_OBJECT
  5
55
102
{ACAD_REACTORS
330
47
102
}
330
47
100
AcDbProxyObject
 90
      499
 91
      503
 93
      105
310
903343A310000000000000410100
  0
ACAD_PROXY_OBJECT
  5
56
102
{ACAD_REACTORS
330
47
102
}
330
47
100
AcDbProxyObject
 90
      499
 91
      503
 93
      105
310
903383A310000000000000810100
  0
ACAD_PROXY_OBJECT
  5
57
102
{ACAD_REACTORS
330
47
102
}
330
47
100
AcDbProxyObject
 90
      499
 91
      503
 93
      113
310
90431303A310000000000000910100
  0
ACAD_PROXY_OBJECT
  5
58
102
{ACAD_REACTORS
330
47
102
}
330
47
100
AcDbProxyObject
 90
      499
 91
      503
 93
      121
310
9053130303A310000000000001650100
  0
ACAD_PROXY_OBJECT
  5
59
102
{ACAD_REACTORS
330
47
102
}
330
47
100
AcDbProxyObject
 90
      499
 91
      503
 93
      257
310
90E312F31323822203D2031272D3022000000000000200FC000000000000284000
  0
ACAD_PROXY_OBJECT
  5
5A
102
{ACAD_REACTORS
330
47
102
}
330
47
100
AcDbProxyObject
 90
      499
 91
      503
 93
      249
310
90D312F363422203D2031272D3022000000000000240FC000000000000284000
  0
ACAD_PROXY_OBJECT
  5
5B
102
{ACAD_REACTORS
330
47
102
}
330
47
100
AcDbProxyObject
 90
      499
 91
      503
 93
      249
310
90D312F333222203D2031272D3022000000000000280FC000000000000284000
  0
ACAD_PROXY_OBJECT
  5
5C
102
{ACAD_REACTORS
330
47
102
}
330
47
100
AcDbProxyObject
 90
      499
 91
      503
 93
      249
310
90D312F313622203D2031272D30220000000000002C0FC000000000000284000
  0
ACAD_PROXY_OBJECT
  5
5D
102
{ACAD_REACTORS
330
47
102
}
330
47
100
AcDbProxyObject
 90
      499
 91
      503
 93
      249
310
90D332F333222203D2031272D30220000000000002E0FC000000000000284000
  0
ACAD_PROXY_OBJECT
  5
5E
102
{ACAD_REACTORS
330
47
102
}
330
47
100
AcDbProxyObject
 90
      499
 91
      503
 93
      241
310
90C312F3822203D2031272D3022000000000000300FC000000000000284000
  0
ACAD_PROXY_OBJECT
  5
5F
102
{ACAD_REACTORS
330
47
102
}
330
47
100
AcDbProxyObject
 90
      499
 91
      503
 93
      249
310
90D332F313622203D2031272D3022000000000000320FC000000000000284000
  0
ACAD_PROXY_OBJECT
  5
60
102
{ACAD_REACTORS
330
47
102
}
330
47
100
AcDbProxyObject
 90
      499
 91
      503
 93
      241
310
90C312F3422203D2031272D3022000000000000340FC000000000000284000
  0
ACAD_PROXY_OBJECT
  5
61
102
{ACAD_REACTORS
330
47
102
}
330
47
100
AcDbProxyObject
 90
      499
 91
      503
 93
      241
310
90C332F3822203D2031272D3022000000000000360FC000000000000284000
  0
ACAD_PROXY_OBJECT
  5
62
102
{ACAD_REACTORS
330
47
102
}
330
47
100
AcDbProxyObject
 90
      499
 91
      503
 93
      241
310
90C312F3222203D2031272D3022000000000000380FC000000000000284000
  0
ACAD_PROXY_OBJECT
  5
63
102
{ACAD_REACTORS
330
47
102
}
330
47
100
AcDbProxyObject
 90
      499
 91
      503
 93
      241
310
90C332F3422203D2031272D30220000000000003A0FC000000000000284000
  0
ACAD_PROXY_OBJECT
  5
64
102
{ACAD_REACTORS
330
47
102
}
330
47
100
AcDbProxyObject
 90
      499
 91
      503
 93
      161
310
90A3122203D2031272D30224000000000000284000
  0
ACAD_PROXY_OBJECT
  5
65
102
{ACAD_REACTORS
330
47
102
}
330
47
100
AcDbProxyObject
 90
      499
 91
      503
 93
      257
310
90E312D312F3222203D2031272D30220000000000003E0FC000000000000284000
  0
ACAD_PROXY_OBJECT
  5
66
102
{ACAD_REACTORS
330
47
102
}
330
47
100
AcDbProxyObject
 90
      499
 91
      503
 93
      225
310
90A3322203D2031272D302200000000000002100000000000000284000
  0
ACAD_PROXY_OBJECT
  5
67
102
{ACAD_REACTORS
330
47
102
}
330
47
100
AcDbProxyObject
 90
      499
 91
      503
 93
      225
310
90A3622203D2031272D302200000000000006100000000000000284000
  0
ACAD_PROXY_OBJECT
  5
68
102
{ACAD_REACTORS
330
47
102
}
330
47
100
AcDbProxyObject
 90
      499
 91
      503
 93
      249
310
90D31272D3022203D2031272D30220000000000000A100000000000000284000
  0
ACAD_PROXY_OBJECT
  5
2F
102
{ACAD_REACTORS
330
2A
102
}
330
2A
100
AcDbProxyObject
 90
      499
 91
      501
 93
      436
310
42CC9915DA5C99599C985B595049028333333333333E33F0000000000000F90107901411070040501600405405064090741402480A0340
1001
ACAD
1000
AcDbSavedByObjectVersion
1070
     0
  0
ACAD_PROXY_OBJECT
  5
32
102
{ACAD_REACTORS
330
2A
102
}
330
2A
100
AcDbProxyObject
 90
      499
 91
      501
 93
      388
310
4150985CDA58D07406404333333333333E33F0000000000000F90107A41107004050150841D405064090741402480A0350
1001
ACAD
1000
AcDbSavedByObjectVersion
1070
     0
  0
ACAD_PROXY_OBJECT
  5
36
102
{ACAD_REACTORS
330
2A
102
}
330
2A
100
AcDbProxyObject
 90
      499
 91
      501
 93
      428
310
42109C9A59DA1D195B90C409028333333333333E33F0000000000000F9010790141107004050150841D405064090741402480A029950
1001
ACAD
1000
AcDbSavedByObjectVersion
1070
     0
  0
ACAD_PROXY_OBJECT
  5
3A
102
{ACAD_REACTORS
330
2A
102
}
330
2A
100
AcDbProxyObject
 90
      499
 91
      501
 93
      452
310
42D0DBDB1BDC90DA185B99D95104090240C333333333333E33F0000000000000F90108901411070040501508421405064090741402480A0350
1001
ACAD
1000
AcDbSavedByObjectVersion
1070
     0
  0
ACAD_PROXY_OBJECT
  5
34
102
{ACAD_REACTORS
330
2A
102
}
330
2A
100
AcDbProxyObject
 90
      499
 91
      501
 93
      500
310
4290DBDB98D95C1D1D585B10940D028333333333333E33F0000000000000F90107902409070040501000000000018199010841D405064090740C02480A0340
1001
ACAD
1000
AcDbSavedByObjectVersion
1070
     0
  0
ACAD_PROXY_OBJECT
  5
35
102
{ACAD_REACTORS
330
2A
102
}
330
2A
100
AcDbProxyObject
 90
      499
 91
      501
 93
      412
310
40D11A5B50B409028333333333333E33F0000000000000F9010790141107004050150841D405064090741402480A02677FFFFFD0
1001
ACAD
1000
AcDbSavedByObjectVersion
1070
     0
  0
ACAD_PROXY_OBJECT
  5
3D
102
{ACAD_REACTORS
330
2A
102
}
330
2A
100
AcDbProxyObject
 90
      499
 91
      501
 93
      452
310
43115919D950DBDB1BDC93D999916409028333333333333E33F0000000000000F9010790141107004050150841D405064090741402480A0350
1001
ACAD
1000
AcDbSavedByObjectVersion
1070
     0
  0
ACAD_PROXY_OBJECT
  5
39
102
{ACAD_REACTORS
330
2A
102
}
330
2A
100
AcDbProxyObject
 90
      499
 91
      501
 93
      444
310
42D19858D95C185D1D195C9B90F409028333333333333E33F0000000000000F9010790141107004050150841D405064090741402480A0350
1001
ACAD
1000
AcDbSavedByObjectVersion
1070
     0
  0
ACAD_PROXY_OBJECT
  5
2B
102
{ACAD_REACTORS
330
2A
102
}
330
2A
100
AcDbProxyObject
 90
      499
 91
      501
 93
      380
310
41119B185D240901404333333333333E33F0000000000000F9010740A907004050150841D405064090741402480A1B50
1001
ACAD
1000
AcDbSavedByObjectVersion
1070
     0
  0
ACAD_PROXY_OBJECT
  5
2C
102
{ACAD_REACTORS
330
2A
102
}
330
2A
100
AcDbProxyObject
 90
      499
 91
      501
 93
      468
310
43519B185D15DA5D1A115919D95CD0140901404333333333333E33F0000000000000F90107409019070040501600405405064090741402480A1B50
1001
ACAD
1000
AcDbSavedByObjectVersion
1070
     0
  0
ACAD_PROXY_OBJECT
  5
2D
102
{ACAD_REACTORS
330
2A
102
}
330
2A
100
AcDbProxyObject
 90
      499
 91
      501
 93
      404
310
41D1DBDD5C985D5910240902404333333333333E33F0000000000000F9010740A9070040501641D405064090741402480A1B50
1001
ACAD
1000
AcDbSavedByObjectVersion
1070
     0
  0
ACAD_PROXY_OBJECT
  5
2E
102
{ACAD_REACTORS
330
2A
102
}
330
2A
100
AcDbProxyObject
 90
      499
 91
      501
 93
      492
310
4411DBDD5C985D5915DA5D1A115919D95CD0340902404333333333333E33F0000000000000F90107409019070040501600405405064090741402480A1B50
1001
ACAD
1000
AcDbSavedByObjectVersion
1070
     0
  0
ACAD_PROXY_OBJECT
  5
31
102
{ACAD_REACTORS
330
2A
102
}
330
2A
100
AcDbProxyObject
 90
      499
 91
      501
 93
      476
310
41921A5919195B90640502408333333333333E33F0000000000000F901079024090700405020000000000001110200405405064090740C02480A0340
1001
ACAD
1000
AcDbSavedByObjectVersion
1070
     0
  0
ACAD_PROXY_OBJECT
  5
3B
102
{ACAD_REACTORS
330
2A
102
}
330
2A
100
AcDbProxyObject
 90
      499
 91
      501
 93
      428
310
42529A5D1D195C93D999914409028333333333333E33F0000000000000F9010790141107004050150A41D405064090741402480A0350
1001
ACAD
1000
AcDbSavedByObjectVersion
1070
     0
  0
ACAD_PROXY_OBJECT
  5
38
102
{ACAD_REACTORS
330
2A
102
}
330
2A
100
AcDbProxyObject
 90
      499
 91
      501
 93
      444
310
42D31A5B995C185D1D195C9B90E409028333333333333E33F0000000000000F9010790141107004050750841D405064090741402483A0350
1001
ACAD
1000
AcDbSavedByObjectVersion
1070
     0
  0
ACAD_PROXY_OBJECT
  5
3C
102
{ACAD_REACTORS
330
2A
102
}
330
2A
100
AcDbProxyObject
 90
      499
 91
      501
 93
      444
310
42D3DD995C9A185B99D3D999915409028333333333333E33F0000000000000F9010790141107004050150941D405064090741402480A0350
1001
ACAD
1000
AcDbSavedByObjectVersion
1070
     0
  0
ACAD_PROXY_OBJECT
  5
33
102
{ACAD_REACTORS
330
2A
102
}
330
2A
100
AcDbProxyObject
 90
      499
 91
      501
 93
      428
310
425499585B1A5CDD1A58D08409038333333333333E33F0000000000000F9010740A907004050150800405405064090740C02480A1B40
1001
ACAD
1000
AcDbSavedByObjectVersion
1070
     0
  0
ACAD_PROXY_OBJECT
  5
42
102
{ACAD_REACTORS
330
2A
102
}
330
2A
100
AcDbProxyObject
 90
      499
 91
      501
 93
      420
310
4194DA1859195911B40902404333333333333E33F0000000000000F9010740A41107004050150800405405064090840C02480A0B40
1001
ACAD
1000
AcDbSavedByObjectVersion
1070
     0
  0
ACAD_PROXY_OBJECT
  5
41
102
{ACAD_REACTORS
330
2A
102
}
330
2A
100
AcDbProxyObject
 90
      499
 91
      501
 93
      516
310
4454DA18591959081DDA5D1A08195919D95CD1A40902404333333333333E33F0000000000000F901074090142907004050250800405405064090740C02480A0B40
1001
ACAD
1000
AcDbSavedByObjectVersion
1070
     0
  0
ACAD_PROXY_OBJECT
  5
3E
102
{ACAD_REACTORS
330
2A
102
}
330
2A
100
AcDbProxyObject
 90
      499
 91
      501
 93
      532
310
4394DA1859195CC81BD98811DC985E5174090240C333333333333E33F0000000000000F901079024090741D01000000000000111010841D405064090740C02480A0340
1001
ACAD
1000
AcDbSavedByObjectVersion
1070
     0
  0
ACAD_PROXY_OBJECT
  5
3F
102
{ACAD_REACTORS
330
2A
102
}
330
2A
100
AcDbProxyObject
 90
      499
 91
      501
 93
      476
310
41D4DAD95D18DA1E51840502408333333333333E33F0000000000000F901079024090741D01000000000000111010B41D405064090741802480A0340
1001
ACAD
1000
AcDbSavedByObjectVersion
1070
     0
  0
ACAD_PROXY_OBJECT
  5
37
102
{ACAD_REACTORS
330
2A
102
}
330
2A
100
AcDbProxyObject
 90
      499
 91
      501
 93
      412
310
41D51A1A58DAD95B90D409028333333333333E33F0000000000000F9010790141107004050150C41D405064090741402480A0350
1001
ACAD
1000
AcDbSavedByObjectVersion
1070
     0
  0
ACAD_PROXY_OBJECT
  5
30
102
{ACAD_REACTORS
330
2A
102
}
330
2A
100
AcDbProxyObject
 90
      499
 91
      501
 93
      420
310
4255DA5C99599C985B595059028333333333333E33F0000000000000F90107901411070040501600405405064090740C02480A0340
1001
ACAD
1000
AcDbSavedByObjectVersion
1070
     0
  0
ACAD_PROXY_OBJECT
  5
40
102
{ACAD_REACTORS
330
2A
102
}
330
2A
100
AcDbProxyObject
 90
      499
 91
      501
 93
      404
310
41560B54985E51940902404000000000000E03F0000000000000F9010740501907004050150841D405064090740C02480A1B40
1001
ACAD
1000
AcDbSavedByObjectVersion
1070
     0
  0
XRECORD
  5
25A
102
{ACAD_REACTORS
330
250
102
}
330
250
100
AcDbXrecord
340
0
  0
XRECORD
  5
259
102
{ACAD_REACTORS
330
250
102
}
330
250
100
AcDbXrecord
 90
        0
  0
XRECORD
  5
270
102
{ACAD_REACTORS
330
250
102
}
330
250
100
AcDbXrecord
1000
DSTYLE
1002
{
1070
   179
 70
     2
1070
   171
 70
     2
1070
   143
 40
25.4
1070
   274
 70
     2
1070
    41
 40
3.0
1070
   141
 40
0.09
1070
    43
 40
0.38
1070
   278
 70
    46
1070
    44
 40
1.5
1070
    42
 40
0.0625
1070
   147
 40
1.5
1070
   272
 70
     4
1070
    73
 70
     1
1070
   172
 70
     0
1070
    74
 70
     1
1070
   283
 70
     1
1070
   340
340
6F
1070
   140
 40
3.0
1070
   284
 70
     0
1070
    78
 70
     0
1002
}
  0
XRECORD
  5
25B
102
{ACAD_REACTORS
330
250
102
}
330
250
100
AcDbXrecord
  1
{08F4C073-0571-47AB-9FC2-C958C707E79B}
  0
XRECORD
  5
253
102
{ACAD_REACTORS
330
250
102
}
330
250
100
AcDbXrecord
  1

  0
XRECORD
  5
258
102
{ACAD_REACTORS
330
250
102
}
330
250
100
AcDbXrecord
 90
        4
  0
XRECORD
  5
255
102
{ACAD_REACTORS
330
250
102
}
330
250
100
AcDbXrecord
340
1A
  0
XRECORD
  5
257
102
{ACAD_REACTORS
330
250
102
}
330
250
100
AcDbXrecord
 90
    10269
  0
XRECORD
  5
256
102
{ACAD_REACTORS
330
250
102
}
330
250
100
AcDbXrecord
340
19
  0
XRECORD
  5
25D
102
{ACAD_REACTORS
330
250
102
}
330
250
100
AcDbXrecord
 40
0.0
  0
XRECORD
  5
260
102
{ACAD_REACTORS
330
250
102
}
330
250
100
AcDbXrecord
340
0
  0
XRECORD
  5
266
102
{ACAD_REACTORS
330
250
102
}
330
250
100
AcDbXrecord
 10
0.0
 20
0.0
 30
0.0
  0
XRECORD
  5
262
102
{ACAD_REACTORS
330
250
102
}
330
250
100
AcDbXrecord
 10
0.0
 20
0.0
 30
0.0
  0
XRECORD
  5
265
102
{ACAD_REACTORS
330
250
102
}
330
250
100
AcDbXrecord
 10
0.0
 20
0.0
 30
0.0
  0
XRECORD
  5
263
102
{ACAD_REACTORS
330
250
102
}
330
250
100
AcDbXrecord
 10
0.0
 20
0.0
 30
0.0
  0
XRECORD
  5
264
102
{ACAD_REACTORS
330
250
102
}
330
250
100
AcDbXrecord
 10
0.0
 20
0.0
 30
0.0
  0
XRECORD
  5
261
102
{ACAD_REACTORS
330
250
102
}
330
250
100
AcDbXrecord
 10
0.0
 20
0.0
 30
0.0
  0
XRECORD
  5
25E
102
{ACAD_REACTORS
330
250
102
}
330
250
100
AcDbXrecord
340
0
  0
XRECORD
  5
25F
102
{ACAD_REACTORS
330
250
102
}
330
250
100
AcDbXrecord
 70
     0
  0
XRECORD
  5
254
102
{ACAD_REACTORS
330
250
102
}
330
250
100
AcDbXrecord
  1

  0
XRECORD
  5
251
102
{ACAD_REACTORS
330
250
102
}
330
250
100
AcDbXrecord
 90
        1
  0
XRECORD
  5
252
102
{ACAD_REACTORS
330
250
102
}
330
250
100
AcDbXrecord
 90
       70
  0
XRECORD
  5
269
102
{ACAD_REACTORS
330
250
102
}
330
250
100
AcDbXrecord
340
0
  0
XRECORD
  5
26F
102
{ACAD_REACTORS
330
250
102
}
330
250
100
AcDbXrecord
 10
0.0
 20
0.0
 30
0.0
  0
XRECORD
  5
26B
102
{ACAD_REACTORS
330
250
102
}
330
250
100
AcDbXrecord
 10
0.0
 20
0.0
 30
0.0
  0
XRECORD
  5
26E
102
{ACAD_REACTORS
330
250
102
}
330
250
100
AcDbXrecord
 10
0.0
 20
0.0
 30
0.0
  0
XRECORD
  5
26C
102
{ACAD_REACTORS
330
250
102
}
330
250
100
AcDbXrecord
 10
0.0
 20
0.0
 30
0.0
  0
XRECORD
  5
26D
102
{ACAD_REACTORS
330
250
102
}
330
250
100
AcDbXrecord
 10
0.0
 20
0.0
 30
0.0
  0
XRECORD
  5
26A
102
{ACAD_REACTORS
330
250
102
}
330
250
100
AcDbXrecord
 10
0.0
 20
0.0
 30
0.0
  0
XRECORD
  5
267
102
{ACAD_REACTORS
330
250
102
}
330
250
100
AcDbXrecord
340
0
  0
XRECORD
  5
268
102
{ACAD_REACTORS
330
250
102
}
330
250
100
AcDbXrecord
 70
     0
  0
XRECORD
  5
25C
102
{ACAD_REACTORS
330
250
102
}
330
250
100
AcDbXrecord
  1
{FAEB1C32-E019-11D5-929B-00C0DF256EC4}
  0
DICTIONARYVAR
  5
27A
102
{ACAD_REACTORS
330
271
102
}
330
271
100
DictionaryVariables
280
     0
  1
1:1
  0
DICTIONARYVAR
  5
273
102
{ACAD_REACTORS
330
271
102
}
330
271
100
DictionaryVariables
280
     0
  1
Standard
  0
DICTIONARYVAR
  5
272
102
{ACAD_REACTORS
330
271
102
}
330
271
100
DictionaryVariables
280
     0
  1
Standard
  0
DICTIONARYVAR
  5
276
102
{ACAD_REACTORS
330
271
102
}
330
271
100
DictionaryVariables
280
     0
  1
2
  0
DICTIONARYVAR
  5
277
102
{ACAD_REACTORS
330
271
102
}
330
271
100
DictionaryVariables
280
     0
  1
1
  0
DICTIONARYVAR
  5
27B
102
{ACAD_REACTORS
330
271
102
}
330
271
100
DictionaryVariables
280
     0
  1
1
  0
DICTIONARY
  5
27E
330
45
100
AcDbDictionary
280
     1
  3
ACAD_XREC_ROUNDTRIP
360
27F
  0
DICTIONARY
  5
27C
330
44
100
AcDbDictionary
280
     1
  3
ACAD_XREC_ROUNDTRIP
360
27D
  0
DICTIONARY
  5
280
330
46
100
AcDbDictionary
280
     1
  3
ACAD_XREC_ROUNDTRIP
360
281
  0
XRECORD
  5
27F
102
{ACAD_REACTORS
330
27E
102
}
330
27E
100
AcDbXrecord
102
MATERIAL
148
0.0
149
0.0
149
0.0
 93
        0
 94
      127
282
     0
 72
     1
 77
     1
171
     1
175
     1
179
     1
273
     0
  0
XRECORD
  5
27D
102
{ACAD_REACTORS
330
27C
102
}
330
27C
100
AcDbXrecord
102
MATERIAL
148
0.0
149
0.0
149
0.0
 93
        0
 94
      127
282
     0
 72
     1
 77
     1
171
     1
175
     1
179
     1
273
     0
  0
XRECORD
  5
281
102
{ACAD_REACTORS
330
280
102
}
330
280
100
AcDbXrecord
102
MATERIAL
148
0.0
149
0.0
149
0.0
 93
        0
 94
      127
282
     0
 72
     1
 77
     1
171
     1
175
     1
179
     1
273
     0
  0
ENDSEC
  0
EOF
