  0
SECTION
  2
HEADER
  9
$ACADVER
  1
AC1006
  9
$DWGCODEPAGE
  3
ansi_932
  9
$INSBASE
 10
0.0
 20
0.0
 30
0.0
  9
$EXTMIN
 10
-56.11702484026849
 20
177.05
  9
$EXTMAX
 10
479.5
 20
844.65
  9
$LIMMIN
 10
0.0
 20
0.0
  9
$LIMMAX
 10
12.0
 20
9.0
  9
$ORTHOMODE
 70
     0
  9
$REGENMODE
 70
     1
  9
$FILLMODE
 70
     1
  9
$QTEXTMODE
 70
     0
  9
$MIRRTEXT
 70
     1
  9
$DRAGMODE
 70
     2
  9
$LTSCALE
 40
1.0
  9
$OSMODE
 70
    37
  9
$ATTMODE
 70
     1
  9
$TEXTSIZE
 40
0.2
  9
$TRACEWID
 40
0.05
  9
$TEXTSTYLE
  7
STANDARD
  9
$CLAYER
  8
0
  9
$CELTYPE
  6
BYLAYER
  9
$CECOLOR
 62
   256
  9
$DIMSCALE
 40
1.0
  9
$DIMASZ
 40
3.0
  9
$DIMEXO
 40
0.0625
  9
$DIMDLI
 40
0.38
  9
$DIMRND
 40
0.0
  9
$DIMDLE
 40
0.0
  9
$DIMEXE
 40
0.18
  9
$DIMTP
 40
0.0
  9
$DIMTM
 40
0.0
  9
$DIMTXT
 40
3.0
  9
$DIMCEN
 40
0.09
  9
$DIMTSZ
 40
0.0
  9
$DIMTOL
 70
     0
  9
$DIMLIM
 70
     0
  9
$DIMTIH
 70
     1
  9
$DIMTOH
 70
     1
  9
$DIMSE1
 70
     0
  9
$DIMSE2
 70
     0
  9
$DIMTAD
 70
     1
  9
$DIMZIN
 70
     0
  9
$DIMBLK
  1

  9
$DIMASO
 70
     1
  9
$DIMSHO
 70
     1
  9
$DIMPOST
  1

  9
$DIMAPOST
  1

  9
$DIMALT
 70
     0
  9
$DIMALTD
 70
     2
  9
$DIMALTF
 40
25.4
  9
$DIMLFAC
 40
1.0
  9
$DIMTOFL
 70
     0
  9
$DIMTVP
 40
0.0
  9
$DIMTIX
 70
     0
  9
$DIMSOXD
 70
     0
  9
$DIMSAH
 70
     0
  9
$DIMBLK1
  1

  9
$DIMBLK2
  1

  9
$LUNITS
 70
     2
  9
$LUPREC
 70
     4
  9
$SKETCHINC
 40
0.1
  9
$FILLETRAD
 40
0.5
  9
$AUNITS
 70
     0
  9
$AUPREC
 70
     0
  9
$MENU
  1
.
  9
$ELEVATION
 40
0.0
  9
$THICKNESS
 40
0.0
  9
$LIMCHECK
 70
     0
  9
$CHAMFERA
 40
0.5
  9
$CHAMFERB
 40
0.5
  9
$SKPOLY
 70
     0
  9
$TDCREATE
 40
2460017.348949294
  9
$TDUPDATE
 40
2460017.348949306
  9
$TDINDWG
 40
0.0000000116
  9
$TDUSRTIMER
 40
0.0000000116
  9
$USRTIMER
 70
     1
  9
$ANGBASE
 50
0.0
  9
$ANGDIR
 70
     0
  9
$PDMODE
 70
     0
  9
$PDSIZE
 40
0.0
  9
$PLINEWID
 40
0.0
  9
$COORDS
 70
     1
  9
$SPLFRAME
 70
     0
  9
$SPLINETYPE
 70
     6
  9
$SPLINESEGS
 70
     8
  9
$ATTDIA
 70
     0
  9
$ATTREQ
 70
     1
  9
$HANDLING
 70
     1
  9
$HANDSEED
  5
246
  9
$SURFTAB1
 70
     6
  9
$SURFTAB2
 70
     6
  9
$SURFTYPE
 70
     6
  9
$SURFU
 70
     6
  9
$SURFV
 70
     6
  9
$UCSNAME
  2

  9
$UCSORG
 10
0.0
 20
0.0
 30
0.0
  9
$UCSXDIR
 10
1.0
 20
0.0
 30
0.0
  9
$UCSYDIR
 10
0.0
 20
1.0
 30
0.0
  9
$USERI1
 70
     0
  9
$USERI2
 70
     0
  9
$USERI3
 70
     0
  9
$USERI4
 70
     0
  9
$USERI5
 70
     0
  9
$USERR1
 40
0.0
  9
$USERR2
 40
0.0
  9
$USERR3
 40
0.0
  9
$USERR4
 40
0.0
  9
$USERR5
 40
0.0
  9
$WORLDVIEW
 70
     1
  0
ENDSEC
  0
SECTION
  2
TABLES
  0
TABLE
  2
VPORT
 70
     1
  0
VPORT
  2
*ACTIVE
 70
     0
 10
0.0
 20
0.0
 11
1.0
 21
1.0
 12
211.6914875798658
 22
510.85
 13
0.0
 23
0.0
 14
0.5
 24
0.5
 15
0.5
 25
0.5
 16
0.0
 26
0.0
 36
1.0
 17
0.0
 27
0.0
 37
0.0
 40
667.6
 41
1.6
 42
50.0
 43
0.0
 44
0.0
 50
0.0
 51
0.0
 71
     0
 72
   100
 73
     1
 74
     3
 75
     0
 76
     0
 77
     0
 78
     0
  0
ENDTAB
  0
TABLE
  2
LTYPE
 70
     3
  0
LTYPE
  2
CONTINUOUS
 70
     0
  3
Solid line
 72
    65
 73
     0
 40
0.0
  0
LTYPE
  2
________________
 70
     0
  3

 72
    65
 73
     0
 40
0.0
  0
LTYPE
  2
________________0
 70
     0
  3

 72
    65
 73
     4
 40
7.2
 49
2.7
 49
-1.8
 49
0.8999999999999999
 49
-1.8
  0
ENDTAB
  0
TABLE
  2
LAYER
 70
     2
  0
LAYER
  2
0
 70
     0
 62
     7
  6
CONTINUOUS
  0
LAYER
  2
1
 70
     0
 62
     7
  6
CONTINUOUS
  0
ENDTAB
  0
TABLE
  2
STYLE
 70
     2
  0
STYLE
  2
STANDARD
 70
     0
 40
0.0
 41
1.0
 50
0.0
 71
     0
 42
0.2
  3
txt
  4

  0
STYLE
  2
EXPLODED0
 70
     0
 40
0.2
 41
1.0
 50
0.0
 71
     0
 42
0.2
  3
ＭＳ ゴシック
  4

  0
ENDTAB
  0
TABLE
  2
VIEW
 70
     0
  0
ENDTAB
  0
TABLE
  2
UCS
 70
     0
  0
ENDTAB
  0
ENDSEC
  0
SECTION
  2
BLOCKS
  0
BLOCK
  8
0
  2
_2731
 70
     0
 10
0.0
 20
0.0
 30
0.0
  0
ARC
  5
3D
  8
1
  6
________________
 62
     7
 10
18.35
 20
687.95
 30
0.0
 40
1.000000000000001
 50
270.0
 51
0.0
210
0.0
220
0.0
230
-1.0
  0
LINE
  5
3F
  8
1
  6
________________
 62
     7
 10
27.05
 20
686.9499999999999
 30
0.0
 11
-18.35
 21
686.95
 31
0.0
  0
LINE
  5
40
  8
1
  6
________________
 62
     7
 10
27.05
 20
731.35
 30
0.0
 11
27.05
 21
686.9499999999999
 31
0.0
  0
ARC
  5
41
  8
1
  6
________________
 62
     7
 10
-26.05
 20
731.35
 30
0.0
 40
1.000000000000001
 50
90.0
 51
180.0
210
0.0
220
0.0
230
-1.0
  0
LINE
  5
42
  8
1
  6
________________
 62
     7
 10
-18.35
 20
732.35
 30
0.0
 11
26.05
 21
732.35
 31
0.0
  0
ARC
  5
43
  8
1
  6
________________
 62
     7
 10
18.35
 20
731.35
 30
0.0
 40
1.000000000000001
 50
0.0
 51
90.0
210
0.0
220
0.0
230
-1.0
  0
LINE
  5
44
  8
1
  6
________________
 62
     7
 10
-19.35
 20
731.35
 30
0.0
 11
-19.35
 21
687.95
 31
0.0
  0
ARC
  5
45
  8
1
  6
________________
 62
     7
 10
-2.150000000000002
 20
735.65
 30
0.0
 40
1.000000000000001
 50
270.0000000000001
 51
0.0000000000007958
210
0.0
220
0.0
230
-1.0
  0
LINE
  5
46
  8
1
  6
________________
 62
     7
 10
5.549999999999998
 20
734.65
 30
0.0
 11
2.15
 21
734.65
 31
0.0
  0
ARC
  5
47
  8
1
  6
________________
 62
     7
 10
-5.549999999999999
 20
735.65
 30
0.0
 40
0.9999999999999991
 50
179.9999999999991
 51
270.0000000000001
210
0.0
220
0.0
230
-1.0
  0
LINE
  5
48
  8
1
  6
________________
 62
     7
 10
6.55
 20
754.15
 30
0.0
 11
6.549999999999998
 21
735.65
 31
0.0
  0
ARC
  5
49
  8
1
  6
________________
 62
     7
 10
7.050000000000001
 20
754.15
 30
0.0
 40
0.500000000000056
 50
90.0
 51
180.0
  0
LINE
  5
4A
  8
1
  6
________________
 62
     7
 10
8.350000000000001
 20
754.65
 30
0.0
 11
7.050000000000001
 21
754.65
 31
0.0
  0
ARC
  5
4B
  8
1
  6
________________
 62
     7
 10
8.350000000000001
 20
754.15
 30
0.0
 40
0.4999999999999987
 50
0.0
 51
90.0
  0
LINE
  5
4C
  8
1
  6
________________
 62
     7
 10
8.85
 20
746.0838441815176
 30
0.0
 11
8.85
 21
754.15
 31
0.0
  0
ARC
  5
4D
  8
1
  6
________________
 62
     7
 10
-13.85
 20
746.0838441815176
 30
0.0
 40
5.000000000000002
 50
343.3007557660064
 51
0.0
210
0.0
220
0.0
230
-1.0
  0
LINE
  5
4E
  8
1
  6
________________
 62
     7
 10
10.13913142610576
 20
741.0528952463142
 30
0.0
 11
9.060868573894243
 21
744.6471047536859
 31
0.0
  0
ARC
  5
4F
  8
1
  6
________________
 62
     7
 10
5.350000000000001
 20
739.6161558184824
 30
0.0
 40
5.000000000000001
 50
0.0
 51
16.69924423399361
  0
LINE
  5
50
  8
1
  6
________________
 62
     7
 10
10.35
 20
738.35
 30
0.0
 11
10.35
 21
739.6161558184824
 31
0.0
  0
ARC
  5
51
  8
1
  6
________________
 62
     7
 10
9.35
 20
738.35
 30
0.0
 40
1.000000000000001
 50
270.0
 51
0.0
  0
LINE
  5
52
  8
1
  6
________________
 62
     7
 10
8.85
 20
737.35
 30
0.0
 11
9.35
 21
737.35
 31
0.0
  0
LINE
  5
53
  8
1
  6
________________
 62
     7
 10
8.85
 20
735.15
 30
0.0
 11
8.85
 21
737.35
 31
0.0
  0
ARC
  5
54
  8
1
  6
________________
 62
     7
 10
-9.349999999999998
 20
735.15
 30
0.0
 40
0.4999999999999449
 50
270.0
 51
0.0
210
0.0
220
0.0
230
-1.0
  0
LINE
  5
55
  8
1
  6
________________
 62
     7
 10
44.08195071024291
 20
734.65
 30
0.0
 11
39.35
 21
734.65
 31
0.0
  0
LINE
  5
56
  8
1
  6
________________
 62
     7
 10
39.35
 20
734.65
 30
0.0
 11
37.35
 21
734.65
 31
0.0
  0
LINE
  5
57
  8
1
  6
________________
 62
     7
 10
37.35
 20
734.65
 30
0.0
 11
33.34999999999999
 21
734.65
 31
0.0
  0
LINE
  5
58
  8
1
  6
________________
 62
     7
 10
33.34999999999999
 20
734.65
 30
0.0
 11
31.35
 21
734.65
 31
0.0
  0
LINE
  5
59
  8
1
  6
________________
 62
     7
 10
31.35
 20
734.65
 30
0.0
 11
27.35
 21
734.65
 31
0.0
  0
LINE
  5
5A
  8
1
  6
________________
 62
     7
 10
27.35
 20
734.65
 30
0.0
 11
25.35
 21
734.65
 31
0.0
  0
LINE
  5
5B
  8
1
  6
________________
 62
     7
 10
25.35
 20
734.65
 30
0.0
 11
21.35
 21
734.65
 31
0.0
  0
LINE
  5
5C
  8
1
  6
________________
 62
     7
 10
21.35
 20
734.65
 30
0.0
 11
19.35
 21
734.65
 31
0.0
  0
LINE
  5
5D
  8
1
  6
________________
 62
     7
 10
19.35
 20
734.65
 30
0.0
 11
9.850000000000005
 21
734.65
 31
0.0
  0
LINE
  5
5E
  8
1
  6
________________
 62
     7
 10
9.850000000000005
 20
734.65
 30
0.0
 11
9.349999999999998
 21
734.65
 31
0.0
  0
ARC
  5
5F
  8
1
  6
________________
 62
     7
 10
-44.08195071024291
 20
741.65
 30
0.0
 40
7.000000000000003
 50
191.2917062948613
 51
270.0
210
0.0
220
0.0
230
-1.0
  0
ARC
  5
60
  8
1
  6
________________
 62
     7
 10
96.14999999999999
 20
769.6500000000001
 30
0.0
 40
150.0
 50
185.7391704772668
 51
191.2917062948612
210
0.0
220
0.0
230
-1.0
  0
LINE
  5
61
  8
1
  6
________________
 62
     7
 10
53.33630818967847
 20
754.65
 30
0.0
 11
53.09811556599298
 21
754.65
 31
0.0
  0
ARC
  5
62
  8
1
  6
________________
 62
     7
 10
53.33630818967847
 20
753.65
 30
0.0
 40
0.9999999999999968
 50
9.141806625698191
 51
90.00000000000001
  0
ARC
  5
63
  8
1
  6
________________
 62
     7
 10
-686.1499999999999
 20
634.6500000000001
 30
0.0
 40
749.9999999999999
 50
0.5398067160341329
 51
9.141806625698315
  0
ARC
  5
64
  8
1
  6
________________
 62
     7
 10
56.81702484026849
 20
641.6500000000001
 30
0.0
 40
7.000000000000006
 50
270.0
 51
0.5398067160341496
  0
LINE
  5
65
  8
1
  6
________________
 62
     7
 10
51.34999999999999
 20
634.6500000000001
 30
0.0
 11
56.81702484026849
 21
634.6500000000001
 31
0.0
  0
LINE
  5
66
  8
1
  6
________________
 62
     7
 10
51.34999999999999
 20
634.6500000000001
 30
0.0
 11
51.34999999999999
 21
634.9499999999999
 31
0.0
  0
LINE
  5
67
  8
1
  6
________________
 62
     7
 10
51.34999999999999
 20
634.9499999999999
 30
0.0
 11
49.34999999999999
 21
634.95
 31
0.0
  0
LINE
  5
68
  8
1
  6
________________
 62
     7
 10
49.34999999999999
 20
634.95
 30
0.0
 11
49.34999999999999
 21
634.65
 31
0.0
  0
LINE
  5
69
  8
1
  6
________________
 62
     7
 10
45.34999999999998
 20
634.6500000000001
 30
0.0
 11
49.34999999999999
 21
634.65
 31
0.0
  0
LINE
  5
6A
  8
1
  6
________________
 62
     7
 10
45.34999999999998
 20
634.6500000000001
 30
0.0
 11
45.34999999999999
 21
634.9499999999999
 31
0.0
  0
LINE
  5
6B
  8
1
  6
________________
 62
     7
 10
45.34999999999999
 20
634.9499999999999
 30
0.0
 11
43.34999999999999
 21
634.95
 31
0.0
  0
LINE
  5
6C
  8
1
  6
________________
 62
     7
 10
43.34999999999999
 20
634.95
 30
0.0
 11
43.34999999999999
 21
634.65
 31
0.0
  0
LINE
  5
6D
  8
1
  6
________________
 62
     7
 10
39.34999999999996
 20
634.65
 30
0.0
 11
43.34999999999999
 21
634.65
 31
0.0
  0
LINE
  5
6E
  8
1
  6
________________
 62
     7
 10
39.34999999999996
 20
634.65
 30
0.0
 11
39.34999999999999
 21
634.9499999999999
 31
0.0
  0
LINE
  5
6F
  8
1
  6
________________
 62
     7
 10
39.34999999999999
 20
634.9499999999999
 30
0.0
 11
37.34999999999999
 21
634.9499999999999
 31
0.0
  0
LINE
  5
70
  8
1
  6
________________
 62
     7
 10
37.34999999999999
 20
634.9499999999999
 30
0.0
 11
37.34999999999999
 21
634.65
 31
0.0
  0
LINE
  5
71
  8
1
  6
________________
 62
     7
 10
33.34999999999996
 20
634.65
 30
0.0
 11
37.34999999999999
 21
634.65
 31
0.0
  0
LINE
  5
72
  8
1
  6
________________
 62
     7
 10
33.34999999999996
 20
634.65
 30
0.0
 11
33.34999999999999
 21
634.9499999999999
 31
0.0
  0
LINE
  5
73
  8
1
  6
________________
 62
     7
 10
33.34999999999999
 20
634.9499999999999
 30
0.0
 11
31.35000000000001
 21
634.9499999999999
 31
0.0
  0
LINE
  5
74
  8
1
  6
________________
 62
     7
 10
31.35000000000001
 20
634.9499999999999
 30
0.0
 11
31.34999999999999
 21
634.65
 31
0.0
  0
LINE
  5
75
  8
1
  6
________________
 62
     7
 10
27.34999999999997
 20
634.65
 30
0.0
 11
31.34999999999999
 21
634.65
 31
0.0
  0
LINE
  5
76
  8
1
  6
________________
 62
     7
 10
27.34999999999997
 20
634.65
 30
0.0
 11
27.35
 21
634.9499999999999
 31
0.0
  0
LINE
  5
77
  8
1
  6
________________
 62
     7
 10
27.35
 20
634.9499999999999
 30
0.0
 11
25.35
 21
634.9499999999999
 31
0.0
  0
LINE
  5
78
  8
1
  6
________________
 62
     7
 10
25.35
 20
634.9499999999999
 30
0.0
 11
25.35
 21
634.65
 31
0.0
  0
LINE
  5
79
  8
1
  6
________________
 62
     7
 10
21.34999999999999
 20
634.65
 30
0.0
 11
25.35
 21
634.65
 31
0.0
  0
LINE
  5
7A
  8
1
  6
________________
 62
     7
 10
21.34999999999999
 20
634.65
 30
0.0
 11
21.35000000000003
 21
634.9499999999999
 31
0.0
  0
LINE
  5
7B
  8
1
  6
________________
 62
     7
 10
21.35000000000003
 20
634.9499999999999
 30
0.0
 11
19.35
 21
634.9499999999999
 31
0.0
  0
LINE
  5
7C
  8
1
  6
________________
 62
     7
 10
19.35
 20
634.9499999999999
 30
0.0
 11
19.35
 21
634.6500000000001
 31
0.0
  0
LINE
  5
7D
  8
1
  6
________________
 62
     7
 10
9.849999999999971
 20
636.95
 30
0.0
 11
9.849999999999994
 21
634.6500000000001
 31
0.0
  0
LINE
  5
7E
  8
1
  6
________________
 62
     7
 10
12.35
 20
636.95
 30
0.0
 11
9.849999999999971
 21
636.95
 31
0.0
  0
ARC
  5
7F
  8
1
  6
________________
 62
     7
 10
-12.35
 20
637.45
 30
0.0
 40
0.5000000000000004
 50
180.0
 51
270.0
210
0.0
220
0.0
230
-1.0
  0
LINE
  5
80
  8
1
  6
________________
 62
     7
 10
12.85
 20
645.45
 30
0.0
 11
12.85
 21
637.45
 31
0.0
  0
ARC
  5
81
  8
1
  6
________________
 62
     7
 10
-12.35
 20
645.45
 30
0.0
 40
0.4999999999999449
 50
90.0
 51
180.0
210
0.0
220
0.0
230
-1.0
  0
LINE
  5
82
  8
1
  6
________________
 62
     7
 10
-4.650000000000006
 20
645.95
 30
0.0
 11
12.35
 21
645.95
 31
0.0
  0
ARC
  5
83
  8
1
  6
________________
 62
     7
 10
4.650000000000006
 20
645.45
 30
0.0
 40
0.5000000000000004
 50
0.0
 51
90.0
210
0.0
220
0.0
230
-1.0
  0
LINE
  5
84
  8
1
  6
________________
 62
     7
 10
-5.150000000000006
 20
645.45
 30
0.0
 11
-5.150000000000006
 21
637.45
 31
0.0
  0
ARC
  5
85
  8
1
  6
________________
 62
     7
 10
4.650000000000006
 20
637.45
 30
0.0
 40
0.500000000000056
 50
270.0
 51
0.0
210
0.0
220
0.0
230
-1.0
  0
LINE
  5
86
  8
1
  6
________________
 62
     7
 10
-4.650000000000006
 20
636.95
 30
0.0
 11
-2.149999999999983
 21
636.95
 31
0.0
  0
LINE
  5
87
  8
1
  6
________________
 62
     7
 10
-2.149999999999983
 20
636.95
 30
0.0
 11
-2.150000000000006
 21
634.6500000000001
 31
0.0
  0
LINE
  5
88
  8
1
  6
________________
 62
     7
 10
-2.150000000000006
 20
634.6500000000001
 30
0.0
 11
-11.65000000000001
 21
634.6500000000001
 31
0.0
  0
LINE
  5
89
  8
1
  6
________________
 62
     7
 10
-11.65000000000001
 20
634.9499999999999
 30
0.0
 11
-11.65000000000001
 21
634.6500000000001
 31
0.0
  0
LINE
  5
8A
  8
1
  6
________________
 62
     7
 10
-13.65000000000004
 20
634.9499999999999
 30
0.0
 11
-11.65000000000001
 21
634.9499999999999
 31
0.0
  0
LINE
  5
8B
  8
1
  6
________________
 62
     7
 10
-13.65000000000001
 20
634.65
 30
0.0
 11
-13.65000000000004
 21
634.9499999999999
 31
0.0
  0
LINE
  5
8C
  8
1
  6
________________
 62
     7
 10
-13.65000000000001
 20
634.65
 30
0.0
 11
-17.65000000000002
 21
634.65
 31
0.0
  0
LINE
  5
8D
  8
1
  6
________________
 62
     7
 10
-17.65000000000002
 20
634.9499999999999
 30
0.0
 11
-17.65000000000002
 21
634.65
 31
0.0
  0
LINE
  5
8E
  8
1
  6
________________
 62
     7
 10
-19.65000000000002
 20
634.9499999999999
 30
0.0
 11
-17.65000000000002
 21
634.9499999999999
 31
0.0
  0
LINE
  5
8F
  8
1
  6
________________
 62
     7
 10
-19.64999999999999
 20
634.65
 30
0.0
 11
-19.65000000000002
 21
634.9499999999999
 31
0.0
  0
LINE
  5
90
  8
1
  6
________________
 62
     7
 10
-19.64999999999999
 20
634.65
 30
0.0
 11
-23.65000000000001
 21
634.65
 31
0.0
  0
LINE
  5
91
  8
1
  6
________________
 62
     7
 10
-23.65000000000002
 20
634.9499999999999
 30
0.0
 11
-23.65000000000001
 21
634.65
 31
0.0
  0
LINE
  5
92
  8
1
  6
________________
 62
     7
 10
-25.65000000000001
 20
634.9499999999999
 30
0.0
 11
-23.65000000000002
 21
634.9499999999999
 31
0.0
  0
LINE
  5
93
  8
1
  6
________________
 62
     7
 10
-25.64999999999997
 20
634.65
 30
0.0
 11
-25.65000000000001
 21
634.9499999999999
 31
0.0
  0
LINE
  5
94
  8
1
  6
________________
 62
     7
 10
-25.64999999999997
 20
634.65
 30
0.0
 11
-29.65000000000001
 21
634.65
 31
0.0
  0
LINE
  5
95
  8
1
  6
________________
 62
     7
 10
-29.65
 20
634.9499999999999
 30
0.0
 11
-29.65000000000001
 21
634.65
 31
0.0
  0
LINE
  5
96
  8
1
  6
________________
 62
     7
 10
-31.65
 20
634.9499999999999
 30
0.0
 11
-29.65
 21
634.9499999999999
 31
0.0
  0
LINE
  5
97
  8
1
  6
________________
 62
     7
 10
-31.64999999999998
 20
634.65
 30
0.0
 11
-31.65
 21
634.9499999999999
 31
0.0
  0
LINE
  5
98
  8
1
  6
________________
 62
     7
 10
-31.64999999999998
 20
634.65
 30
0.0
 11
-35.65000000000001
 21
634.65
 31
0.0
  0
LINE
  5
99
  8
1
  6
________________
 62
     7
 10
-35.65000000000001
 20
634.95
 30
0.0
 11
-35.65000000000001
 21
634.65
 31
0.0
  0
LINE
  5
9A
  8
1
  6
________________
 62
     7
 10
-37.65
 20
634.9499999999999
 30
0.0
 11
-35.65000000000001
 21
634.95
 31
0.0
  0
LINE
  5
9B
  8
1
  6
________________
 62
     7
 10
-37.65
 20
634.6500000000001
 30
0.0
 11
-37.65
 21
634.9499999999999
 31
0.0
  0
LINE
  5
9C
  8
1
  6
________________
 62
     7
 10
-37.65
 20
634.6500000000001
 30
0.0
 11
-41.65000000000001
 21
634.65
 31
0.0
  0
LINE
  5
9D
  8
1
  6
________________
 62
     7
 10
-41.65000000000001
 20
634.95
 30
0.0
 11
-41.65000000000001
 21
634.65
 31
0.0
  0
LINE
  5
9E
  8
1
  6
________________
 62
     7
 10
-43.65000000000001
 20
634.9499999999999
 30
0.0
 11
-41.65000000000001
 21
634.95
 31
0.0
  0
LINE
  5
9F
  8
1
  6
________________
 62
     7
 10
-43.65
 20
634.6500000000001
 30
0.0
 11
-43.65000000000001
 21
634.9499999999999
 31
0.0
  0
LINE
  5
A0
  8
1
  6
________________
 62
     7
 10
-43.65
 20
634.6500000000001
 30
0.0
 11
-49.11702484026849
 21
634.6500000000001
 31
0.0
  0
ARC
  5
A1
  8
1
  6
________________
 62
     7
 10
-49.11702484026849
 20
641.6500000000001
 30
0.0
 40
6.999999999999999
 50
179.4601932839659
 51
270.0
  0
ARC
  5
A2
  8
1
  6
________________
 62
     7
 10
-693.8499999999999
 20
634.65
 30
0.0
 40
749.9999999999999
 50
0.5398067160341403
 51
9.141806625698322
210
0.0
220
0.0
230
-1.0
  0
ARC
  5
A3
  8
1
  6
________________
 62
     7
 10
-45.63630818967847
 20
753.65
 30
0.0
 40
1.000000000000001
 50
90.0
 51
170.8581933743014
  0
LINE
  5
A4
  8
1
  6
________________
 62
     7
 10
-45.63630818967847
 20
754.65
 30
0.0
 11
-45.39811556599298
 21
754.65
 31
0.0
  0
ARC
  5
A5
  8
1
  6
________________
 62
     7
 10
103.85
 20
769.6500000000001
 30
0.0
 40
150.0
 50
185.7391704772668
 51
191.2917062948612
  0
ARC
  5
A6
  8
1
  6
________________
 62
     7
 10
36.38195071024291
 20
741.65
 30
0.0
 40
7.000000000000006
 50
270.0
 51
348.7082937051388
210
0.0
220
0.0
230
-1.0
  0
LINE
  5
A7
  8
1
  6
________________
 62
     7
 10
-36.38195071024291
 20
734.65
 30
0.0
 11
-31.65
 21
734.65
 31
0.0
  0
LINE
  5
A8
  8
1
  6
________________
 62
     7
 10
-31.65
 20
734.65
 30
0.0
 11
-29.65
 21
734.65
 31
0.0
  0
LINE
  5
A9
  8
1
  6
________________
 62
     7
 10
-29.65
 20
734.65
 30
0.0
 11
-25.65
 21
734.65
 31
0.0
  0
LINE
  5
AA
  8
1
  6
________________
 62
     7
 10
-25.65
 20
734.65
 30
0.0
 11
-23.65000000000001
 21
734.65
 31
0.0
  0
LINE
  5
AB
  8
1
  6
________________
 62
     7
 10
-23.65000000000001
 20
734.65
 30
0.0
 11
-19.65
 21
734.65
 31
0.0
  0
LINE
  5
AC
  8
1
  6
________________
 62
     7
 10
-19.65
 20
734.65
 30
0.0
 11
-17.65000000000001
 21
734.65
 31
0.0
  0
LINE
  5
AD
  8
1
  6
________________
 62
     7
 10
-17.65000000000001
 20
734.65
 30
0.0
 11
-13.65
 21
734.65
 31
0.0
  0
LINE
  5
AE
  8
1
  6
________________
 62
     7
 10
-13.65
 20
734.65
 30
0.0
 11
-11.65
 21
734.65
 31
0.0
  0
LINE
  5
AF
  8
1
  6
________________
 62
     7
 10
-11.65
 20
734.65
 30
0.0
 11
-2.150000000000006
 21
734.65
 31
0.0
  0
LINE
  5
B0
  8
1
  6
________________
 62
     7
 10
-2.150000000000005
 20
734.65
 30
0.0
 11
-1.649999999999998
 21
734.65
 31
0.0
  0
ARC
  5
B1
  8
1
  6
________________
 62
     7
 10
1.649999999999999
 20
735.15
 30
0.0
 40
0.5000000000000004
 50
180.0
 51
269.9999999999998
210
0.0
220
0.0
230
-1.0
  0
LINE
  5
B2
  8
1
  6
________________
 62
     7
 10
-1.15
 20
735.15
 30
0.0
 11
-1.15
 21
737.35
 31
0.0
  0
LINE
  5
B3
  8
1
  6
________________
 62
     7
 10
-1.15
 20
737.35
 30
0.0
 11
-1.65
 21
737.35
 31
0.0
  0
ARC
  5
B4
  8
1
  6
________________
 62
     7
 10
-1.65
 20
738.35
 30
0.0
 40
1.0
 50
180.0
 51
270.0
  0
LINE
  5
B5
  8
1
  6
________________
 62
     7
 10
-2.65
 20
738.35
 30
0.0
 11
-2.65
 21
739.6161558184824
 31
0.0
  0
ARC
  5
B6
  8
1
  6
________________
 62
     7
 10
2.35
 20
739.6161558184824
 30
0.0
 40
5.000000000000002
 50
163.3007557660064
 51
180.0
  0
LINE
  5
B7
  8
1
  6
________________
 62
     7
 10
-1.360868573894241
 20
744.6471047536859
 30
0.0
 11
-2.439131426105757
 21
741.0528952463142
 31
0.0
  0
ARC
  5
B8
  8
1
  6
________________
 62
     7
 10
6.149999999999999
 20
746.0838441815176
 30
0.0
 40
5.0
 50
180.0
 51
196.6992442339936
210
0.0
220
0.0
230
-1.0
  0
LINE
  5
B9
  8
1
  6
________________
 62
     7
 10
-1.149999999999999
 20
746.0838441815176
 30
0.0
 11
-1.149999999999998
 21
754.15
 31
0.0
  0
ARC
  5
BA
  8
1
  6
________________
 62
     7
 10
-0.6499999999999978
 20
754.15
 30
0.0
 40
0.500000000000056
 50
90.0
 51
180.0
  0
LINE
  5
BB
  8
1
  6
________________
 62
     7
 10
-0.6499999999999978
 20
754.65
 30
0.0
 11
0.6500000000000026
 21
754.65
 31
0.0
  0
ARC
  5
BC
  8
1
  6
________________
 62
     7
 10
0.6500000000000026
 20
754.15
 30
0.0
 40
0.5
 50
0.0
 51
90.0
  0
LINE
  5
BD
  8
1
  6
________________
 62
     7
 10
1.150000000000003
 20
754.15
 30
0.0
 11
1.150000000000001
 21
735.65
 31
0.0
  0
ARC
  5
BE
  8
1
  6
________________
 62
     7
 10
-29.85
 20
731.35
 30
0.0
 40
1.000000000000001
 50
0.0
 51
90.0
210
0.0
220
0.0
230
-1.0
  0
LINE
  5
BF
  8
1
  6
________________
 62
     7
 10
28.85
 20
731.35
 30
0.0
 11
28.85
 21
687.95
 31
0.0
  0
ARC
  5
C0
  8
1
  6
________________
 62
     7
 10
-29.85
 20
687.95
 30
0.0
 40
1.000000000000001
 50
270.0
 51
0.0
210
0.0
220
0.0
230
-1.0
  0
LINE
  5
C1
  8
1
  6
________________
 62
     7
 10
29.85
 20
686.95
 30
0.0
 11
58.64527388403849
 21
686.95
 31
0.0
  0
ARC
  5
C2
  8
1
  6
________________
 62
     7
 10
-58.64527388403849
 20
687.95
 30
0.0
 40
0.9999999999999977
 50
175.9067036832227
 51
269.9999999999999
210
0.0
220
0.0
230
-1.0
  0
ARC
  5
C3
  8
1
  6
________________
 62
     7
 10
-686.1499999999999
 20
634.6500000000001
 30
0.0
 40
747.6999999999998
 50
4.093296316777217
 51
7.850028204820808
  0
ARC
  5
C4
  8
1
  6
________________
 62
     7
 10
-53.55264579429925
 20
736.6347331952851
 30
0.0
 40
0.9999999999999887
 50
29.13828378346141
 51
172.1499717951794
210
0.0
220
0.0
230
-1.0
  0
ARC
  5
C5
  8
1
  6
________________
 62
     7
 10
44.55614097978795
 20
741.65
 30
0.0
 40
9.299999999999974
 50
270.0
 51
330.8617162165385
  0
LINE
  5
C6
  8
1
  6
________________
 62
     7
 10
44.55614097978795
 20
732.35
 30
0.0
 11
29.85
 21
732.35
 31
0.0
  0
ARC
  5
C7
  8
1
  6
________________
 62
     7
 10
-16.14999999999999
 20
637.95
 30
0.0
 40
1.000000000000001
 50
270.0
 51
0.0
210
0.0
220
0.0
230
-1.0
  0
LINE
  5
C8
  8
1
  6
________________
 62
     7
 10
26.05
 20
636.95
 30
0.0
 11
16.14999999999999
 21
636.95
 31
0.0
  0
ARC
  5
C9
  8
1
  6
________________
 62
     7
 10
-26.05
 20
637.95
 30
0.0
 40
1.000000000000001
 50
180.0
 51
270.0
210
0.0
220
0.0
230
-1.0
  0
LINE
  5
CA
  8
1
  6
________________
 62
     7
 10
27.05
 20
683.65
 30
0.0
 11
27.05
 21
637.95
 31
0.0
  0
ARC
  5
CB
  8
1
  6
________________
 62
     7
 10
-26.05
 20
683.65
 30
0.0
 40
1.000000000000001
 50
90.0
 51
180.0
210
0.0
220
0.0
230
-1.0
  0
LINE
  5
CC
  8
1
  6
________________
 62
     7
 10
-18.35000000000001
 20
684.65
 30
0.0
 11
26.05
 21
684.65
 31
0.0
  0
ARC
  5
CD
  8
1
  6
________________
 62
     7
 10
18.35000000000001
 20
683.65
 30
0.0
 40
1.000000000000001
 50
0.0
 51
90.0
210
0.0
220
0.0
230
-1.0
  0
LINE
  5
CE
  8
1
  6
________________
 62
     7
 10
-19.35000000000001
 20
683.65
 30
0.0
 11
-19.35000000000001
 21
637.95
 31
0.0
  0
ARC
  5
CF
  8
1
  6
________________
 62
     7
 10
18.35000000000001
 20
637.95
 30
0.0
 40
1.000000000000001
 50
270.0
 51
0.0
210
0.0
220
0.0
230
-1.0
  0
LINE
  5
D0
  8
1
  6
________________
 62
     7
 10
-18.35000000000001
 20
636.95
 30
0.0
 11
-8.450000000000003
 21
636.95
 31
0.0
  0
ARC
  5
D1
  8
1
  6
________________
 62
     7
 10
8.450000000000003
 20
637.95
 30
0.0
 40
1.000000000000002
 50
180.0
 51
270.0
210
0.0
220
0.0
230
-1.0
  0
LINE
  5
D2
  8
1
  6
________________
 62
     7
 10
-7.450000000000003
 20
637.95
 30
0.0
 11
-7.450000000000003
 21
646.75
 31
0.0
  0
ARC
  5
D3
  8
1
  6
________________
 62
     7
 10
-5.950000000000003
 20
646.75
 30
0.0
 40
1.499999999999946
 50
90.0
 51
180.0
  0
LINE
  5
D4
  8
1
  6
________________
 62
     7
 10
13.64999999999999
 20
648.25
 30
0.0
 11
-5.949999999999997
 21
648.25
 31
0.0
  0
ARC
  5
D5
  8
1
  6
________________
 62
     7
 10
13.64999999999999
 20
646.75
 30
0.0
 40
1.499999999999998
 50
0.0
 51
90.0
  0
LINE
  5
D6
  8
1
  6
________________
 62
     7
 10
15.14999999999999
 20
637.95
 30
0.0
 11
15.14999999999999
 21
646.75
 31
0.0
  0
ARC
  5
D7
  8
1
  6
________________
 62
     7
 10
-693.8499999999999
 20
634.65
 30
0.0
 40
747.6999999999998
 50
4.093296316777217
 51
7.850028204820808
210
0.0
220
0.0
230
-1.0
  0
ARC
  5
D8
  8
1
  6
________________
 62
     7
 10
50.94527388403849
 20
687.95
 30
0.0
 40
1.000000000000001
 50
270.0
 51
4.093296316777241
210
0.0
220
0.0
230
-1.0
  0
LINE
  5
D9
  8
1
  6
________________
 62
     7
 10
-22.15000000000001
 20
686.95
 30
0.0
 11
-50.94527388403848
 21
686.95
 31
0.0
  0
ARC
  5
DA
  8
1
  6
________________
 62
     7
 10
22.15000000000001
 20
687.95
 30
0.0
 40
1.000000000000001
 50
180.0
 51
270.0
210
0.0
220
0.0
230
-1.0
  0
LINE
  5
DB
  8
1
  6
________________
 62
     7
 10
-21.15
 20
731.35
 30
0.0
 11
-21.15000000000001
 21
687.95
 31
0.0
  0
ARC
  5
DC
  8
1
  6
________________
 62
     7
 10
22.15
 20
731.35
 30
0.0
 40
1.000000000000001
 50
90.0
 51
180.0
210
0.0
220
0.0
230
-1.0
  0
LINE
  5
DD
  8
1
  6
________________
 62
     7
 10
-36.85614097978844
 20
732.35
 30
0.0
 11
-22.15
 21
732.35
 31
0.0
  0
ARC
  5
DE
  8
1
  6
________________
 62
     7
 10
-36.85614097978844
 20
741.65
 30
0.0
 40
9.29999999999998
 50
209.1382837834666
 51
270.0
  0
ARC
  5
DF
  8
1
  6
________________
 62
     7
 10
45.85264579429928
 20
736.6347331952844
 30
0.0
 40
0.9999999999999872
 50
7.850028204820732
 51
150.8617162165336
210
0.0
220
0.0
230
-1.0
  0
ARC
  5
E0
  8
1
  6
________________
 62
     7
 10
-47.59
 20
657.5
 30
0.0
 40
1.000000000000001
 50
270.0
 51
0.0
  0
LINE
  5
E1
  8
1
  6
________________
 62
     7
 10
-47.59
 20
656.5
 30
0.0
 11
-52.55884741540941
 21
656.5
 31
0.0
  0
ARC
  5
E2
  8
1
  6
________________
 62
     7
 10
52.55884741540941
 20
655.5
 30
0.0
 40
0.9999999999999991
 50
1.600070034900094
 51
90.00000000000001
210
0.0
220
0.0
230
-1.0
  0
ARC
  5
E3
  8
1
  6
________________
 62
     7
 10
48.81412327511816
 20
641.95
 30
0.0
 40
5.000000000000004
 50
270.0
 51
0.5631694161285168
210
0.0
220
0.0
230
-1.0
  0
LINE
  5
E4
  8
1
  6
________________
 62
     7
 10
-48.81412327511816
 20
636.95
 30
0.0
 11
-22.15000000000001
 21
636.95
 31
0.0
  0
ARC
  5
E5
  8
1
  6
________________
 62
     7
 10
22.15000000000001
 20
637.95
 30
0.0
 40
1.000000000000001
 50
180.0
 51
270.0
210
0.0
220
0.0
230
-1.0
  0
ARC
  5
E6
  8
1
  6
________________
 62
     7
 10
22.15000000000001
 20
655.5
 30
0.0
 40
1.000000000000001
 50
90.0
 51
180.0
210
0.0
220
0.0
230
-1.0
  0
LINE
  5
E7
  8
1
  6
________________
 62
     7
 10
-27.15
 20
656.5
 30
0.0
 11
-22.15000000000001
 21
656.5
 31
0.0
  0
ARC
  5
E8
  8
1
  6
________________
 62
     7
 10
-27.15
 20
657.5
 30
0.0
 40
1.000000000000001
 50
180.0
 51
270.0
  0
LINE
  5
E9
  8
1
  6
________________
 62
     7
 10
-28.15
 20
657.8000000000001
 30
0.0
 11
-28.15
 21
657.5
 31
0.0
  0
ARC
  5
EA
  8
1
  6
________________
 62
     7
 10
-27.15
 20
657.8000000000001
 30
0.0
 40
1.000000000000001
 50
90.0
 51
180.0
  0
LINE
  5
EB
  8
1
  6
________________
 62
     7
 10
-22.15000000000001
 20
658.8000000000001
 30
0.0
 11
-27.15
 21
658.8000000000001
 31
0.0
  0
ARC
  5
EC
  8
1
  6
________________
 62
     7
 10
22.15000000000001
 20
659.8000000000001
 30
0.0
 40
1.000000000000001
 50
180.0
 51
270.0
210
0.0
220
0.0
230
-1.0
  0
LINE
  5
ED
  8
1
  6
________________
 62
     7
 10
-21.15000000000001
 20
659.8000000000001
 30
0.0
 11
-21.15000000000001
 21
683.65
 31
0.0
  0
ARC
  5
EE
  8
1
  6
________________
 62
     7
 10
22.15000000000001
 20
683.65
 30
0.0
 40
1.000000000000001
 50
90.0
 51
180.0
210
0.0
220
0.0
230
-1.0
  0
LINE
  5
EF
  8
1
  6
________________
 62
     7
 10
-22.15000000000001
 20
684.65
 30
0.0
 11
-51.24052470152909
 21
684.65
 31
0.0
  0
ARC
  5
F0
  8
1
  6
________________
 62
     7
 10
51.24052470152909
 20
683.65
 30
0.0
 40
1.000000000000007
 50
3.762571414139182
 51
89.99999999999996
210
0.0
220
0.0
230
-1.0
  0
ARC
  5
F1
  8
1
  6
________________
 62
     7
 10
52.42633454371306
 20
659.8000000000001
 30
0.0
 40
1.000000000000001
 50
270.0
 51
1.930174699139684
210
0.0
220
0.0
230
-1.0
  0
LINE
  5
F2
  8
1
  6
________________
 62
     7
 10
-52.42633454371306
 20
658.8000000000001
 30
0.0
 11
-47.59
 21
658.8000000000001
 31
0.0
  0
ARC
  5
F3
  8
1
  6
________________
 62
     7
 10
-47.59
 20
657.8000000000001
 30
0.0
 40
1.000000000000001
 50
0.0
 51
90.0
  0
LINE
  5
F4
  8
1
  6
________________
 62
     7
 10
-46.59
 20
657.8000000000001
 30
0.0
 11
-46.59
 21
657.5
 31
0.0
  0
ARC
  5
F5
  8
1
  6
________________
 62
     7
 10
34.85
 20
666.5
 30
0.0
 40
1.000000000000001
 50
270.0
 51
0.0
  0
LINE
  5
F6
  8
1
  6
________________
 62
     7
 10
29.85
 20
665.5
 30
0.0
 11
34.85
 21
665.5
 31
0.0
  0
ARC
  5
F7
  8
1
  6
________________
 62
     7
 10
-29.85
 20
664.5
 30
0.0
 40
1.000000000000001
 50
0.0
 51
90.0
210
0.0
220
0.0
230
-1.0
  0
ARC
  5
F8
  8
1
  6
________________
 62
     7
 10
-29.85
 20
637.95
 30
0.0
 40
1.000000000000001
 50
270.0000000000002
 51
0.0
210
0.0
220
0.0
230
-1.0
  0
LINE
  5
F9
  8
1
  6
________________
 62
     7
 10
56.51412327511816
 20
636.95
 30
0.0
 11
29.84999999999999
 21
636.95
 31
0.0
  0
ARC
  5
FA
  8
1
  6
________________
 62
     7
 10
-56.51412327511816
 20
641.95
 30
0.0
 40
5.0
 50
179.4368305838715
 51
270.0
210
0.0
220
0.0
230
-1.0
  0
ARC
  5
FB
  8
1
  6
________________
 62
     7
 10
-59.9531212238694
 20
664.5
 30
0.0
 40
1.000000000000001
 50
90.0
 51
177.708939505528
210
0.0
220
0.0
230
-1.0
  0
LINE
  5
FC
  8
1
  6
________________
 62
     7
 10
54.95
 20
665.5
 30
0.0
 11
59.9531212238694
 21
665.5
 31
0.0
  0
ARC
  5
FD
  8
1
  6
________________
 62
     7
 10
54.95
 20
666.5
 30
0.0
 40
1.000000000000001
 50
180.0
 51
270.0
  0
LINE
  5
FE
  8
1
  6
________________
 62
     7
 10
53.95
 20
666.8000000000001
 30
0.0
 11
53.95
 21
666.5
 31
0.0
  0
ARC
  5
FF
  8
1
  6
________________
 62
     7
 10
54.95
 20
666.8000000000001
 30
0.0
 40
1.000000000000001
 50
90.0
 51
180.0
  0
LINE
  5
100
  8
1
  6
________________
 62
     7
 10
59.76867351608781
 20
667.8000000000001
 30
0.0
 11
54.95
 21
667.8000000000001
 31
0.0
  0
ARC
  5
101
  8
1
  6
________________
 62
     7
 10
-59.76867351608781
 20
668.8000000000001
 30
0.0
 40
0.9999999999999948
 50
177.3786880699718
 51
270.0000000000001
210
0.0
220
0.0
230
-1.0
  0
ARC
  5
102
  8
1
  6
________________
 62
     7
 10
686.1499999999999
 20
634.6500000000001
 30
0.0
 40
747.6999999999999
 50
176.2374285858606
 51
177.3786880699718
210
0.0
220
0.0
230
-1.0
  0
ARC
  5
103
  8
1
  6
________________
 62
     7
 10
-58.94052470152909
 20
683.65
 30
0.0
 40
1.000000000000001
 50
90.0
 51
176.2374285858608
210
0.0
220
0.0
230
-1.0
  0
LINE
  5
104
  8
1
  6
________________
 62
     7
 10
29.85
 20
684.65
 30
0.0
 11
58.94052470152908
 21
684.65
 31
0.0
  0
ARC
  5
105
  8
1
  6
________________
 62
     7
 10
-29.85
 20
683.65
 30
0.0
 40
1.000000000000001
 50
0.0
 51
90.0
210
0.0
220
0.0
230
-1.0
  0
LINE
  5
106
  8
1
  6
________________
 62
     7
 10
28.85
 20
668.8000000000001
 30
0.0
 11
28.85
 21
683.65
 31
0.0
  0
ARC
  5
107
  8
1
  6
________________
 62
     7
 10
-29.85
 20
668.8000000000001
 30
0.0
 40
1.000000000000001
 50
270.0
 51
0.0
210
0.0
220
0.0
230
-1.0
  0
LINE
  5
108
  8
1
  6
________________
 62
     7
 10
34.85
 20
667.8000000000001
 30
0.0
 11
29.85
 21
667.8000000000001
 31
0.0
  0
ARC
  5
109
  8
1
  6
________________
 62
     7
 10
34.85
 20
666.8000000000001
 30
0.0
 40
1.000000000000001
 50
0.0
 51
90.0
  0
LINE
  5
10A
  8
1
  6
________________
 62
     7
 10
35.85
 20
666.5
 30
0.0
 11
35.85
 21
666.8000000000001
 31
0.0
  0
ARC
  5
10B
  8
1
  6
________________
 62
     7
 10
693.8499999999999
 20
634.65
 30
0.0
 40
747.6999999999999
 50
178.3999299650995
 51
179.4368305838716
  0
ARC
  5
10C
  8
1
  6
________________
 62
     7
 10
693.8499999999999
 20
634.65
 30
0.0
 40
747.6999999999999
 50
176.2374285858606
 51
178.0698253008603
  0
LINE
  5
10D
  8
1
  6
________________
 62
     7
 10
-21.15000000000001
 20
637.95
 30
0.0
 11
-21.15000000000001
 21
655.5
 31
0.0
  0
LINE
  5
10E
  8
1
  6
________________
 62
     7
 10
28.85
 20
637.95
 30
0.0
 11
28.85
 21
664.5
 31
0.0
  0
ARC
  5
10F
  8
1
  6
________________
 62
     7
 10
686.1499999999999
 20
634.6500000000001
 30
0.0
 40
747.6999999999998
 50
177.7089395055274
 51
179.4368305838716
210
0.0
220
0.0
230
-1.0
  0
LINE
  5
110
  8
1
  6
________________
 62
     7
 10
9.849999999999994
 20
634.6500000000001
 30
0.0
 11
19.35
 21
634.6500000000001
 31
0.0
  0
ARC
  5
111
  8
1
  6
________________
 62
     7
 10
5.949999999999999
 20
747.25
 30
0.0
 40
1.5
 50
0.0
 51
90.0
210
0.0
220
0.0
230
-1.0
  0
ARC
  5
112
  8
1
  6
________________
 62
     7
 10
-42.30060725156086
 20
765.85
 30
0.0
 40
1.499999999999946
 50
90.0
 51
181.4893877178729
  0
ARC
  5
113
  8
1
  6
________________
 62
     7
 10
-36.13571355677691
 20
741.9499999999999
 30
0.0
 40
5.000000000000008
 50
191.1929428424455
 51
270.0
  0
LINE
  5
114
  8
1
  6
________________
 62
     7
 10
-8.45
 20
736.9499999999999
 30
0.0
 11
-36.13571355677691
 21
736.9499999999999
 31
0.0
  0
ARC
  5
115
  8
1
  6
________________
 62
     7
 10
5.950000000000005
 20
823.0500000000001
 30
0.0
 40
1.500000000000057
 50
270.0
 51
0.0
210
0.0
220
0.0
230
-1.0
  0
LINE
  5
116
  8
1
  6
________________
 62
     7
 10
-7.450000000000005
 20
831.35
 30
0.0
 11
-7.450000000000005
 21
823.0500000000001
 31
0.0
  0
ARC
  5
117
  8
1
  6
________________
 62
     7
 10
-8.450000000000006
 20
831.35
 30
0.0
 40
1.000000000000002
 50
0.0
 51
90.0
  0
ARC
  5
118
  8
1
  6
________________
 62
     7
 10
-17.68323061113573
 20
830.35
 30
0.0
 40
2.000000000000002
 50
90.0
 51
144.9516985959647
  0
ARC
  5
119
  8
1
  6
________________
 62
     7
 10
-37.84531386148127
 20
770.6500000000001
 30
0.0
 40
1.000000000000001
 50
179.4630120120378
 51
270.0
  0
ARC
  5
11A
  8
1
  6
________________
 62
     7
 10
1.949999999999998
 20
770.6500000000001
 30
0.0
 40
1.000000000000001
 50
270.0
 51
0.0
  0
LINE
  5
11B
  8
1
  6
________________
 62
     7
 10
2.949999999999995
 20
820.55
 30
0.0
 11
2.949999999999998
 21
770.6500000000001
 31
0.0
  0
ARC
  5
11C
  8
1
  6
________________
 62
     7
 10
1.949999999999994
 20
820.55
 30
0.0
 40
1.0
 50
0.0
 51
90.0
  0
LINE
  5
11D
  8
1
  6
________________
 62
     7
 10
-5.950000000000005
 20
821.55
 30
0.0
 11
1.949999999999994
 21
821.55
 31
0.0
  0
ARC
  5
11E
  8
1
  6
________________
 62
     7
 10
-0.6500000000000012
 20
766.3499999999999
 30
0.0
 40
1.000000000000001
 50
90.0
 51
180.0
  0
ARC
  5
11F
  8
1
  6
________________
 62
     7
 10
-4.65
 20
745.9499999999999
 30
0.0
 40
0.500000000000056
 50
90.0
 51
180.0
  0
ARC
  5
120
  8
1
  6
________________
 62
     7
 10
-4.65
 20
737.45
 30
0.0
 40
0.5000000000000004
 50
180.0
 51
270.0
  0
LINE
  5
121
  8
1
  6
________________
 62
     7
 10
-2.15
 20
736.9499999999999
 30
0.0
 11
-2.150000000000005
 21
734.65
 31
0.0
  0
LINE
  5
122
  8
1
  6
________________
 62
     7
 10
-11.65
 20
734.65
 30
0.0
 11
-11.65
 21
734.9499999999999
 31
0.0
  0
LINE
  5
123
  8
1
  6
________________
 62
     7
 10
-11.65
 20
734.9499999999999
 30
0.0
 11
-13.65
 21
734.9499999999999
 31
0.0
  0
LINE
  5
124
  8
1
  6
________________
 62
     7
 10
-13.65
 20
734.9499999999999
 30
0.0
 11
-13.65
 21
734.65
 31
0.0
  0
LINE
  5
125
  8
1
  6
________________
 62
     7
 10
-17.65000000000001
 20
734.9499999999999
 30
0.0
 11
-19.65
 21
734.9499999999999
 31
0.0
  0
LINE
  5
126
  8
1
  6
________________
 62
     7
 10
-19.65
 20
734.9499999999999
 30
0.0
 11
-19.65
 21
734.65
 31
0.0
  0
LINE
  5
127
  8
1
  6
________________
 62
     7
 10
-23.65
 20
734.65
 30
0.0
 11
-23.65
 21
734.9499999999999
 31
0.0
  0
LINE
  5
128
  8
1
  6
________________
 62
     7
 10
-23.65
 20
734.9499999999999
 30
0.0
 11
-25.65
 21
734.9499999999999
 31
0.0
  0
LINE
  5
129
  8
1
  6
________________
 62
     7
 10
-25.65
 20
734.9499999999999
 30
0.0
 11
-25.65
 21
734.65
 31
0.0
  0
LINE
  5
12A
  8
1
  6
________________
 62
     7
 10
-29.65
 20
734.65
 30
0.0
 11
-29.65
 21
734.9499999999999
 31
0.0
  0
LINE
  5
12B
  8
1
  6
________________
 62
     7
 10
-29.65
 20
734.9499999999999
 30
0.0
 11
-31.65
 21
734.9499999999999
 31
0.0
  0
LINE
  5
12C
  8
1
  6
________________
 62
     7
 10
-31.65
 20
734.9499999999999
 30
0.0
 11
-31.65
 21
734.65
 31
0.0
  0
LINE
  5
12D
  8
1
  6
________________
 62
     7
 10
-31.65
 20
734.65
 30
0.0
 11
-36.38195071024291
 21
734.65
 31
0.0
  0
ARC
  5
12E
  8
1
  6
________________
 62
     7
 10
-42.14549540409288
 20
770.6500000000001
 30
0.0
 40
1.000000000000001
 50
270.0
 51
359.4838148235702
  0
ARC
  5
12F
  8
1
  6
________________
 62
     7
 10
-22.4813199291459
 20
831.8499999999999
 30
0.0
 40
0.4999999999999448
 50
325.743692026745
 51
90.0
  0
ARC
  5
130
  8
1
  6
________________
 62
     7
 10
26.15000000000001
 20
833.5
 30
0.0
 40
1.149999999999984
 50
270.0
 51
0.0
210
0.0
220
0.0
230
-1.0
  0
ARC
  5
131
  8
1
  6
________________
 62
     7
 10
26.15000000000001
 20
833.5
 30
0.0
 40
1.149999999999998
 50
0.0
 51
90.0
210
0.0
220
0.0
230
-1.0
  0
LINE
  5
132
  8
1
  6
________________
 62
     7
 10
-26.15000000000001
 20
834.65
 30
0.0
 11
-20.65000000000001
 21
834.65
 31
0.0
  0
LINE
  5
133
  8
1
  6
________________
 62
     7
 10
-20.65000000000001
 20
834.35
 30
0.0
 11
-18.65000000000001
 21
834.35
 31
0.0
  0
LINE
  5
134
  8
1
  6
________________
 62
     7
 10
-18.65000000000001
 20
834.65
 30
0.0
 11
-15.65
 21
834.65
 31
0.0
  0
LINE
  5
135
  8
1
  6
________________
 62
     7
 10
-15.65
 20
834.65
 30
0.0
 11
-15.65
 21
834.35
 31
0.0
  0
LINE
  5
136
  8
1
  6
________________
 62
     7
 10
-15.65
 20
834.35
 30
0.0
 11
-13.65000000000001
 21
834.35
 31
0.0
  0
LINE
  5
137
  8
1
  6
________________
 62
     7
 10
-13.65000000000001
 20
834.35
 30
0.0
 11
-13.65000000000002
 21
834.65
 31
0.0
  0
LINE
  5
138
  8
1
  6
________________
 62
     7
 10
-10.65000000000001
 20
834.65
 30
0.0
 11
-10.65000000000001
 21
834.35
 31
0.0
  0
LINE
  5
139
  8
1
  6
________________
 62
     7
 10
-10.65000000000001
 20
834.35
 30
0.0
 11
-8.650000000000007
 21
834.35
 31
0.0
  0
LINE
  5
13A
  8
1
  6
________________
 62
     7
 10
-8.650000000000007
 20
834.35
 30
0.0
 11
-8.650000000000011
 21
834.65
 31
0.0
  0
LINE
  5
13B
  8
1
  6
________________
 62
     7
 10
-8.650000000000011
 20
834.65
 30
0.0
 11
-1.650000000000007
 21
834.65
 31
0.0
  0
ARC
  5
13C
  8
1
  6
________________
 62
     7
 10
-4.650000000000007
 20
831.8499999999999
 30
0.0
 40
0.500000000000056
 50
90.0
 51
180.0
  0
LINE
  5
13D
  8
1
  6
________________
 62
     7
 10
-5.150000000000007
 20
831.8499999999999
 30
0.0
 11
-5.150000000000007
 21
824.35
 31
0.0
  0
ARC
  5
13E
  8
1
  6
________________
 62
     7
 10
-4.650000000000007
 20
824.35
 30
0.0
 40
0.5000000000000004
 50
180.0
 51
270.0
  0
LINE
  5
13F
  8
1
  6
________________
 62
     7
 10
21.35000000000002
 20
834.65
 30
0.0
 11
18.35000000000001
 21
834.65
 31
0.0
  0
LINE
  5
140
  8
1
  6
________________
 62
     7
 10
26.35
 20
834.65
 30
0.0
 11
23.35
 21
834.65
 31
0.0
  0
LINE
  5
141
  8
1
  6
________________
 62
     7
 10
33.85
 20
834.65
 30
0.0
 11
28.35
 21
834.65
 31
0.0
  0
LINE
  5
142
  8
1
  6
________________
 62
     7
 10
39.35
 20
734.65
 30
0.0
 11
44.08195071024291
 21
734.65
 31
0.0
  0
LINE
  5
143
  8
1
  6
________________
 62
     7
 10
37.35
 20
734.9499999999999
 30
0.0
 11
39.35
 21
734.9499999999999
 31
0.0
  0
LINE
  5
144
  8
1
  6
________________
 62
     7
 10
33.34999999999999
 20
734.65
 30
0.0
 11
37.35
 21
734.65
 31
0.0
  0
LINE
  5
145
  8
1
  6
________________
 62
     7
 10
31.35
 20
734.9499999999999
 30
0.0
 11
33.35
 21
734.9499999999999
 31
0.0
  0
LINE
  5
146
  8
1
  6
________________
 62
     7
 10
27.35
 20
734.65
 30
0.0
 11
31.35
 21
734.65
 31
0.0
  0
LINE
  5
147
  8
1
  6
________________
 62
     7
 10
25.35
 20
734.9499999999999
 30
0.0
 11
27.35
 21
734.9499999999999
 31
0.0
  0
LINE
  5
148
  8
1
  6
________________
 62
     7
 10
21.35
 20
734.65
 30
0.0
 11
25.35
 21
734.65
 31
0.0
  0
LINE
  5
149
  8
1
  6
________________
 62
     7
 10
19.35
 20
734.9499999999999
 30
0.0
 11
21.35
 21
734.9499999999999
 31
0.0
  0
LINE
  5
14A
  8
1
  6
________________
 62
     7
 10
12.35
 20
736.9499999999999
 30
0.0
 11
9.850000000000001
 21
736.9499999999999
 31
0.0
  0
LINE
  5
14B
  8
1
  6
________________
 62
     7
 10
1.949999999999998
 20
769.6500000000001
 30
0.0
 11
-37.84531386148127
 21
769.6500000000001
 31
0.0
  0
LINE
  5
14C
  8
1
  6
________________
 62
     7
 10
9.850000000000005
 20
734.65
 30
0.0
 11
19.35
 21
734.65
 31
0.0
  0
LINE
  5
14D
  8
1
  6
________________
 62
     7
 10
-20.65000000000001
 20
834.65
 30
0.0
 11
-20.65000000000001
 21
834.35
 31
0.0
  0
LINE
  5
14E
  8
1
  6
________________
 62
     7
 10
-18.65000000000001
 20
834.35
 30
0.0
 11
-18.65000000000001
 21
834.65
 31
0.0
  0
LINE
  5
14F
  8
1
  6
________________
 62
     7
 10
19.35
 20
734.65
 30
0.0
 11
19.35
 21
734.9499999999999
 31
0.0
  0
LINE
  5
150
  8
1
  6
________________
 62
     7
 10
28.35
 20
834.65
 30
0.0
 11
28.35
 21
834.35
 31
0.0
  0
LINE
  5
151
  8
1
  6
________________
 62
     7
 10
26.35
 20
834.35
 30
0.0
 11
26.35
 21
834.65
 31
0.0
  0
LINE
  5
152
  8
1
  6
________________
 62
     7
 10
28.35
 20
834.35
 30
0.0
 11
26.35
 21
834.35
 31
0.0
  0
LINE
  5
153
  8
1
  6
________________
 62
     7
 10
23.35
 20
834.65
 30
0.0
 11
23.35
 21
834.35
 31
0.0
  0
LINE
  5
154
  8
1
  6
________________
 62
     7
 10
21.35000000000001
 20
834.35
 30
0.0
 11
21.35000000000002
 21
834.65
 31
0.0
  0
LINE
  5
155
  8
1
  6
________________
 62
     7
 10
23.35
 20
834.35
 30
0.0
 11
21.35000000000001
 21
834.35
 31
0.0
  0
LINE
  5
156
  8
1
  6
________________
 62
     7
 10
18.35000000000001
 20
834.65
 30
0.0
 11
18.35000000000001
 21
834.35
 31
0.0
  0
LINE
  5
157
  8
1
  6
________________
 62
     7
 10
16.35
 20
834.35
 30
0.0
 11
16.35000000000001
 21
834.65
 31
0.0
  0
LINE
  5
158
  8
1
  6
________________
 62
     7
 10
18.35000000000001
 20
834.35
 30
0.0
 11
16.35
 21
834.35
 31
0.0
  0
ARC
  5
159
  8
1
  6
________________
 62
     7
 10
-25.38323061113573
 20
830.35
 30
0.0
 40
2.000000000000002
 50
90.0
 51
144.9516985959647
210
0.0
220
0.0
230
-1.0
  0
ARC
  5
15A
  8
1
  6
________________
 62
     7
 10
-45.54531386148127
 20
770.6500000000001
 30
0.0
 40
1.000000000000001
 50
179.4630120120378
 51
270.0
210
0.0
220
0.0
230
-1.0
  0
ARC
  5
15B
  8
1
  6
________________
 62
     7
 10
33.85
 20
833.5
 30
0.0
 40
1.149999999999998
 50
0.0
 51
90.0
  0
ARC
  5
15C
  8
1
  6
________________
 62
     7
 10
33.85
 20
833.5
 30
0.0
 40
1.149999999999984
 50
270.0
 51
0.0
  0
ARC
  5
15D
  8
1
  6
________________
 62
     7
 10
13.65
 20
747.25
 30
0.0
 40
1.500000000000001
 50
0.0
 51
90.0
  0
ARC
  5
15E
  8
1
  6
________________
 62
     7
 10
13.65000000000001
 20
823.0500000000001
 30
0.0
 40
1.500000000000057
 50
270.0
 51
0.0
  0
ARC
  5
15F
  8
1
  6
________________
 62
     7
 10
-30.1813199291459
 20
831.8499999999999
 30
0.0
 40
0.4999999999999448
 50
325.743692026745
 51
90.0
210
0.0
220
0.0
230
-1.0
  0
ARC
  5
160
  8
1
  6
________________
 62
     7
 10
-12.35
 20
737.45
 30
0.0
 40
0.5000000000000004
 50
180.0
 51
270.0
210
0.0
220
0.0
230
-1.0
  0
ARC
  5
161
  8
1
  6
________________
 62
     7
 10
-12.35
 20
745.9499999999999
 30
0.0
 40
0.500000000000056
 50
90.0
 51
180.0
210
0.0
220
0.0
230
-1.0
  0
ARC
  5
162
  8
1
  6
________________
 62
     7
 10
-12.35000000000001
 20
831.8499999999999
 30
0.0
 40
0.500000000000056
 50
90.0
 51
180.0
210
0.0
220
0.0
230
-1.0
  0
ARC
  5
163
  8
1
  6
________________
 62
     7
 10
-12.35000000000001
 20
824.35
 30
0.0
 40
0.5000000000000004
 50
180.0
 51
270.0
210
0.0
220
0.0
230
-1.0
  0
ARC
  5
164
  8
1
  6
________________
 62
     7
 10
-4.950000000000002
 20
766.35
 30
0.0
 40
1.0
 50
0.0
 51
90.0
  0
ARC
  5
165
  8
1
  6
________________
 62
     7
 10
-4.95
 20
749.75
 30
0.0
 40
1.000000000000001
 50
270.0
 51
0.0
  0
ARC
  5
166
  8
1
  6
________________
 62
     7
 10
-8.45
 20
737.9499999999999
 30
0.0
 40
1.000000000000001
 50
270.0
 51
0.0
  0
ARC
  5
167
  8
1
  6
________________
 62
     7
 10
36.38195071024291
 20
741.65
 30
0.0
 40
7.000000000000006
 50
270.0
 51
348.7082937051387
210
0.0
220
0.0
230
-1.0
  0
ARC
  5
168
  8
1
  6
________________
 62
     7
 10
-12.65
 20
766.35
 30
0.0
 40
0.9999999999999991
 50
0.0
 51
90.0
210
0.0
220
0.0
230
-1.0
  0
ARC
  5
169
  8
1
  6
________________
 62
     7
 10
-12.65
 20
749.75
 30
0.0
 40
1.000000000000001
 50
270.0
 51
0.0
210
0.0
220
0.0
230
-1.0
  0
ARC
  5
16A
  8
1
  6
________________
 62
     7
 10
43.11938456699068
 20
766.6500000000001
 30
0.0
 40
3.0
 50
358.830617194386
 51
90.0
210
0.0
220
0.0
230
-1.0
  0
ARC
  5
16B
  8
1
  6
________________
 62
     7
 10
-68.85000000000001
 20
769.6500000000001
 30
0.0
 40
107.7
 50
0.536987987962228
 51
35.04830140403539
210
0.0
220
0.0
230
-1.0
  0
ARC
  5
16C
  8
1
  6
________________
 62
     7
 10
-43.83571355677691
 20
741.9499999999999
 30
0.0
 40
5.000000000000008
 50
191.1929428424455
 51
270.0
210
0.0
220
0.0
230
-1.0
  0
ARC
  5
16D
  8
1
  6
________________
 62
     7
 10
-50.00060725156087
 20
765.85
 30
0.0
 40
1.499999999999946
 50
90.0
 51
181.4893877178729
210
0.0
220
0.0
230
-1.0
  0
ARC
  5
16E
  8
1
  6
________________
 62
     7
 10
50.81938456699068
 20
766.6500000000001
 30
0.0
 40
3.0
 50
358.830617194386
 51
90.0
  0
ARC
  5
16F
  8
1
  6
________________
 62
     7
 10
-61.15
 20
769.6500000000001
 30
0.0
 40
107.7
 50
0.536987987962228
 51
35.04830140403539
  0
LINE
  5
170
  8
1
  6
________________
 62
     7
 10
-17.68323061113573
 20
832.35
 30
0.0
 11
-8.450000000000006
 21
832.35
 31
0.0
  0
ARC
  5
171
  8
1
  6
________________
 62
     7
 10
-103.85
 20
769.6500000000001
 30
0.0
 40
147.7
 50
348.8070571575545
 51
358.5106122821271
210
0.0
220
0.0
230
-1.0
  0
LINE
  5
172
  8
1
  6
________________
 62
     7
 10
13.65000000000001
 20
821.55
 30
0.0
 11
5.750000000000005
 21
821.55
 31
0.0
  0
LINE
  5
173
  8
1
  6
________________
 62
     7
 10
-7.449999999999999
 20
747.25
 30
0.0
 11
-7.449999999999999
 21
737.9499999999999
 31
0.0
  0
LINE
  5
174
  8
1
  6
________________
 62
     7
 10
-4.95
 20
748.75
 30
0.0
 11
-5.949999999999999
 21
748.75
 31
0.0
  0
LINE
  5
175
  8
1
  6
________________
 62
     7
 10
-3.950000000000001
 20
766.35
 30
0.0
 11
-3.95
 21
749.75
 31
0.0
  0
LINE
  5
176
  8
1
  6
________________
 62
     7
 10
-42.30060725156086
 20
767.3499999999999
 30
0.0
 11
-4.950000000000003
 21
767.3499999999999
 31
0.0
  0
LINE
  5
177
  8
1
  6
________________
 62
     7
 10
-22.4813199291459
 20
832.35
 30
0.0
 11
-26.15000000000001
 21
832.35
 31
0.0
  0
ARC
  5
178
  8
1
  6
________________
 62
     7
 10
-68.85000000000001
 20
769.6500000000001
 30
0.0
 40
110.0
 50
0.5161851764299518
 51
34.25630797325463
210
0.0
220
0.0
230
-1.0
  0
LINE
  5
179
  8
1
  6
________________
 62
     7
 10
-43.11938456699068
 20
769.6500000000001
 30
0.0
 11
-42.14549540409288
 21
769.6500000000001
 31
0.0
  0
ARC
  5
17A
  8
1
  6
________________
 62
     7
 10
-103.85
 20
769.6500000000001
 30
0.0
 40
150.0
 50
348.7082937051388
 51
354.2608295227332
210
0.0
220
0.0
230
-1.0
  0
ARC
  5
17B
  8
1
  6
________________
 62
     7
 10
-103.85
 20
769.6500000000001
 30
0.0
 40
150.0
 50
354.2608295227332
 51
358.8306171943859
210
0.0
220
0.0
230
-1.0
  0
LINE
  5
17C
  8
1
  6
________________
 62
     7
 10
-5.150000000000001
 20
745.9499999999999
 30
0.0
 11
-5.150000000000001
 21
737.45
 31
0.0
  0
LINE
  5
17D
  8
1
  6
________________
 62
     7
 10
-1.65
 20
746.45
 30
0.0
 11
-4.65
 21
746.45
 31
0.0
  0
LINE
  5
17E
  8
1
  6
________________
 62
     7
 10
-1.650000000000001
 20
766.3499999999999
 30
0.0
 11
-1.65
 21
746.45
 31
0.0
  0
ARC
  5
17F
  8
1
  6
________________
 62
     7
 10
-96.14999999999999
 20
769.6500000000001
 30
0.0
 40
150.0
 50
348.7082937051388
 51
354.2608295227332
  0
ARC
  5
180
  8
1
  6
________________
 62
     7
 10
-96.14999999999999
 20
769.6500000000001
 30
0.0
 40
150.0
 50
354.2608295227332
 51
358.8306171943859
  0
LINE
  5
181
  8
1
  6
________________
 62
     7
 10
-1.650000000000006
 20
832.35
 30
0.0
 11
-4.650000000000007
 21
832.35
 31
0.0
  0
LINE
  5
182
  8
1
  6
________________
 62
     7
 10
-1.650000000000006
 20
834.65
 30
0.0
 11
-1.650000000000006
 21
832.35
 31
0.0
  0
LINE
  5
183
  8
1
  6
________________
 62
     7
 10
9.35
 20
766.3499999999999
 30
0.0
 11
9.35
 21
746.45
 31
0.0
  0
LINE
  5
184
  8
1
  6
________________
 62
     7
 10
-0.6500000000000012
 20
767.3499999999999
 30
0.0
 11
8.350000000000001
 21
767.3499999999999
 31
0.0
  0
LINE
  5
185
  8
1
  6
________________
 62
     7
 10
12.35000000000001
 20
823.8499999999999
 30
0.0
 11
-4.650000000000008
 21
823.8499999999999
 31
0.0
  0
LINE
  5
186
  8
1
  6
________________
 62
     7
 10
12.85000000000001
 20
831.8499999999999
 30
0.0
 11
12.85000000000001
 21
824.35
 31
0.0
  0
LINE
  5
187
  8
1
  6
________________
 62
     7
 10
9.350000000000005
 20
832.35
 30
0.0
 11
12.35000000000001
 21
832.35
 31
0.0
  0
LINE
  5
188
  8
1
  6
________________
 62
     7
 10
9.350000000000005
 20
834.65
 30
0.0
 11
9.350000000000005
 21
832.35
 31
0.0
  0
LINE
  5
189
  8
1
  6
________________
 62
     7
 10
16.35000000000001
 20
834.65
 30
0.0
 11
9.350000000000005
 21
834.65
 31
0.0
  0
LINE
  5
18A
  8
1
  6
________________
 62
     7
 10
-17.65000000000001
 20
734.65
 30
0.0
 11
-17.65000000000001
 21
734.9499999999999
 31
0.0
  0
LINE
  5
18B
  8
1
  6
________________
 62
     7
 10
27.35
 20
734.9499999999999
 30
0.0
 11
27.35
 21
734.65
 31
0.0
  0
LINE
  5
18C
  8
1
  6
________________
 62
     7
 10
21.35
 20
734.9499999999999
 30
0.0
 11
21.35
 21
734.65
 31
0.0
  0
LINE
  5
18D
  8
1
  6
________________
 62
     7
 10
-13.65000000000002
 20
834.65
 30
0.0
 11
-10.65000000000001
 21
834.65
 31
0.0
  0
LINE
  5
18E
  8
1
  6
________________
 62
     7
 10
-13.65
 20
734.65
 30
0.0
 11
-17.65000000000001
 21
734.65
 31
0.0
  0
LINE
  5
18F
  8
1
  6
________________
 62
     7
 10
-19.65
 20
734.65
 30
0.0
 11
-23.65
 21
734.65
 31
0.0
  0
LINE
  5
190
  8
1
  6
________________
 62
     7
 10
-25.65
 20
734.65
 30
0.0
 11
-29.65
 21
734.65
 31
0.0
  0
LINE
  5
191
  8
1
  6
________________
 62
     7
 10
-4.65
 20
736.9499999999999
 30
0.0
 11
-2.15
 21
736.9499999999999
 31
0.0
  0
LINE
  5
192
  8
1
  6
________________
 62
     7
 10
-2.150000000000005
 20
734.65
 30
0.0
 11
-11.65
 21
734.65
 31
0.0
  0
LINE
  5
193
  8
1
  6
________________
 62
     7
 10
9.850000000000001
 20
736.9499999999999
 30
0.0
 11
9.850000000000005
 21
734.65
 31
0.0
  0
ARC
  5
194
  8
1
  6
________________
 62
     7
 10
-49.84549540409288
 20
770.6500000000001
 30
0.0
 40
1.000000000000001
 50
270.0
 51
359.4838148235702
210
0.0
220
0.0
230
-1.0
  0
LINE
  5
195
  8
1
  6
________________
 62
     7
 10
39.35
 20
734.9499999999999
 30
0.0
 11
39.35
 21
734.65
 31
0.0
  0
LINE
  5
196
  8
1
  6
________________
 62
     7
 10
37.35
 20
734.65
 30
0.0
 11
37.35
 21
734.9499999999999
 31
0.0
  0
LINE
  5
197
  8
1
  6
________________
 62
     7
 10
33.35
 20
734.9499999999999
 30
0.0
 11
33.34999999999999
 21
734.65
 31
0.0
  0
LINE
  5
198
  8
1
  6
________________
 62
     7
 10
31.35
 20
734.65
 30
0.0
 11
31.35
 21
734.9499999999999
 31
0.0
  0
LINE
  5
199
  8
1
  6
________________
 62
     7
 10
25.35
 20
734.65
 30
0.0
 11
25.35
 21
734.9499999999999
 31
0.0
  0
ARC
  5
19A
  8
1
  6
________________
 62
     7
 10
-16.15000000000001
 20
831.35
 30
0.0
 40
1.000000000000001
 50
0.0
 51
90.0
210
0.0
220
0.0
230
-1.0
  0
ARC
  5
19B
  8
1
  6
________________
 62
     7
 10
-5.750000000000006
 20
820.55
 30
0.0
 40
1.0
 50
0.0
 51
90.0
210
0.0
220
0.0
230
-1.0
  0
ARC
  5
19C
  8
1
  6
________________
 62
     7
 10
-5.750000000000002
 20
770.6500000000001
 30
0.0
 40
1.000000000000001
 50
270.0
 51
0.0
210
0.0
220
0.0
230
-1.0
  0
ARC
  5
19D
  8
1
  6
________________
 62
     7
 10
-8.350000000000001
 20
766.3499999999999
 30
0.0
 40
1.000000000000001
 50
90.0
 51
180.0
210
0.0
220
0.0
230
-1.0
  0
ARC
  5
19E
  8
1
  6
________________
 62
     7
 10
-16.15
 20
737.9499999999999
 30
0.0
 40
1.000000000000001
 50
270.0
 51
0.0
210
0.0
220
0.0
230
-1.0
  0
ARC
  5
19F
  8
1
  6
________________
 62
     7
 10
44.08195071024291
 20
741.65
 30
0.0
 40
7.000000000000006
 50
270.0
 51
348.7082937051387
  0
LINE
  5
1A0
  8
1
  6
________________
 62
     7
 10
5.750000000000002
 20
769.6500000000001
 30
0.0
 11
45.54531386148128
 21
769.6500000000001
 31
0.0
  0
LINE
  5
1A1
  8
1
  6
________________
 62
     7
 10
4.750000000000005
 20
820.55
 30
0.0
 11
4.750000000000002
 21
770.6500000000001
 31
0.0
  0
LINE
  5
1A2
  8
1
  6
________________
 62
     7
 10
15.15
 20
831.35
 30
0.0
 11
15.15
 21
823.0500000000001
 31
0.0
  0
LINE
  5
1A3
  8
1
  6
________________
 62
     7
 10
25.38323061113573
 20
832.35
 30
0.0
 11
16.15000000000001
 21
832.35
 31
0.0
  0
ARC
  5
1A4
  8
1
  6
________________
 62
     7
 10
-96.14999999999999
 20
769.6500000000001
 30
0.0
 40
147.7
 50
348.8070571575545
 51
358.5106122821271
  0
LINE
  5
1A5
  8
1
  6
________________
 62
     7
 10
16.15
 20
736.9499999999999
 30
0.0
 11
43.83571355677691
 21
736.9499999999999
 31
0.0
  0
LINE
  5
1A6
  8
1
  6
________________
 62
     7
 10
15.15
 20
747.25
 30
0.0
 11
15.15
 21
737.9499999999999
 31
0.0
  0
LINE
  5
1A7
  8
1
  6
________________
 62
     7
 10
12.65
 20
748.75
 30
0.0
 11
13.65
 21
748.75
 31
0.0
  0
LINE
  5
1A8
  8
1
  6
________________
 62
     7
 10
11.65
 20
766.35
 30
0.0
 11
11.65
 21
749.75
 31
0.0
  0
LINE
  5
1A9
  8
1
  6
________________
 62
     7
 10
50.00060725156087
 20
767.3499999999999
 30
0.0
 11
12.65
 21
767.3499999999999
 31
0.0
  0
LINE
  5
1AA
  8
1
  6
________________
 62
     7
 10
30.1813199291459
 20
832.35
 30
0.0
 11
33.85
 21
832.35
 31
0.0
  0
ARC
  5
1AB
  8
1
  6
________________
 62
     7
 10
-61.15
 20
769.6500000000001
 30
0.0
 40
110.0
 50
0.5161851764299518
 51
34.25630797325463
  0
LINE
  5
1AC
  8
1
  6
________________
 62
     7
 10
50.81938456699068
 20
769.6500000000001
 30
0.0
 11
49.84549540409288
 21
769.6500000000001
 31
0.0
  0
LINE
  5
1AD
  8
1
  6
________________
 62
     7
 10
12.85
 20
745.9499999999999
 30
0.0
 11
12.85
 21
737.45
 31
0.0
  0
LINE
  5
1AE
  8
1
  6
________________
 62
     7
 10
9.35
 20
746.45
 30
0.0
 11
12.35
 21
746.45
 31
0.0
  0
LINE
  5
1AF
  8
1
  6
________________
 62
     7
 10
17.29431818181821
 20
634.625
 30
0.0
 11
17.29431818181821
 21
634.6500000000001
 31
0.0
  0
LINE
  5
1B0
  8
1
  6
________________
 62
     7
 10
15.44106509693969
 20
634.65
 30
0.0
 11
15.44106509693969
 21
634.625
 31
0.0
  0
LINE
  5
1B1
  8
1
  6
________________
 62
     7
 10
16.85795454545458
 20
634.625
 30
0.0
 11
16.85795454545458
 21
634.65
 31
0.0
  0
LINE
  5
1B2
  8
1
  6
________________
 62
     7
 10
11.70340909090912
 20
634.6500000000001
 30
0.0
 11
11.70340909090912
 21
634.625
 31
0.0
  0
LINE
  5
1B3
  8
1
  6
________________
 62
     7
 10
12.13977272727275
 20
634.625
 30
0.0
 11
12.13977272727275
 21
634.65
 31
0.0
  0
ENDBLK
  8
0
  0
BLOCK
  8
0
  2
_3292
 70
     0
 10
0.0
 20
0.0
 30
0.0
  0
LINE
  5
1B8
  8
1
  6
________________
 62
     7
 10
39.34999999999996
 20
197.0500000000004
 30
0.0
 11
43.34999999999999
 21
197.0500000000004
 31
0.0
  0
LINE
  5
1B9
  8
1
  6
________________
 62
     7
 10
39.34999999999996
 20
547.0499999999997
 30
0.0
 11
43.34999999999999
 21
547.0499999999997
 31
0.0
  0
LINE
  5
1BA
  8
1
  6
________________
 62
     7
 10
51.34999999999997
 20
197.0500000000002
 30
0.0
 11
56.81702484026849
 21
197.05
 31
0.0
  0
LINE
  5
1BB
  8
1
  6
________________
 62
     7
 10
51.34999999999999
 20
547.0500000000001
 30
0.0
 11
56.81702484026849
 21
547.0500000000001
 31
0.0
  0
LINE
  5
1BC
  8
1
  6
________________
 62
     7
 10
45.34999999999997
 20
197.0500000000002
 30
0.0
 11
49.34999999999999
 21
197.0500000000004
 31
0.0
  0
LINE
  5
1BD
  8
1
  6
________________
 62
     7
 10
45.34999999999998
 20
547.0500000000001
 30
0.0
 11
49.34999999999999
 21
547.0499999999997
 31
0.0
  0
LINE
  5
1BE
  8
1
  6
________________
 62
     7
 10
33.34999999999996
 20
197.0500000000004
 30
0.0
 11
37.34999999999999
 21
197.0500000000004
 31
0.0
  0
LINE
  5
1BF
  8
1
  6
________________
 62
     7
 10
33.34999999999996
 20
547.0499999999997
 30
0.0
 11
37.34999999999999
 21
547.0499999999997
 31
0.0
  0
LINE
  5
1C0
  8
1
  6
________________
 62
     7
 10
27.34999999999997
 20
197.0500000000004
 30
0.0
 11
31.34999999999999
 21
197.0500000000004
 31
0.0
  0
LINE
  5
1C1
  8
1
  6
________________
 62
     7
 10
27.34999999999997
 20
547.0499999999997
 30
0.0
 11
31.34999999999999
 21
547.0499999999997
 31
0.0
  0
LINE
  5
1C2
  8
1
  6
________________
 62
     7
 10
21.34999999999999
 20
197.0500000000004
 30
0.0
 11
25.35
 21
197.0500000000004
 31
0.0
  0
LINE
  5
1C3
  8
1
  6
________________
 62
     7
 10
21.34999999999999
 20
547.0499999999997
 30
0.0
 11
25.35
 21
547.0499999999997
 31
0.0
  0
LINE
  5
1C4
  8
1
  6
________________
 62
     7
 10
-13.65000000000001
 20
197.0500000000004
 30
0.0
 11
-17.65000000000002
 21
197.0500000000004
 31
0.0
  0
LINE
  5
1C5
  8
1
  6
________________
 62
     7
 10
-13.65000000000001
 20
547.0499999999997
 30
0.0
 11
-17.65000000000002
 21
547.0499999999997
 31
0.0
  0
LINE
  5
1C6
  8
1
  6
________________
 62
     7
 10
-25.64999999999997
 20
197.0500000000004
 30
0.0
 11
-29.65000000000001
 21
197.0500000000004
 31
0.0
  0
LINE
  5
1C7
  8
1
  6
________________
 62
     7
 10
-25.64999999999997
 20
547.0499999999997
 30
0.0
 11
-29.65000000000001
 21
547.0499999999997
 31
0.0
  0
LINE
  5
1C8
  8
1
  6
________________
 62
     7
 10
-31.64999999999998
 20
197.0500000000004
 30
0.0
 11
-35.65000000000001
 21
197.0500000000004
 31
0.0
  0
LINE
  5
1C9
  8
1
  6
________________
 62
     7
 10
-31.64999999999998
 20
547.0499999999997
 30
0.0
 11
-35.65000000000001
 21
547.0499999999997
 31
0.0
  0
LINE
  5
1CA
  8
1
  6
________________
 62
     7
 10
-43.64999999999998
 20
197.0500000000002
 30
0.0
 11
-49.11702484026849
 21
197.05
 31
0.0
  0
LINE
  5
1CB
  8
1
  6
________________
 62
     7
 10
-43.65
 20
547.0500000000001
 30
0.0
 11
-49.11702484026849
 21
547.0500000000001
 31
0.0
  0
LINE
  5
1CC
  8
1
  6
________________
 62
     7
 10
-19.64999999999999
 20
197.0500000000004
 30
0.0
 11
-23.65000000000001
 21
197.0500000000004
 31
0.0
  0
LINE
  5
1CD
  8
1
  6
________________
 62
     7
 10
-19.64999999999999
 20
547.0499999999997
 30
0.0
 11
-23.65000000000001
 21
547.0499999999997
 31
0.0
  0
LINE
  5
1CE
  8
1
  6
________________
 62
     7
 10
-37.64999999999998
 20
197.0500000000002
 30
0.0
 11
-41.65000000000001
 21
197.0500000000004
 31
0.0
  0
LINE
  5
1CF
  8
1
  6
________________
 62
     7
 10
-37.65
 20
547.0500000000001
 30
0.0
 11
-41.65000000000001
 21
547.0499999999997
 31
0.0
  0
LINE
  5
1D0
  8
1
  6
________________
 62
     7
 10
-2.150000000000006
 20
197.05
 30
0.0
 11
-2.150000000000006
 21
547.0500000000001
 31
0.0
  0
LINE
  5
1D1
  8
1
  6
________________
 62
     7
 10
-2.150000000000006
 20
197.05
 30
0.0
 11
-11.65000000000001
 21
197.0500000000004
 31
0.0
  0
LINE
  5
1D2
  8
1
  6
________________
 62
     7
 10
-2.150000000000006
 20
547.0500000000001
 30
0.0
 11
-11.65000000000001
 21
547.0500000000001
 31
0.0
  0
LINE
  5
1D3
  8
1
  6
________________
 62
     7
 10
9.849999999999994
 20
197.05
 30
0.0
 11
19.35
 21
197.0500000000004
 31
0.0
  0
LINE
  5
1D4
  8
1
  6
________________
 62
     7
 10
9.849999999999994
 20
197.05
 30
0.0
 11
9.849999999999994
 21
547.0500000000001
 31
0.0
  0
LINE
  5
1D5
  8
1
  6
________________
 62
     7
 10
9.849999999999994
 20
547.0500000000001
 30
0.0
 11
19.35
 21
547.0500000000001
 31
0.0
  0
LINE
  5
1D6
  8
1
  6
________________
 62
     7
 10
-56.11702484026848
 20
547.0500000000001
 30
0.0
 11
-49.11702484026849
 21
547.0500000000001
 31
0.0
  0
LINE
  5
1D7
  8
1
  6
________________
 62
     7
 10
-49.11702484026849
 20
197.05
 30
0.0
 11
-56.11702484026848
 21
197.05
 31
0.0
  0
LINE
  5
1D8
  8
1
  6
________________
 62
     7
 10
63.81702484026849
 20
197.05
 30
0.0
 11
56.81702484026849
 21
197.05
 31
0.0
  0
LINE
  5
1D9
  8
1
  6
________________
 62
     7
 10
56.81702484026849
 20
547.0500000000001
 30
0.0
 11
63.81702484026849
 21
547.0500000000001
 31
0.0
  0
LINE
  5
1DA
  8
1
  6
________________
 62
     7
 10
43.34999999999999
 20
197.0500000000002
 30
0.0
 11
45.34999999999999
 21
197.0500000000002
 31
0.0
  0
LINE
  5
1DB
  8
1
  6
________________
 62
     7
 10
45.34999999999999
 20
547.0499999999997
 30
0.0
 11
43.34999999999999
 21
547.0499999999997
 31
0.0
  0
LINE
  5
1DC
  8
1
  6
________________
 62
     7
 10
19.35
 20
197.0500000000002
 30
0.0
 11
21.35000000000003
 21
197.0500000000002
 31
0.0
  0
LINE
  5
1DD
  8
1
  6
________________
 62
     7
 10
21.35000000000003
 20
547.0499999999997
 30
0.0
 11
19.35
 21
547.0499999999997
 31
0.0
  0
LINE
  5
1DE
  8
1
  6
________________
 62
     7
 10
-17.65000000000002
 20
197.0500000000002
 30
0.0
 11
-19.65000000000002
 21
197.0500000000002
 31
0.0
  0
LINE
  5
1DF
  8
1
  6
________________
 62
     7
 10
-19.65000000000002
 20
547.0499999999997
 30
0.0
 11
-17.65000000000002
 21
547.0499999999997
 31
0.0
  0
LINE
  5
1E0
  8
1
  6
________________
 62
     7
 10
25.35
 20
197.0500000000002
 30
0.0
 11
27.35
 21
197.0500000000002
 31
0.0
  0
LINE
  5
1E1
  8
1
  6
________________
 62
     7
 10
27.35
 20
547.0499999999997
 30
0.0
 11
25.35
 21
547.0499999999997
 31
0.0
  0
LINE
  5
1E2
  8
1
  6
________________
 62
     7
 10
49.34999999999999
 20
197.0500000000002
 30
0.0
 11
51.34999999999999
 21
197.0500000000002
 31
0.0
  0
LINE
  5
1E3
  8
1
  6
________________
 62
     7
 10
51.34999999999999
 20
547.0499999999997
 30
0.0
 11
49.34999999999999
 21
547.0499999999997
 31
0.0
  0
LINE
  5
1E4
  8
1
  6
________________
 62
     7
 10
-23.65000000000002
 20
197.0500000000002
 30
0.0
 11
-25.65000000000001
 21
197.0500000000002
 31
0.0
  0
LINE
  5
1E5
  8
1
  6
________________
 62
     7
 10
-25.65000000000001
 20
547.0499999999997
 30
0.0
 11
-23.65000000000002
 21
547.0499999999997
 31
0.0
  0
LINE
  5
1E6
  8
1
  6
________________
 62
     7
 10
-35.65000000000001
 20
197.0500000000002
 30
0.0
 11
-37.65
 21
197.0500000000002
 31
0.0
  0
LINE
  5
1E7
  8
1
  6
________________
 62
     7
 10
-37.65
 20
547.0499999999997
 30
0.0
 11
-35.65000000000001
 21
547.0499999999997
 31
0.0
  0
LINE
  5
1E8
  8
1
  6
________________
 62
     7
 10
31.35000000000001
 20
197.0500000000002
 30
0.0
 11
33.34999999999999
 21
197.0500000000002
 31
0.0
  0
LINE
  5
1E9
  8
1
  6
________________
 62
     7
 10
33.34999999999999
 20
547.0499999999997
 30
0.0
 11
31.35000000000001
 21
547.0499999999997
 31
0.0
  0
LINE
  5
1EA
  8
1
  6
________________
 62
     7
 10
-41.65000000000001
 20
197.0500000000002
 30
0.0
 11
-43.65000000000001
 21
197.0500000000002
 31
0.0
  0
LINE
  5
1EB
  8
1
  6
________________
 62
     7
 10
-43.65000000000001
 20
547.0499999999997
 30
0.0
 11
-41.65000000000001
 21
547.0499999999997
 31
0.0
  0
LINE
  5
1EC
  8
1
  6
________________
 62
     7
 10
37.34999999999999
 20
197.0500000000002
 30
0.0
 11
39.34999999999999
 21
197.0500000000002
 31
0.0
  0
LINE
  5
1ED
  8
1
  6
________________
 62
     7
 10
39.34999999999999
 20
547.0499999999997
 30
0.0
 11
37.34999999999999
 21
547.0499999999997
 31
0.0
  0
LINE
  5
1EE
  8
1
  6
________________
 62
     7
 10
-29.65
 20
197.0500000000002
 30
0.0
 11
-31.65
 21
197.0500000000002
 31
0.0
  0
LINE
  5
1EF
  8
1
  6
________________
 62
     7
 10
-31.65
 20
547.0499999999997
 30
0.0
 11
-29.65
 21
547.0499999999997
 31
0.0
  0
LINE
  5
1F0
  8
1
  6
________________
 62
     7
 10
-11.65000000000001
 20
197.0500000000002
 30
0.0
 11
-13.65000000000004
 21
197.0500000000002
 31
0.0
  0
LINE
  5
1F1
  8
1
  6
________________
 62
     7
 10
-13.65000000000004
 20
547.0499999999997
 30
0.0
 11
-11.65000000000001
 21
547.0499999999997
 31
0.0
  0
LINE
  5
1F2
  8
1
  6
________________
 62
     7
 10
-2.150000000000005
 20
197.05
 30
0.0
 11
9.850000000000005
 21
197.05
 31
0.0
  0
LINE
  5
1F3
  8
1
  6
________________
 62
     7
 10
-2.150000000000005
 20
547.0500000000001
 30
0.0
 11
9.850000000000005
 21
547.0500000000001
 31
0.0
  0
LINE
  5
1F4
  8
1
  6
________________
 62
     7
 10
-56.11702484026849
 20
547.0500000000001
 30
0.0
 11
-56.11702484026849
 21
197.05
 31
0.0
  0
LINE
  5
1F5
  8
1
  6
________________
 62
     7
 10
63.81702484026849
 20
197.05
 30
0.0
 11
63.81702484026849
 21
547.0500000000001
 31
0.0
  0
ENDBLK
  8
0
  0
BLOCK
  8
0
  2
_3320
 70
     0
 10
0.0
 20
0.0
 30
0.0
  0
LINE
  5
1FA
  8
1
  6
________________
 62
     7
 10
479.5
 20
634.6500000000001
 30
0.0
 11
129.4999999999999
 21
634.6500000000001
 31
0.0
  0
LINE
  5
1FB
  8
1
  6
________________
 62
     7
 10
129.5
 20
634.6500000000001
 30
0.0
 11
129.5
 21
641.7159488559893
 31
0.0
  0
LINE
  5
1FC
  8
1
  6
________________
 62
     7
 10
479.5
 20
641.7159488559893
 30
0.0
 11
479.5
 21
634.6500000000001
 31
0.0
  0
LINE
  5
1FD
  8
1
  6
________________
 62
     7
 10
479.4999999999999
 20
641.7159488559893
 30
0.0
 11
479.4999999999999
 21
753.808878504673
 31
0.0
  0
LINE
  5
1FE
  8
1
  6
________________
 62
     7
 10
129.4999999999999
 20
641.7159488559893
 30
0.0
 11
129.4999999999999
 21
753.808878504673
 31
0.0
  0
LINE
  5
1FF
  8
1
  6
________________
 62
     7
 10
129.5
 20
754.65
 30
0.0
 11
479.5
 21
754.65
 31
0.0
  0
LINE
  5
200
  8
1
  6
________________
 62
     7
 10
479.5
 20
754.65
 30
0.0
 11
479.5
 21
753.8088785046729
 31
0.0
  0
LINE
  5
201
  8
1
  6
________________
 62
     7
 10
129.5
 20
753.8088785046729
 30
0.0
 11
129.5
 21
754.65
 31
0.0
  0
LINE
  5
202
  8
1
  6
________________
 62
     7
 10
129.5
 20
769.6500000000001
 30
0.0
 11
479.5
 21
769.6500000000001
 31
0.0
  0
LINE
  5
203
  8
1
  6
________________
 62
     7
 10
479.5
 20
769.6500000000001
 30
0.0
 11
479.5
 21
766.5887755102041
 31
0.0
  0
LINE
  5
204
  8
1
  6
________________
 62
     7
 10
129.5
 20
766.5887755102041
 30
0.0
 11
129.5
 21
769.6500000000001
 31
0.0
  0
LINE
  5
205
  8
1
  6
________________
 62
     7
 10
479.5
 20
754.65
 30
0.0
 11
479.5
 21
766.5887755102041
 31
0.0
  0
LINE
  5
206
  8
1
  6
________________
 62
     7
 10
129.5
 20
754.65
 30
0.0
 11
129.5
 21
766.5887755102041
 31
0.0
  0
LINE
  5
207
  8
1
  6
________________
 62
     7
 10
479.5
 20
769.6500000000001
 30
0.0
 11
479.5
 21
770.640990990991
 31
0.0
  0
LINE
  5
208
  8
1
  6
________________
 62
     7
 10
129.5
 20
770.640990990991
 30
0.0
 11
129.5
 21
769.6500000000001
 31
0.0
  0
LINE
  5
209
  8
1
  6
________________
 62
     7
 10
479.5
 20
770.640990990991
 30
0.0
 11
479.5
 21
831.5685520361993
 31
0.0
  0
LINE
  5
20A
  8
1
  6
________________
 62
     7
 10
129.5
 20
770.640990990991
 30
0.0
 11
129.5
 21
831.5685520361993
 31
0.0
  0
LINE
  5
20B
  8
1
  6
________________
 62
     7
 10
129.5
 20
834.65
 30
0.0
 11
479.5
 21
834.6500000000001
 31
0.0
  0
LINE
  5
20C
  8
1
  6
________________
 62
     7
 10
479.5
 20
834.6500000000001
 30
0.0
 11
479.5
 21
833.5
 31
0.0
  0
LINE
  5
20D
  8
1
  6
________________
 62
     7
 10
129.5
 20
833.5
 30
0.0
 11
129.5
 21
834.65
 31
0.0
  0
LINE
  5
20E
  8
1
  6
________________
 62
     7
 10
479.5
 20
832.35
 30
0.0
 11
129.4999999999999
 21
832.35
 31
0.0
  0
LINE
  5
20F
  8
1
  6
________________
 62
     7
 10
479.5
 20
833.5
 30
0.0
 11
479.5
 21
832.35
 31
0.0
  0
LINE
  5
210
  8
1
  6
________________
 62
     7
 10
129.5
 20
832.35
 30
0.0
 11
129.5
 21
833.5
 31
0.0
  0
LINE
  5
211
  8
1
  6
________________
 62
     7
 10
479.5
 20
831.5685520361992
 30
0.0
 11
479.5
 21
832.35
 31
0.0
  0
LINE
  5
212
  8
1
  6
________________
 62
     7
 10
129.5
 20
832.35
 30
0.0
 11
129.5
 21
831.5685520361992
 31
0.0
  0
LINE
  5
213
  8
1
  6
________________
 62
     7
 10
299.4818181818183
 20
634.625
 30
0.0
 11
299.4818181818183
 21
634.6500000000001
 31
0.0
  0
ENDBLK
  8
0
  0
ENDSEC
  0
SECTION
  2
ENTITIES
  0
INSERT
  5
1B4
  8
1
  6
________________
 62
     7
  2
_2731
 10
0.0
 20
0.0
 30
0.0
  0
INSERT
  5
1F6
  8
1
  6
________________
 62
     7
  2
_3292
 10
0.0
 20
0.0
 30
0.0
  0
INSERT
  5
214
  8
1
  6
________________
 62
     7
  2
_3320
 10
0.0
 20
0.0
 30
0.0
  0
TEXT
  5
215
  8
1
 62
     7
 10
292.447
 20
542.2295454545454
 30
0.0
 40
3.0
  1
GKB20-350
  7
EXPLODED0
  0
LINE
  5
216
  8
1
  6
________________0
 62
     1
 10
3.850000000000007
 20
844.65
 30
0.0
 11
3.849999999999991
 21
619.65
 31
0.0
  0
POINT
  5
218
  8
1
 62
     7
 10
18.85
 20
844.65
 30
0.0
  0
POINT
  5
219
  8
1
 62
     7
 10
13.85
 20
619.65
 30
0.0
  0
LINE
  5
21A
  8
1
  6
________________0
 62
     1
 10
3.849999999999985
 20
567.0500000000001
 30
0.0
 11
3.849999999999985
 21
177.05
 31
0.0
  0
POINT
  5
21B
  8
1
 62
     7
 10
8.85
 20
567.0500000000001
 30
0.0
  0
POINT
  5
21C
  8
1
 62
     7
 10
28.85
 20
177.05
 30
0.0
  0
ENDSEC
  0
EOF
