  0
SECTION
  2
HEADER
  9
$ACADVER
  1
AC1006
  9
$DWGCODEPAGE
  3
ansi_932
  9
$INSBASE
 10
0.0
 20
0.0
 30
0.0
  9
$EXTMIN
 10
832.8829751597315
 20
147.85
  9
$EXTMAX
 10
1413.85
 20
838.6999999999999
  9
$LIMMIN
 10
0.0
 20
0.0
  9
$LIMMAX
 10
12.0
 20
9.0
  9
$ORTHOMODE
 70
     0
  9
$REGENMODE
 70
     1
  9
$FILLMODE
 70
     1
  9
$QTEXTMODE
 70
     0
  9
$MIRRTEXT
 70
     1
  9
$DRAGMODE
 70
     2
  9
$LTSCALE
 40
1.0
  9
$OSMODE
 70
    37
  9
$ATTMODE
 70
     1
  9
$TEXTSIZE
 40
0.2
  9
$TRACEWID
 40
0.05
  9
$TEXTSTYLE
  7
STANDARD
  9
$CLAYER
  8
0
  9
$CELTYPE
  6
BYLAYER
  9
$CECOLOR
 62
   256
  9
$DIMSCALE
 40
1.0
  9
$DIMASZ
 40
3.0
  9
$DIMEXO
 40
0.0625
  9
$DIMDLI
 40
0.38
  9
$DIMRND
 40
0.0
  9
$DIMDLE
 40
0.0
  9
$DIMEXE
 40
0.18
  9
$DIMTP
 40
0.0
  9
$DIMTM
 40
0.0
  9
$DIMTXT
 40
3.0
  9
$DIMCEN
 40
0.09
  9
$DIMTSZ
 40
0.0
  9
$DIMTOL
 70
     0
  9
$DIMLIM
 70
     0
  9
$DIMTIH
 70
     1
  9
$DIMTOH
 70
     1
  9
$DIMSE1
 70
     0
  9
$DIMSE2
 70
     0
  9
$DIMTAD
 70
     1
  9
$DIMZIN
 70
     0
  9
$DIMBLK
  1

  9
$DIMASO
 70
     1
  9
$DIMSHO
 70
     1
  9
$DIMPOST
  1

  9
$DIMAPOST
  1

  9
$DIMALT
 70
     0
  9
$DIMALTD
 70
     2
  9
$DIMALTF
 40
25.4
  9
$DIMLFAC
 40
1.0
  9
$DIMTOFL
 70
     0
  9
$DIMTVP
 40
0.0
  9
$DIMTIX
 70
     0
  9
$DIMSOXD
 70
     0
  9
$DIMSAH
 70
     0
  9
$DIMBLK1
  1

  9
$DIMBLK2
  1

  9
$LUNITS
 70
     2
  9
$LUPREC
 70
     4
  9
$SKETCHINC
 40
0.1
  9
$FILLETRAD
 40
0.5
  9
$AUNITS
 70
     0
  9
$AUPREC
 70
     0
  9
$MENU
  1
.
  9
$ELEVATION
 40
0.0
  9
$THICKNESS
 40
0.0
  9
$LIMCHECK
 70
     0
  9
$CHAMFERA
 40
0.5
  9
$CHAMFERB
 40
0.5
  9
$SKPOLY
 70
     0
  9
$TDCREATE
 40
2460017.349623993
  9
$TDUPDATE
 40
2460017.349624005
  9
$TDINDWG
 40
0.0000000116
  9
$TDUSRTIMER
 40
0.0000000116
  9
$USRTIMER
 70
     1
  9
$ANGBASE
 50
0.0
  9
$ANGDIR
 70
     0
  9
$PDMODE
 70
     0
  9
$PDSIZE
 40
0.0
  9
$PLINEWID
 40
0.0
  9
$COORDS
 70
     1
  9
$SPLFRAME
 70
     0
  9
$SPLINETYPE
 70
     6
  9
$SPLINESEGS
 70
     8
  9
$ATTDIA
 70
     0
  9
$ATTREQ
 70
     1
  9
$HANDLING
 70
     1
  9
$HANDSEED
  5
246
  9
$SURFTAB1
 70
     6
  9
$SURFTAB2
 70
     6
  9
$SURFTYPE
 70
     6
  9
$SURFU
 70
     6
  9
$SURFV
 70
     6
  9
$UCSNAME
  2

  9
$UCSORG
 10
0.0
 20
0.0
 30
0.0
  9
$UCSXDIR
 10
1.0
 20
0.0
 30
0.0
  9
$UCSYDIR
 10
0.0
 20
1.0
 30
0.0
  9
$USERI1
 70
     0
  9
$USERI2
 70
     0
  9
$USERI3
 70
     0
  9
$USERI4
 70
     0
  9
$USERI5
 70
     0
  9
$USERR1
 40
0.0
  9
$USERR2
 40
0.0
  9
$USERR3
 40
0.0
  9
$USERR4
 40
0.0
  9
$USERR5
 40
0.0
  9
$WORLDVIEW
 70
     1
  0
ENDSEC
  0
SECTION
  2
TABLES
  0
TABLE
  2
VPORT
 70
     1
  0
VPORT
  2
*ACTIVE
 70
     0
 10
0.0
 20
0.0
 11
1.0
 21
1.0
 12
1123.366487579866
 22
493.275
 13
0.0
 23
0.0
 14
0.5
 24
0.5
 15
0.5
 25
0.5
 16
0.0
 26
0.0
 36
1.0
 17
0.0
 27
0.0
 37
0.0
 40
690.8499999999999
 41
1.6
 42
50.0
 43
0.0
 44
0.0
 50
0.0
 51
0.0
 71
     0
 72
   100
 73
     1
 74
     3
 75
     0
 76
     0
 77
     0
 78
     0
  0
ENDTAB
  0
TABLE
  2
LTYPE
 70
     3
  0
LTYPE
  2
CONTINUOUS
 70
     0
  3
Solid line
 72
    65
 73
     0
 40
0.0
  0
LTYPE
  2
________________
 70
     0
  3

 72
    65
 73
     0
 40
0.0
  0
LTYPE
  2
________________0
 70
     0
  3

 72
    65
 73
     4
 40
7.2
 49
2.7
 49
-1.8
 49
0.8999999999999999
 49
-1.8
  0
ENDTAB
  0
TABLE
  2
LAYER
 70
     2
  0
LAYER
  2
0
 70
     0
 62
     7
  6
CONTINUOUS
  0
LAYER
  2
1
 70
     0
 62
     7
  6
CONTINUOUS
  0
ENDTAB
  0
TABLE
  2
STYLE
 70
     2
  0
STYLE
  2
STANDARD
 70
     0
 40
0.0
 41
1.0
 50
0.0
 71
     0
 42
0.2
  3
txt
  4

  0
STYLE
  2
EXPLODED0
 70
     0
 40
0.2
 41
1.0
 50
0.0
 71
     0
 42
0.2
  3
ＭＳ ゴシック
  4

  0
ENDTAB
  0
TABLE
  2
VIEW
 70
     0
  0
ENDTAB
  0
TABLE
  2
UCS
 70
     0
  0
ENDTAB
  0
ENDSEC
  0
SECTION
  2
BLOCKS
  0
BLOCK
  8
0
  2
_3322
 70
     0
 10
0.0
 20
0.0
 30
0.0
  0
ARC
  5
3D
  8
1
  6
________________
 62
     7
 10
-870.65
 20
682.0
 30
0.0
 40
1.000000000000001
 50
270.0
 51
0.0
210
0.0
220
0.0
230
-1.0
  0
LINE
  5
3F
  8
1
  6
________________
 62
     7
 10
916.0500000000001
 20
681.0
 30
0.0
 11
870.65
 21
681.0
 31
0.0
  0
LINE
  5
40
  8
1
  6
________________
 62
     7
 10
916.0500000000001
 20
725.4
 30
0.0
 11
916.0500000000001
 21
681.0
 31
0.0
  0
ARC
  5
41
  8
1
  6
________________
 62
     7
 10
-915.05
 20
725.4
 30
0.0
 40
1.000000000000001
 50
90.0
 51
180.0
210
0.0
220
0.0
230
-1.0
  0
LINE
  5
42
  8
1
  6
________________
 62
     7
 10
870.65
 20
726.4
 30
0.0
 11
915.05
 21
726.4
 31
0.0
  0
ARC
  5
43
  8
1
  6
________________
 62
     7
 10
-870.65
 20
725.4
 30
0.0
 40
1.000000000000001
 50
0.0
 51
90.0
210
0.0
220
0.0
230
-1.0
  0
LINE
  5
44
  8
1
  6
________________
 62
     7
 10
869.65
 20
725.4
 30
0.0
 11
869.65
 21
682.0
 31
0.0
  0
ARC
  5
45
  8
1
  6
________________
 62
     7
 10
-891.15
 20
729.7
 30
0.0
 40
1.000000000000001
 50
270.0000000000001
 51
0.0000000000007958
210
0.0
220
0.0
230
-1.0
  0
LINE
  5
46
  8
1
  6
________________
 62
     7
 10
894.5500000000001
 20
728.7
 30
0.0
 11
891.15
 21
728.7
 31
0.0
  0
ARC
  5
47
  8
1
  6
________________
 62
     7
 10
-894.5500000000001
 20
729.7
 30
0.0
 40
1.000000000000001
 50
179.9999999999991
 51
270.0000000000001
210
0.0
220
0.0
230
-1.0
  0
LINE
  5
48
  8
1
  6
________________
 62
     7
 10
895.5500000000001
 20
748.1999999999999
 30
0.0
 11
895.5500000000001
 21
729.7
 31
0.0
  0
ARC
  5
49
  8
1
  6
________________
 62
     7
 10
896.05
 20
748.1999999999999
 30
0.0
 40
0.500000000000056
 50
90.0
 51
180.0
  0
LINE
  5
4A
  8
1
  6
________________
 62
     7
 10
897.3499999999999
 20
748.7
 30
0.0
 11
896.05
 21
748.7
 31
0.0
  0
ARC
  5
4B
  8
1
  6
________________
 62
     7
 10
897.3499999999999
 20
748.1999999999999
 30
0.0
 40
0.500000000000056
 50
0.0
 51
90.0
  0
LINE
  5
4C
  8
1
  6
________________
 62
     7
 10
897.85
 20
740.1338441815176
 30
0.0
 11
897.85
 21
748.1999999999999
 31
0.0
  0
ARC
  5
4D
  8
1
  6
________________
 62
     7
 10
-902.85
 20
740.1338441815176
 30
0.0
 40
5.000000000000061
 50
343.3007557660064
 51
0.0
210
0.0
220
0.0
230
-1.0
  0
LINE
  5
4E
  8
1
  6
________________
 62
     7
 10
899.1391314261058
 20
735.1028952463141
 30
0.0
 11
898.0608685738943
 21
738.6971047536858
 31
0.0
  0
ARC
  5
4F
  8
1
  6
________________
 62
     7
 10
894.3499999999999
 20
733.6661558184824
 30
0.0
 40
5.000000000000004
 50
0.0
 51
16.69924423399361
  0
LINE
  5
50
  8
1
  6
________________
 62
     7
 10
899.3499999999999
 20
732.4000000000001
 30
0.0
 11
899.3499999999999
 21
733.6661558184824
 31
0.0
  0
ARC
  5
51
  8
1
  6
________________
 62
     7
 10
898.3499999999999
 20
732.4000000000001
 30
0.0
 40
1.000000000000001
 50
270.0
 51
0.0
  0
LINE
  5
52
  8
1
  6
________________
 62
     7
 10
897.85
 20
731.4000000000001
 30
0.0
 11
898.3499999999999
 21
731.4000000000001
 31
0.0
  0
LINE
  5
53
  8
1
  6
________________
 62
     7
 10
897.85
 20
729.1999999999999
 30
0.0
 11
897.85
 21
731.4000000000001
 31
0.0
  0
ARC
  5
54
  8
1
  6
________________
 62
     7
 10
-898.3499999999999
 20
729.1999999999999
 30
0.0
 40
0.4999999999999449
 50
270.0
 51
0.0
210
0.0
220
0.0
230
-1.0
  0
LINE
  5
55
  8
1
  6
________________
 62
     7
 10
933.081950710243
 20
728.7
 30
0.0
 11
928.35
 21
728.7
 31
0.0
  0
LINE
  5
56
  8
1
  6
________________
 62
     7
 10
928.35
 20
728.7
 30
0.0
 11
926.35
 21
728.7
 31
0.0
  0
LINE
  5
57
  8
1
  6
________________
 62
     7
 10
926.35
 20
728.7
 30
0.0
 11
922.35
 21
728.7
 31
0.0
  0
LINE
  5
58
  8
1
  6
________________
 62
     7
 10
922.35
 20
728.7
 30
0.0
 11
920.35
 21
728.7
 31
0.0
  0
LINE
  5
59
  8
1
  6
________________
 62
     7
 10
920.35
 20
728.7
 30
0.0
 11
916.35
 21
728.7
 31
0.0
  0
LINE
  5
5A
  8
1
  6
________________
 62
     7
 10
916.35
 20
728.7
 30
0.0
 11
914.35
 21
728.7
 31
0.0
  0
LINE
  5
5B
  8
1
  6
________________
 62
     7
 10
914.35
 20
728.7
 30
0.0
 11
910.35
 21
728.7
 31
0.0
  0
LINE
  5
5C
  8
1
  6
________________
 62
     7
 10
910.35
 20
728.7
 30
0.0
 11
908.35
 21
728.7
 31
0.0
  0
LINE
  5
5D
  8
1
  6
________________
 62
     7
 10
908.35
 20
728.7
 30
0.0
 11
898.85
 21
728.7
 31
0.0
  0
LINE
  5
5E
  8
1
  6
________________
 62
     7
 10
898.85
 20
728.7
 30
0.0
 11
898.3499999999999
 21
728.7
 31
0.0
  0
ARC
  5
5F
  8
1
  6
________________
 62
     7
 10
-933.081950710243
 20
735.7
 30
0.0
 40
6.999999999999982
 50
191.2917062948613
 51
270.0
210
0.0
220
0.0
230
-1.0
  0
ARC
  5
60
  8
1
  6
________________
 62
     7
 10
-792.85
 20
763.7
 30
0.0
 40
149.9999999999999
 50
185.7391704772668
 51
191.2917062948612
210
0.0
220
0.0
230
-1.0
  0
LINE
  5
61
  8
1
  6
________________
 62
     7
 10
942.3363081896784
 20
748.7
 30
0.0
 11
942.098115565993
 21
748.7
 31
0.0
  0
ARC
  5
62
  8
1
  6
________________
 62
     7
 10
942.3363081896784
 20
747.7
 30
0.0
 40
0.9999999999999556
 50
9.141806625698191
 51
90.00000000000001
  0
ARC
  5
63
  8
1
  6
________________
 62
     7
 10
202.8500000000001
 20
628.7
 30
0.0
 40
749.9999999999999
 50
0.5398067160341329
 51
9.141806625698315
  0
ARC
  5
64
  8
1
  6
________________
 62
     7
 10
945.8170248402685
 20
635.7
 30
0.0
 40
7.000000000000006
 50
270.0
 51
0.5398067160341496
  0
LINE
  5
65
  8
1
  6
________________
 62
     7
 10
940.35
 20
628.7
 30
0.0
 11
945.8170248402685
 21
628.7
 31
0.0
  0
LINE
  5
66
  8
1
  6
________________
 62
     7
 10
940.35
 20
628.7
 30
0.0
 11
940.35
 21
629.0
 31
0.0
  0
LINE
  5
67
  8
1
  6
________________
 62
     7
 10
940.35
 20
629.0
 30
0.0
 11
938.35
 21
629.0
 31
0.0
  0
LINE
  5
68
  8
1
  6
________________
 62
     7
 10
938.35
 20
629.0
 30
0.0
 11
938.35
 21
628.6999999999999
 31
0.0
  0
LINE
  5
69
  8
1
  6
________________
 62
     7
 10
934.35
 20
628.7
 30
0.0
 11
938.35
 21
628.6999999999999
 31
0.0
  0
LINE
  5
6A
  8
1
  6
________________
 62
     7
 10
934.35
 20
628.7
 30
0.0
 11
934.35
 21
629.0
 31
0.0
  0
LINE
  5
6B
  8
1
  6
________________
 62
     7
 10
934.35
 20
629.0
 30
0.0
 11
932.35
 21
629.0
 31
0.0
  0
LINE
  5
6C
  8
1
  6
________________
 62
     7
 10
932.35
 20
629.0
 30
0.0
 11
932.35
 21
628.6999999999999
 31
0.0
  0
LINE
  5
6D
  8
1
  6
________________
 62
     7
 10
928.35
 20
628.6999999999999
 30
0.0
 11
932.35
 21
628.6999999999999
 31
0.0
  0
LINE
  5
6E
  8
1
  6
________________
 62
     7
 10
928.35
 20
628.6999999999999
 30
0.0
 11
928.35
 21
629.0
 31
0.0
  0
LINE
  5
6F
  8
1
  6
________________
 62
     7
 10
928.35
 20
629.0
 30
0.0
 11
926.35
 21
629.0
 31
0.0
  0
LINE
  5
70
  8
1
  6
________________
 62
     7
 10
926.35
 20
629.0
 30
0.0
 11
926.35
 21
628.6999999999999
 31
0.0
  0
LINE
  5
71
  8
1
  6
________________
 62
     7
 10
922.35
 20
628.6999999999999
 30
0.0
 11
926.35
 21
628.6999999999999
 31
0.0
  0
LINE
  5
72
  8
1
  6
________________
 62
     7
 10
922.35
 20
628.6999999999999
 30
0.0
 11
922.35
 21
629.0
 31
0.0
  0
LINE
  5
73
  8
1
  6
________________
 62
     7
 10
922.35
 20
629.0
 30
0.0
 11
920.35
 21
629.0
 31
0.0
  0
LINE
  5
74
  8
1
  6
________________
 62
     7
 10
920.35
 20
629.0
 30
0.0
 11
920.35
 21
628.6999999999999
 31
0.0
  0
LINE
  5
75
  8
1
  6
________________
 62
     7
 10
916.35
 20
628.6999999999999
 30
0.0
 11
920.35
 21
628.6999999999999
 31
0.0
  0
LINE
  5
76
  8
1
  6
________________
 62
     7
 10
916.35
 20
628.6999999999999
 30
0.0
 11
916.35
 21
629.0
 31
0.0
  0
LINE
  5
77
  8
1
  6
________________
 62
     7
 10
916.35
 20
629.0
 30
0.0
 11
914.35
 21
629.0
 31
0.0
  0
LINE
  5
78
  8
1
  6
________________
 62
     7
 10
914.35
 20
629.0
 30
0.0
 11
914.35
 21
628.6999999999999
 31
0.0
  0
LINE
  5
79
  8
1
  6
________________
 62
     7
 10
910.35
 20
628.6999999999999
 30
0.0
 11
914.35
 21
628.6999999999999
 31
0.0
  0
LINE
  5
7A
  8
1
  6
________________
 62
     7
 10
910.35
 20
628.6999999999999
 30
0.0
 11
910.3500000000001
 21
629.0
 31
0.0
  0
LINE
  5
7B
  8
1
  6
________________
 62
     7
 10
910.3500000000001
 20
629.0
 30
0.0
 11
908.35
 21
629.0
 31
0.0
  0
LINE
  5
7C
  8
1
  6
________________
 62
     7
 10
908.35
 20
629.0
 30
0.0
 11
908.35
 21
628.7
 31
0.0
  0
LINE
  5
7D
  8
1
  6
________________
 62
     7
 10
898.85
 20
631.0
 30
0.0
 11
898.85
 21
628.7
 31
0.0
  0
LINE
  5
7E
  8
1
  6
________________
 62
     7
 10
901.3499999999999
 20
631.0
 30
0.0
 11
898.85
 21
631.0
 31
0.0
  0
ARC
  5
7F
  8
1
  6
________________
 62
     7
 10
-901.3499999999999
 20
631.4999999999999
 30
0.0
 40
0.500000000000056
 50
180.0
 51
270.0
210
0.0
220
0.0
230
-1.0
  0
LINE
  5
80
  8
1
  6
________________
 62
     7
 10
901.85
 20
639.5
 30
0.0
 11
901.85
 21
631.4999999999999
 31
0.0
  0
ARC
  5
81
  8
1
  6
________________
 62
     7
 10
-901.3499999999999
 20
639.5
 30
0.0
 40
0.500000000000056
 50
90.0
 51
180.0
210
0.0
220
0.0
230
-1.0
  0
LINE
  5
82
  8
1
  6
________________
 62
     7
 10
884.35
 20
640.0
 30
0.0
 11
901.3499999999999
 21
640.0
 31
0.0
  0
ARC
  5
83
  8
1
  6
________________
 62
     7
 10
-884.35
 20
639.5
 30
0.0
 40
0.500000000000056
 50
0.0
 51
90.0
210
0.0
220
0.0
230
-1.0
  0
LINE
  5
84
  8
1
  6
________________
 62
     7
 10
883.85
 20
639.5
 30
0.0
 11
883.85
 21
631.4999999999999
 31
0.0
  0
ARC
  5
85
  8
1
  6
________________
 62
     7
 10
-884.35
 20
631.4999999999999
 30
0.0
 40
0.4999999999999449
 50
270.0
 51
0.0
210
0.0
220
0.0
230
-1.0
  0
LINE
  5
86
  8
1
  6
________________
 62
     7
 10
884.35
 20
631.0
 30
0.0
 11
886.85
 21
631.0
 31
0.0
  0
LINE
  5
87
  8
1
  6
________________
 62
     7
 10
886.85
 20
631.0
 30
0.0
 11
886.85
 21
628.7
 31
0.0
  0
LINE
  5
88
  8
1
  6
________________
 62
     7
 10
886.85
 20
628.7
 30
0.0
 11
877.35
 21
628.7
 31
0.0
  0
LINE
  5
89
  8
1
  6
________________
 62
     7
 10
877.35
 20
629.0
 30
0.0
 11
877.35
 21
628.7
 31
0.0
  0
LINE
  5
8A
  8
1
  6
________________
 62
     7
 10
875.3499999999999
 20
629.0
 30
0.0
 11
877.35
 21
629.0
 31
0.0
  0
LINE
  5
8B
  8
1
  6
________________
 62
     7
 10
875.35
 20
628.6999999999999
 30
0.0
 11
875.3499999999999
 21
629.0
 31
0.0
  0
LINE
  5
8C
  8
1
  6
________________
 62
     7
 10
875.35
 20
628.6999999999999
 30
0.0
 11
871.35
 21
628.6999999999999
 31
0.0
  0
LINE
  5
8D
  8
1
  6
________________
 62
     7
 10
871.35
 20
629.0
 30
0.0
 11
871.35
 21
628.6999999999999
 31
0.0
  0
LINE
  5
8E
  8
1
  6
________________
 62
     7
 10
869.35
 20
629.0
 30
0.0
 11
871.35
 21
629.0
 31
0.0
  0
LINE
  5
8F
  8
1
  6
________________
 62
     7
 10
869.35
 20
628.6999999999999
 30
0.0
 11
869.35
 21
629.0
 31
0.0
  0
LINE
  5
90
  8
1
  6
________________
 62
     7
 10
869.35
 20
628.6999999999999
 30
0.0
 11
865.35
 21
628.6999999999999
 31
0.0
  0
LINE
  5
91
  8
1
  6
________________
 62
     7
 10
865.35
 20
629.0
 30
0.0
 11
865.35
 21
628.6999999999999
 31
0.0
  0
LINE
  5
92
  8
1
  6
________________
 62
     7
 10
863.35
 20
629.0
 30
0.0
 11
865.35
 21
629.0
 31
0.0
  0
LINE
  5
93
  8
1
  6
________________
 62
     7
 10
863.35
 20
628.6999999999999
 30
0.0
 11
863.35
 21
629.0
 31
0.0
  0
LINE
  5
94
  8
1
  6
________________
 62
     7
 10
863.35
 20
628.6999999999999
 30
0.0
 11
859.35
 21
628.6999999999999
 31
0.0
  0
LINE
  5
95
  8
1
  6
________________
 62
     7
 10
859.35
 20
629.0
 30
0.0
 11
859.35
 21
628.6999999999999
 31
0.0
  0
LINE
  5
96
  8
1
  6
________________
 62
     7
 10
857.35
 20
629.0
 30
0.0
 11
859.35
 21
629.0
 31
0.0
  0
LINE
  5
97
  8
1
  6
________________
 62
     7
 10
857.35
 20
628.6999999999999
 30
0.0
 11
857.35
 21
629.0
 31
0.0
  0
LINE
  5
98
  8
1
  6
________________
 62
     7
 10
857.35
 20
628.6999999999999
 30
0.0
 11
853.35
 21
628.6999999999999
 31
0.0
  0
LINE
  5
99
  8
1
  6
________________
 62
     7
 10
853.35
 20
629.0
 30
0.0
 11
853.35
 21
628.6999999999999
 31
0.0
  0
LINE
  5
9A
  8
1
  6
________________
 62
     7
 10
851.35
 20
629.0
 30
0.0
 11
853.35
 21
629.0
 31
0.0
  0
LINE
  5
9B
  8
1
  6
________________
 62
     7
 10
851.35
 20
628.7
 30
0.0
 11
851.35
 21
629.0
 31
0.0
  0
LINE
  5
9C
  8
1
  6
________________
 62
     7
 10
851.35
 20
628.7
 30
0.0
 11
847.35
 21
628.6999999999999
 31
0.0
  0
LINE
  5
9D
  8
1
  6
________________
 62
     7
 10
847.35
 20
629.0
 30
0.0
 11
847.35
 21
628.6999999999999
 31
0.0
  0
LINE
  5
9E
  8
1
  6
________________
 62
     7
 10
845.35
 20
629.0
 30
0.0
 11
847.35
 21
629.0
 31
0.0
  0
LINE
  5
9F
  8
1
  6
________________
 62
     7
 10
845.35
 20
628.7
 30
0.0
 11
845.35
 21
629.0
 31
0.0
  0
LINE
  5
A0
  8
1
  6
________________
 62
     7
 10
845.35
 20
628.7
 30
0.0
 11
839.8829751597315
 21
628.7
 31
0.0
  0
ARC
  5
A1
  8
1
  6
________________
 62
     7
 10
839.8829751597315
 20
635.7
 30
0.0
 40
7.000000000000034
 50
179.4601932839659
 51
270.0
  0
ARC
  5
A2
  8
1
  6
________________
 62
     7
 10
-1582.85
 20
628.6999999999999
 30
0.0
 40
750.0000000000001
 50
0.5398067160341403
 51
9.141806625698322
210
0.0
220
0.0
230
-1.0
  0
ARC
  5
A3
  8
1
  6
________________
 62
     7
 10
843.3636918103216
 20
747.7
 30
0.0
 40
1.000000000000001
 50
90.0
 51
170.8581933743014
  0
LINE
  5
A4
  8
1
  6
________________
 62
     7
 10
843.3636918103216
 20
748.7
 30
0.0
 11
843.601884434007
 21
748.7
 31
0.0
  0
ARC
  5
A5
  8
1
  6
________________
 62
     7
 10
992.85
 20
763.7
 30
0.0
 40
149.9999999999999
 50
185.7391704772668
 51
191.2917062948612
  0
ARC
  5
A6
  8
1
  6
________________
 62
     7
 10
-852.6180492897571
 20
735.7
 30
0.0
 40
7.000000000000006
 50
270.0
 51
348.7082937051388
210
0.0
220
0.0
230
-1.0
  0
LINE
  5
A7
  8
1
  6
________________
 62
     7
 10
852.6180492897571
 20
728.7
 30
0.0
 11
857.35
 21
728.7
 31
0.0
  0
LINE
  5
A8
  8
1
  6
________________
 62
     7
 10
857.35
 20
728.7
 30
0.0
 11
859.35
 21
728.7
 31
0.0
  0
LINE
  5
A9
  8
1
  6
________________
 62
     7
 10
859.35
 20
728.7
 30
0.0
 11
863.35
 21
728.7
 31
0.0
  0
LINE
  5
AA
  8
1
  6
________________
 62
     7
 10
863.35
 20
728.7
 30
0.0
 11
865.35
 21
728.7
 31
0.0
  0
LINE
  5
AB
  8
1
  6
________________
 62
     7
 10
865.35
 20
728.7
 30
0.0
 11
869.35
 21
728.7
 31
0.0
  0
LINE
  5
AC
  8
1
  6
________________
 62
     7
 10
869.35
 20
728.7
 30
0.0
 11
871.35
 21
728.7
 31
0.0
  0
LINE
  5
AD
  8
1
  6
________________
 62
     7
 10
871.35
 20
728.7
 30
0.0
 11
875.35
 21
728.7
 31
0.0
  0
LINE
  5
AE
  8
1
  6
________________
 62
     7
 10
875.35
 20
728.7
 30
0.0
 11
877.35
 21
728.7
 31
0.0
  0
LINE
  5
AF
  8
1
  6
________________
 62
     7
 10
877.35
 20
728.7
 30
0.0
 11
886.85
 21
728.7
 31
0.0
  0
LINE
  5
B0
  8
1
  6
________________
 62
     7
 10
886.85
 20
728.7
 30
0.0
 11
887.35
 21
728.7
 31
0.0
  0
ARC
  5
B1
  8
1
  6
________________
 62
     7
 10
-887.35
 20
729.1999999999999
 30
0.0
 40
0.4999999999999449
 50
180.0
 51
269.9999999999998
210
0.0
220
0.0
230
-1.0
  0
LINE
  5
B2
  8
1
  6
________________
 62
     7
 10
887.85
 20
729.1999999999999
 30
0.0
 11
887.85
 21
731.4000000000001
 31
0.0
  0
LINE
  5
B3
  8
1
  6
________________
 62
     7
 10
887.85
 20
731.4000000000001
 30
0.0
 11
887.35
 21
731.4000000000001
 31
0.0
  0
ARC
  5
B4
  8
1
  6
________________
 62
     7
 10
887.35
 20
732.4000000000001
 30
0.0
 40
1.000000000000001
 50
180.0
 51
270.0
  0
LINE
  5
B5
  8
1
  6
________________
 62
     7
 10
886.35
 20
732.4000000000001
 30
0.0
 11
886.35
 21
733.6661558184824
 31
0.0
  0
ARC
  5
B6
  8
1
  6
________________
 62
     7
 10
891.35
 20
733.6661558184824
 30
0.0
 40
5.000000000000061
 50
163.3007557660064
 51
180.0
  0
LINE
  5
B7
  8
1
  6
________________
 62
     7
 10
887.6391314261058
 20
738.6971047536858
 30
0.0
 11
886.5608685738943
 21
735.1028952463141
 31
0.0
  0
ARC
  5
B8
  8
1
  6
________________
 62
     7
 10
-882.85
 20
740.1338441815176
 30
0.0
 40
5.000000000000004
 50
180.0
 51
196.6992442339936
210
0.0
220
0.0
230
-1.0
  0
LINE
  5
B9
  8
1
  6
________________
 62
     7
 10
887.85
 20
740.1338441815176
 30
0.0
 11
887.85
 21
748.1999999999999
 31
0.0
  0
ARC
  5
BA
  8
1
  6
________________
 62
     7
 10
888.35
 20
748.1999999999999
 30
0.0
 40
0.500000000000056
 50
90.0
 51
180.0
  0
LINE
  5
BB
  8
1
  6
________________
 62
     7
 10
888.35
 20
748.7
 30
0.0
 11
889.65
 21
748.7
 31
0.0
  0
ARC
  5
BC
  8
1
  6
________________
 62
     7
 10
889.65
 20
748.1999999999999
 30
0.0
 40
0.4999999999999449
 50
0.0
 51
90.0
  0
LINE
  5
BD
  8
1
  6
________________
 62
     7
 10
890.15
 20
748.1999999999999
 30
0.0
 11
890.15
 21
729.7
 31
0.0
  0
ARC
  5
BE
  8
1
  6
________________
 62
     7
 10
-918.85
 20
725.4
 30
0.0
 40
1.000000000000001
 50
0.0
 51
90.0
210
0.0
220
0.0
230
-1.0
  0
LINE
  5
BF
  8
1
  6
________________
 62
     7
 10
917.85
 20
725.4
 30
0.0
 11
917.85
 21
682.0
 31
0.0
  0
ARC
  5
C0
  8
1
  6
________________
 62
     7
 10
-918.85
 20
682.0
 30
0.0
 40
1.000000000000001
 50
270.0
 51
0.0
210
0.0
220
0.0
230
-1.0
  0
LINE
  5
C1
  8
1
  6
________________
 62
     7
 10
918.85
 20
681.0
 30
0.0
 11
947.6452738840385
 21
681.0
 31
0.0
  0
ARC
  5
C2
  8
1
  6
________________
 62
     7
 10
-947.6452738840385
 20
682.0
 30
0.0
 40
0.9999999999999907
 50
175.9067036832227
 51
269.9999999999999
210
0.0
220
0.0
230
-1.0
  0
ARC
  5
C3
  8
1
  6
________________
 62
     7
 10
202.8500000000001
 20
628.7
 30
0.0
 40
747.6999999999998
 50
4.093296316777217
 51
7.850028204820808
  0
ARC
  5
C4
  8
1
  6
________________
 62
     7
 10
-942.5526457942993
 20
730.6847331952852
 30
0.0
 40
1.000000000000043
 50
29.13828378346141
 51
172.1499717951794
210
0.0
220
0.0
230
-1.0
  0
ARC
  5
C5
  8
1
  6
________________
 62
     7
 10
933.556140979788
 20
735.7
 30
0.0
 40
9.299999999999974
 50
270.0
 51
330.8617162165385
  0
LINE
  5
C6
  8
1
  6
________________
 62
     7
 10
933.556140979788
 20
726.4
 30
0.0
 11
918.85
 21
726.4
 31
0.0
  0
ARC
  5
C7
  8
1
  6
________________
 62
     7
 10
-905.15
 20
632.0
 30
0.0
 40
1.000000000000001
 50
270.0
 51
0.0
210
0.0
220
0.0
230
-1.0
  0
LINE
  5
C8
  8
1
  6
________________
 62
     7
 10
915.05
 20
631.0
 30
0.0
 11
905.15
 21
631.0
 31
0.0
  0
ARC
  5
C9
  8
1
  6
________________
 62
     7
 10
-915.05
 20
632.0
 30
0.0
 40
1.000000000000001
 50
180.0
 51
270.0
210
0.0
220
0.0
230
-1.0
  0
LINE
  5
CA
  8
1
  6
________________
 62
     7
 10
916.0500000000001
 20
677.6999999999999
 30
0.0
 11
916.0500000000001
 21
632.0
 31
0.0
  0
ARC
  5
CB
  8
1
  6
________________
 62
     7
 10
-915.05
 20
677.6999999999999
 30
0.0
 40
1.000000000000001
 50
90.0
 51
180.0
210
0.0
220
0.0
230
-1.0
  0
LINE
  5
CC
  8
1
  6
________________
 62
     7
 10
870.65
 20
678.6999999999999
 30
0.0
 11
915.05
 21
678.6999999999999
 31
0.0
  0
ARC
  5
CD
  8
1
  6
________________
 62
     7
 10
-870.65
 20
677.6999999999999
 30
0.0
 40
1.000000000000001
 50
0.0
 51
90.0
210
0.0
220
0.0
230
-1.0
  0
LINE
  5
CE
  8
1
  6
________________
 62
     7
 10
869.65
 20
677.6999999999999
 30
0.0
 11
869.65
 21
632.0
 31
0.0
  0
ARC
  5
CF
  8
1
  6
________________
 62
     7
 10
-870.65
 20
632.0
 30
0.0
 40
1.000000000000001
 50
270.0
 51
0.0
210
0.0
220
0.0
230
-1.0
  0
LINE
  5
D0
  8
1
  6
________________
 62
     7
 10
870.65
 20
631.0
 30
0.0
 11
880.5500000000001
 21
631.0
 31
0.0
  0
ARC
  5
D1
  8
1
  6
________________
 62
     7
 10
-880.5500000000001
 20
632.0
 30
0.0
 40
1.000000000000001
 50
180.0
 51
270.0
210
0.0
220
0.0
230
-1.0
  0
LINE
  5
D2
  8
1
  6
________________
 62
     7
 10
881.5500000000001
 20
632.0
 30
0.0
 11
881.5500000000001
 21
640.8000000000001
 31
0.0
  0
ARC
  5
D3
  8
1
  6
________________
 62
     7
 10
883.05
 20
640.8000000000001
 30
0.0
 40
1.499999999999946
 50
90.0
 51
180.0
  0
LINE
  5
D4
  8
1
  6
________________
 62
     7
 10
902.6500000000001
 20
642.3
 30
0.0
 11
883.05
 21
642.3
 31
0.0
  0
ARC
  5
D5
  8
1
  6
________________
 62
     7
 10
902.6500000000001
 20
640.8000000000001
 30
0.0
 40
1.499999999999946
 50
0.0
 51
90.0
  0
LINE
  5
D6
  8
1
  6
________________
 62
     7
 10
904.15
 20
632.0
 30
0.0
 11
904.15
 21
640.8000000000001
 31
0.0
  0
ARC
  5
D7
  8
1
  6
________________
 62
     7
 10
-1582.85
 20
628.6999999999999
 30
0.0
 40
747.6999999999999
 50
4.093296316777217
 51
7.850028204820808
210
0.0
220
0.0
230
-1.0
  0
ARC
  5
D8
  8
1
  6
________________
 62
     7
 10
-838.0547261159616
 20
682.0
 30
0.0
 40
1.000000000000001
 50
270.0
 51
4.093296316777241
210
0.0
220
0.0
230
-1.0
  0
LINE
  5
D9
  8
1
  6
________________
 62
     7
 10
866.85
 20
681.0
 30
0.0
 11
838.0547261159616
 21
681.0
 31
0.0
  0
ARC
  5
DA
  8
1
  6
________________
 62
     7
 10
-866.85
 20
682.0
 30
0.0
 40
1.000000000000001
 50
180.0
 51
270.0
210
0.0
220
0.0
230
-1.0
  0
LINE
  5
DB
  8
1
  6
________________
 62
     7
 10
867.85
 20
725.4
 30
0.0
 11
867.85
 21
682.0
 31
0.0
  0
ARC
  5
DC
  8
1
  6
________________
 62
     7
 10
-866.85
 20
725.4
 30
0.0
 40
1.000000000000001
 50
90.0
 51
180.0
210
0.0
220
0.0
230
-1.0
  0
LINE
  5
DD
  8
1
  6
________________
 62
     7
 10
852.1438590202116
 20
726.4
 30
0.0
 11
866.85
 21
726.4
 31
0.0
  0
ARC
  5
DE
  8
1
  6
________________
 62
     7
 10
852.1438590202116
 20
735.7
 30
0.0
 40
9.299999999999992
 50
209.1382837834666
 51
270.0
  0
ARC
  5
DF
  8
1
  6
________________
 62
     7
 10
-843.1473542057007
 20
730.6847331952844
 30
0.0
 40
1.000000000000008
 50
7.850028204820732
 51
150.8617162165336
210
0.0
220
0.0
230
-1.0
  0
ARC
  5
E0
  8
1
  6
________________
 62
     7
 10
841.41
 20
651.55
 30
0.0
 40
1.000000000000001
 50
270.0
 51
0.0
  0
LINE
  5
E1
  8
1
  6
________________
 62
     7
 10
841.41
 20
650.55
 30
0.0
 11
836.4411525845906
 21
650.55
 31
0.0
  0
ARC
  5
E2
  8
1
  6
________________
 62
     7
 10
-836.4411525845906
 20
649.55
 30
0.0
 40
0.9999999999999922
 50
1.600070034900094
 51
90.00000000000001
210
0.0
220
0.0
230
-1.0
  0
ARC
  5
E3
  8
1
  6
________________
 62
     7
 10
-840.1858767248818
 20
636.0
 30
0.0
 40
5.000000000000004
 50
270.0
 51
0.5631694161285168
210
0.0
220
0.0
230
-1.0
  0
LINE
  5
E4
  8
1
  6
________________
 62
     7
 10
840.1858767248818
 20
631.0
 30
0.0
 11
866.85
 21
631.0
 31
0.0
  0
ARC
  5
E5
  8
1
  6
________________
 62
     7
 10
-866.85
 20
632.0
 30
0.0
 40
1.000000000000001
 50
180.0
 51
270.0
210
0.0
220
0.0
230
-1.0
  0
ARC
  5
E6
  8
1
  6
________________
 62
     7
 10
-866.85
 20
649.55
 30
0.0
 40
1.000000000000001
 50
90.0
 51
180.0
210
0.0
220
0.0
230
-1.0
  0
LINE
  5
E7
  8
1
  6
________________
 62
     7
 10
861.85
 20
650.55
 30
0.0
 11
866.85
 21
650.55
 31
0.0
  0
ARC
  5
E8
  8
1
  6
________________
 62
     7
 10
861.85
 20
651.55
 30
0.0
 40
1.000000000000001
 50
180.0
 51
270.0
  0
LINE
  5
E9
  8
1
  6
________________
 62
     7
 10
860.85
 20
651.85
 30
0.0
 11
860.85
 21
651.55
 31
0.0
  0
ARC
  5
EA
  8
1
  6
________________
 62
     7
 10
861.85
 20
651.85
 30
0.0
 40
1.000000000000001
 50
90.0
 51
180.0
  0
LINE
  5
EB
  8
1
  6
________________
 62
     7
 10
866.85
 20
652.85
 30
0.0
 11
861.85
 21
652.85
 31
0.0
  0
ARC
  5
EC
  8
1
  6
________________
 62
     7
 10
-866.85
 20
653.85
 30
0.0
 40
1.000000000000001
 50
180.0
 51
270.0
210
0.0
220
0.0
230
-1.0
  0
LINE
  5
ED
  8
1
  6
________________
 62
     7
 10
867.85
 20
653.85
 30
0.0
 11
867.85
 21
677.6999999999999
 31
0.0
  0
ARC
  5
EE
  8
1
  6
________________
 62
     7
 10
-866.85
 20
677.6999999999999
 30
0.0
 40
1.000000000000001
 50
90.0
 51
180.0
210
0.0
220
0.0
230
-1.0
  0
LINE
  5
EF
  8
1
  6
________________
 62
     7
 10
866.85
 20
678.6999999999999
 30
0.0
 11
837.7594752984709
 21
678.6999999999999
 31
0.0
  0
ARC
  5
F0
  8
1
  6
________________
 62
     7
 10
-837.7594752984709
 20
677.6999999999999
 30
0.0
 40
1.000000000000049
 50
3.762571414139182
 51
89.99999999999996
210
0.0
220
0.0
230
-1.0
  0
ARC
  5
F1
  8
1
  6
________________
 62
     7
 10
-836.5736654562869
 20
653.85
 30
0.0
 40
1.000000000000001
 50
270.0
 51
1.930174699139684
210
0.0
220
0.0
230
-1.0
  0
LINE
  5
F2
  8
1
  6
________________
 62
     7
 10
836.5736654562869
 20
652.85
 30
0.0
 11
841.41
 21
652.85
 31
0.0
  0
ARC
  5
F3
  8
1
  6
________________
 62
     7
 10
841.41
 20
651.85
 30
0.0
 40
1.000000000000001
 50
0.0
 51
90.0
  0
LINE
  5
F4
  8
1
  6
________________
 62
     7
 10
842.41
 20
651.85
 30
0.0
 11
842.41
 21
651.55
 31
0.0
  0
ARC
  5
F5
  8
1
  6
________________
 62
     7
 10
923.85
 20
660.55
 30
0.0
 40
1.000000000000001
 50
270.0
 51
0.0
  0
LINE
  5
F6
  8
1
  6
________________
 62
     7
 10
918.85
 20
659.55
 30
0.0
 11
923.85
 21
659.55
 31
0.0
  0
ARC
  5
F7
  8
1
  6
________________
 62
     7
 10
-918.85
 20
658.55
 30
0.0
 40
1.000000000000001
 50
0.0
 51
90.0
210
0.0
220
0.0
230
-1.0
  0
ARC
  5
F8
  8
1
  6
________________
 62
     7
 10
-918.85
 20
632.0
 30
0.0
 40
1.000000000000001
 50
270.0000000000002
 51
0.0
210
0.0
220
0.0
230
-1.0
  0
LINE
  5
F9
  8
1
  6
________________
 62
     7
 10
945.5141232751182
 20
631.0
 30
0.0
 11
918.85
 21
631.0
 31
0.0
  0
ARC
  5
FA
  8
1
  6
________________
 62
     7
 10
-945.5141232751182
 20
636.0
 30
0.0
 40
4.999999999999972
 50
179.4368305838715
 51
270.0
210
0.0
220
0.0
230
-1.0
  0
ARC
  5
FB
  8
1
  6
________________
 62
     7
 10
-948.9531212238694
 20
658.55
 30
0.0
 40
1.000000000000001
 50
90.0
 51
177.708939505528
210
0.0
220
0.0
230
-1.0
  0
LINE
  5
FC
  8
1
  6
________________
 62
     7
 10
943.95
 20
659.55
 30
0.0
 11
948.9531212238694
 21
659.55
 31
0.0
  0
ARC
  5
FD
  8
1
  6
________________
 62
     7
 10
943.95
 20
660.55
 30
0.0
 40
1.000000000000001
 50
180.0
 51
270.0
  0
LINE
  5
FE
  8
1
  6
________________
 62
     7
 10
942.95
 20
660.85
 30
0.0
 11
942.95
 21
660.55
 31
0.0
  0
ARC
  5
FF
  8
1
  6
________________
 62
     7
 10
943.95
 20
660.85
 30
0.0
 40
1.000000000000001
 50
90.0
 51
180.0
  0
LINE
  5
100
  8
1
  6
________________
 62
     7
 10
948.7686735160878
 20
661.85
 30
0.0
 11
943.95
 21
661.85
 31
0.0
  0
ARC
  5
101
  8
1
  6
________________
 62
     7
 10
-948.7686735160878
 20
662.85
 30
0.0
 40
0.9999999999999742
 50
177.3786880699718
 51
270.0000000000001
210
0.0
220
0.0
230
-1.0
  0
ARC
  5
102
  8
1
  6
________________
 62
     7
 10
-202.8500000000001
 20
628.7
 30
0.0
 40
747.6999999999999
 50
176.2374285858606
 51
177.3786880699718
210
0.0
220
0.0
230
-1.0
  0
ARC
  5
103
  8
1
  6
________________
 62
     7
 10
-947.9405247015291
 20
677.6999999999999
 30
0.0
 40
1.000000000000001
 50
90.0
 51
176.2374285858608
210
0.0
220
0.0
230
-1.0
  0
LINE
  5
104
  8
1
  6
________________
 62
     7
 10
918.85
 20
678.6999999999999
 30
0.0
 11
947.9405247015291
 21
678.6999999999999
 31
0.0
  0
ARC
  5
105
  8
1
  6
________________
 62
     7
 10
-918.85
 20
677.6999999999999
 30
0.0
 40
1.000000000000001
 50
0.0
 51
90.0
210
0.0
220
0.0
230
-1.0
  0
LINE
  5
106
  8
1
  6
________________
 62
     7
 10
917.85
 20
662.85
 30
0.0
 11
917.85
 21
677.6999999999999
 31
0.0
  0
ARC
  5
107
  8
1
  6
________________
 62
     7
 10
-918.85
 20
662.85
 30
0.0
 40
1.000000000000001
 50
270.0
 51
0.0
210
0.0
220
0.0
230
-1.0
  0
LINE
  5
108
  8
1
  6
________________
 62
     7
 10
923.85
 20
661.85
 30
0.0
 11
918.85
 21
661.85
 31
0.0
  0
ARC
  5
109
  8
1
  6
________________
 62
     7
 10
923.85
 20
660.85
 30
0.0
 40
1.000000000000001
 50
0.0
 51
90.0
  0
LINE
  5
10A
  8
1
  6
________________
 62
     7
 10
924.85
 20
660.55
 30
0.0
 11
924.85
 21
660.85
 31
0.0
  0
ARC
  5
10B
  8
1
  6
________________
 62
     7
 10
1582.85
 20
628.6999999999999
 30
0.0
 40
747.7
 50
178.3999299650995
 51
179.4368305838716
  0
ARC
  5
10C
  8
1
  6
________________
 62
     7
 10
1582.85
 20
628.6999999999999
 30
0.0
 40
747.7
 50
176.2374285858606
 51
178.0698253008603
  0
LINE
  5
10D
  8
1
  6
________________
 62
     7
 10
867.85
 20
632.0
 30
0.0
 11
867.85
 21
649.55
 31
0.0
  0
LINE
  5
10E
  8
1
  6
________________
 62
     7
 10
917.85
 20
632.0
 30
0.0
 11
917.85
 21
658.55
 31
0.0
  0
ARC
  5
10F
  8
1
  6
________________
 62
     7
 10
-202.8500000000001
 20
628.7
 30
0.0
 40
747.6999999999998
 50
177.7089395055274
 51
179.4368305838716
210
0.0
220
0.0
230
-1.0
  0
LINE
  5
110
  8
1
  6
________________
 62
     7
 10
898.85
 20
628.7
 30
0.0
 11
908.35
 21
628.7
 31
0.0
  0
ARC
  5
111
  8
1
  6
________________
 62
     7
 10
-883.05
 20
741.3
 30
0.0
 40
1.499999999999946
 50
0.0
 51
90.0
210
0.0
220
0.0
230
-1.0
  0
ARC
  5
112
  8
1
  6
________________
 62
     7
 10
846.6993927484392
 20
759.9
 30
0.0
 40
1.500000000000057
 50
90.0
 51
181.4893877178729
  0
ARC
  5
113
  8
1
  6
________________
 62
     7
 10
852.864286443223
 20
736.0
 30
0.0
 40
5.000000000000036
 50
191.1929428424455
 51
270.0
  0
LINE
  5
114
  8
1
  6
________________
 62
     7
 10
880.5500000000001
 20
731.0
 30
0.0
 11
852.864286443223
 21
731.0
 31
0.0
  0
ARC
  5
115
  8
1
  6
________________
 62
     7
 10
-883.05
 20
817.1
 30
0.0
 40
1.500000000000057
 50
270.0
 51
0.0
210
0.0
220
0.0
230
-1.0
  0
LINE
  5
116
  8
1
  6
________________
 62
     7
 10
881.5500000000001
 20
825.4
 30
0.0
 11
881.5500000000001
 21
817.1
 31
0.0
  0
ARC
  5
117
  8
1
  6
________________
 62
     7
 10
880.5500000000001
 20
825.4
 30
0.0
 40
1.000000000000001
 50
0.0
 51
90.0
  0
ARC
  5
118
  8
1
  6
________________
 62
     7
 10
871.3167693888643
 20
824.4
 30
0.0
 40
2.000000000000002
 50
90.0
 51
144.9516985959647
  0
ARC
  5
119
  8
1
  6
________________
 62
     7
 10
851.1546861385187
 20
764.7
 30
0.0
 40
0.9999999999999595
 50
179.4630120120378
 51
270.0
  0
ARC
  5
11A
  8
1
  6
________________
 62
     7
 10
890.95
 20
764.7
 30
0.0
 40
1.000000000000001
 50
270.0
 51
0.0
  0
LINE
  5
11B
  8
1
  6
________________
 62
     7
 10
891.95
 20
814.6
 30
0.0
 11
891.95
 21
764.7
 31
0.0
  0
ARC
  5
11C
  8
1
  6
________________
 62
     7
 10
890.95
 20
814.6
 30
0.0
 40
1.000000000000001
 50
0.0
 51
90.0
  0
LINE
  5
11D
  8
1
  6
________________
 62
     7
 10
883.05
 20
815.6
 30
0.0
 11
890.95
 21
815.6
 31
0.0
  0
ARC
  5
11E
  8
1
  6
________________
 62
     7
 10
888.35
 20
760.4
 30
0.0
 40
1.000000000000001
 50
90.0
 51
180.0
  0
ARC
  5
11F
  8
1
  6
________________
 62
     7
 10
884.35
 20
740.0
 30
0.0
 40
0.500000000000056
 50
90.0
 51
180.0
  0
ARC
  5
120
  8
1
  6
________________
 62
     7
 10
884.35
 20
731.5
 30
0.0
 40
0.500000000000056
 50
180.0
 51
270.0
  0
LINE
  5
121
  8
1
  6
________________
 62
     7
 10
886.85
 20
731.0
 30
0.0
 11
886.85
 21
728.7
 31
0.0
  0
LINE
  5
122
  8
1
  6
________________
 62
     7
 10
877.35
 20
728.7
 30
0.0
 11
877.35
 21
729.0
 31
0.0
  0
LINE
  5
123
  8
1
  6
________________
 62
     7
 10
877.35
 20
729.0
 30
0.0
 11
875.35
 21
729.0
 31
0.0
  0
LINE
  5
124
  8
1
  6
________________
 62
     7
 10
875.35
 20
729.0
 30
0.0
 11
875.35
 21
728.7
 31
0.0
  0
LINE
  5
125
  8
1
  6
________________
 62
     7
 10
871.35
 20
729.0
 30
0.0
 11
869.35
 21
729.0
 31
0.0
  0
LINE
  5
126
  8
1
  6
________________
 62
     7
 10
869.35
 20
729.0
 30
0.0
 11
869.35
 21
728.7
 31
0.0
  0
LINE
  5
127
  8
1
  6
________________
 62
     7
 10
865.35
 20
728.7
 30
0.0
 11
865.35
 21
729.0
 31
0.0
  0
LINE
  5
128
  8
1
  6
________________
 62
     7
 10
865.35
 20
729.0
 30
0.0
 11
863.35
 21
729.0
 31
0.0
  0
LINE
  5
129
  8
1
  6
________________
 62
     7
 10
863.35
 20
729.0
 30
0.0
 11
863.35
 21
728.7
 31
0.0
  0
LINE
  5
12A
  8
1
  6
________________
 62
     7
 10
859.35
 20
728.7
 30
0.0
 11
859.35
 21
729.0
 31
0.0
  0
LINE
  5
12B
  8
1
  6
________________
 62
     7
 10
859.35
 20
729.0
 30
0.0
 11
857.35
 21
729.0
 31
0.0
  0
LINE
  5
12C
  8
1
  6
________________
 62
     7
 10
857.35
 20
729.0
 30
0.0
 11
857.35
 21
728.7
 31
0.0
  0
LINE
  5
12D
  8
1
  6
________________
 62
     7
 10
857.35
 20
728.7
 30
0.0
 11
852.6180492897571
 21
728.7
 31
0.0
  0
ARC
  5
12E
  8
1
  6
________________
 62
     7
 10
846.8545045959072
 20
764.7
 30
0.0
 40
1.000000000000001
 50
270.0
 51
359.4838148235702
  0
ARC
  5
12F
  8
1
  6
________________
 62
     7
 10
866.5186800708541
 20
825.9000000000001
 30
0.0
 40
0.5000000000000876
 50
325.743692026745
 51
90.0
  0
ARC
  5
130
  8
1
  6
________________
 62
     7
 10
-862.85
 20
827.55
 30
0.0
 40
1.149999999999984
 50
270.0
 51
0.0
210
0.0
220
0.0
230
-1.0
  0
ARC
  5
131
  8
1
  6
________________
 62
     7
 10
-862.85
 20
827.55
 30
0.0
 40
1.149999999999984
 50
0.0
 51
90.0
210
0.0
220
0.0
230
-1.0
  0
LINE
  5
132
  8
1
  6
________________
 62
     7
 10
862.85
 20
828.6999999999999
 30
0.0
 11
868.35
 21
828.6999999999999
 31
0.0
  0
LINE
  5
133
  8
1
  6
________________
 62
     7
 10
868.35
 20
828.4
 30
0.0
 11
870.35
 21
828.4
 31
0.0
  0
LINE
  5
134
  8
1
  6
________________
 62
     7
 10
870.35
 20
828.6999999999999
 30
0.0
 11
873.35
 21
828.6999999999999
 31
0.0
  0
LINE
  5
135
  8
1
  6
________________
 62
     7
 10
873.35
 20
828.6999999999999
 30
0.0
 11
873.35
 21
828.4
 31
0.0
  0
LINE
  5
136
  8
1
  6
________________
 62
     7
 10
873.35
 20
828.4
 30
0.0
 11
875.35
 21
828.4
 31
0.0
  0
LINE
  5
137
  8
1
  6
________________
 62
     7
 10
875.35
 20
828.4
 30
0.0
 11
875.35
 21
828.6999999999999
 31
0.0
  0
LINE
  5
138
  8
1
  6
________________
 62
     7
 10
878.3499999999999
 20
828.6999999999999
 30
0.0
 11
878.3499999999999
 21
828.4
 31
0.0
  0
LINE
  5
139
  8
1
  6
________________
 62
     7
 10
878.3499999999999
 20
828.4
 30
0.0
 11
880.35
 21
828.4
 31
0.0
  0
LINE
  5
13A
  8
1
  6
________________
 62
     7
 10
880.35
 20
828.4
 30
0.0
 11
880.3499999999999
 21
828.6999999999999
 31
0.0
  0
LINE
  5
13B
  8
1
  6
________________
 62
     7
 10
880.3499999999999
 20
828.6999999999999
 30
0.0
 11
887.3499999999999
 21
828.6999999999999
 31
0.0
  0
ARC
  5
13C
  8
1
  6
________________
 62
     7
 10
884.3499999999999
 20
825.9000000000001
 30
0.0
 40
0.4999999999999449
 50
90.0
 51
180.0
  0
LINE
  5
13D
  8
1
  6
________________
 62
     7
 10
883.85
 20
825.9000000000001
 30
0.0
 11
883.85
 21
818.4
 31
0.0
  0
ARC
  5
13E
  8
1
  6
________________
 62
     7
 10
884.3499999999999
 20
818.4
 30
0.0
 40
0.4999999999999449
 50
180.0
 51
270.0
  0
LINE
  5
13F
  8
1
  6
________________
 62
     7
 10
910.35
 20
828.6999999999999
 30
0.0
 11
907.3500000000001
 21
828.6999999999999
 31
0.0
  0
LINE
  5
140
  8
1
  6
________________
 62
     7
 10
915.35
 20
828.6999999999999
 30
0.0
 11
912.35
 21
828.6999999999999
 31
0.0
  0
LINE
  5
141
  8
1
  6
________________
 62
     7
 10
922.85
 20
828.6999999999999
 30
0.0
 11
917.35
 21
828.6999999999999
 31
0.0
  0
LINE
  5
142
  8
1
  6
________________
 62
     7
 10
928.35
 20
728.7
 30
0.0
 11
933.081950710243
 21
728.7
 31
0.0
  0
LINE
  5
143
  8
1
  6
________________
 62
     7
 10
926.35
 20
729.0
 30
0.0
 11
928.35
 21
729.0
 31
0.0
  0
LINE
  5
144
  8
1
  6
________________
 62
     7
 10
922.35
 20
728.7
 30
0.0
 11
926.35
 21
728.7
 31
0.0
  0
LINE
  5
145
  8
1
  6
________________
 62
     7
 10
920.35
 20
729.0
 30
0.0
 11
922.35
 21
729.0
 31
0.0
  0
LINE
  5
146
  8
1
  6
________________
 62
     7
 10
916.35
 20
728.7
 30
0.0
 11
920.35
 21
728.7
 31
0.0
  0
LINE
  5
147
  8
1
  6
________________
 62
     7
 10
914.35
 20
729.0
 30
0.0
 11
916.35
 21
729.0
 31
0.0
  0
LINE
  5
148
  8
1
  6
________________
 62
     7
 10
910.35
 20
728.7
 30
0.0
 11
914.35
 21
728.7
 31
0.0
  0
LINE
  5
149
  8
1
  6
________________
 62
     7
 10
908.35
 20
729.0
 30
0.0
 11
910.35
 21
729.0
 31
0.0
  0
LINE
  5
14A
  8
1
  6
________________
 62
     7
 10
901.3499999999999
 20
731.0
 30
0.0
 11
898.85
 21
731.0
 31
0.0
  0
LINE
  5
14B
  8
1
  6
________________
 62
     7
 10
890.95
 20
763.7
 30
0.0
 11
851.1546861385187
 21
763.7
 31
0.0
  0
LINE
  5
14C
  8
1
  6
________________
 62
     7
 10
898.85
 20
728.7
 30
0.0
 11
908.35
 21
728.7
 31
0.0
  0
LINE
  5
14D
  8
1
  6
________________
 62
     7
 10
868.35
 20
828.6999999999999
 30
0.0
 11
868.35
 21
828.4
 31
0.0
  0
LINE
  5
14E
  8
1
  6
________________
 62
     7
 10
870.35
 20
828.4
 30
0.0
 11
870.35
 21
828.6999999999999
 31
0.0
  0
LINE
  5
14F
  8
1
  6
________________
 62
     7
 10
908.35
 20
728.7
 30
0.0
 11
908.35
 21
729.0
 31
0.0
  0
LINE
  5
150
  8
1
  6
________________
 62
     7
 10
917.35
 20
828.6999999999999
 30
0.0
 11
917.35
 21
828.4
 31
0.0
  0
LINE
  5
151
  8
1
  6
________________
 62
     7
 10
915.35
 20
828.4
 30
0.0
 11
915.35
 21
828.6999999999999
 31
0.0
  0
LINE
  5
152
  8
1
  6
________________
 62
     7
 10
917.35
 20
828.4
 30
0.0
 11
915.35
 21
828.4
 31
0.0
  0
LINE
  5
153
  8
1
  6
________________
 62
     7
 10
912.35
 20
828.6999999999999
 30
0.0
 11
912.35
 21
828.4
 31
0.0
  0
LINE
  5
154
  8
1
  6
________________
 62
     7
 10
910.35
 20
828.4
 30
0.0
 11
910.35
 21
828.6999999999999
 31
0.0
  0
LINE
  5
155
  8
1
  6
________________
 62
     7
 10
912.35
 20
828.4
 30
0.0
 11
910.35
 21
828.4
 31
0.0
  0
LINE
  5
156
  8
1
  6
________________
 62
     7
 10
907.3500000000001
 20
828.6999999999999
 30
0.0
 11
907.3500000000001
 21
828.4
 31
0.0
  0
LINE
  5
157
  8
1
  6
________________
 62
     7
 10
905.35
 20
828.4
 30
0.0
 11
905.3500000000001
 21
828.6999999999999
 31
0.0
  0
LINE
  5
158
  8
1
  6
________________
 62
     7
 10
907.3500000000001
 20
828.4
 30
0.0
 11
905.35
 21
828.4
 31
0.0
  0
ARC
  5
159
  8
1
  6
________________
 62
     7
 10
-914.3832306111358
 20
824.4
 30
0.0
 40
2.000000000000002
 50
90.0
 51
144.9516985959647
210
0.0
220
0.0
230
-1.0
  0
ARC
  5
15A
  8
1
  6
________________
 62
     7
 10
-934.5453138614813
 20
764.7
 30
0.0
 40
0.9999999999999595
 50
179.4630120120378
 51
270.0
210
0.0
220
0.0
230
-1.0
  0
ARC
  5
15B
  8
1
  6
________________
 62
     7
 10
922.85
 20
827.55
 30
0.0
 40
1.149999999999984
 50
0.0
 51
90.0
  0
ARC
  5
15C
  8
1
  6
________________
 62
     7
 10
922.85
 20
827.55
 30
0.0
 40
1.149999999999984
 50
270.0
 51
0.0
  0
ARC
  5
15D
  8
1
  6
________________
 62
     7
 10
902.6500000000001
 20
741.3
 30
0.0
 40
1.499999999999946
 50
0.0
 51
90.0
  0
ARC
  5
15E
  8
1
  6
________________
 62
     7
 10
902.6500000000001
 20
817.1
 30
0.0
 40
1.500000000000057
 50
270.0
 51
0.0
  0
ARC
  5
15F
  8
1
  6
________________
 62
     7
 10
-919.181319929146
 20
825.9000000000001
 30
0.0
 40
0.5000000000000876
 50
325.743692026745
 51
90.0
210
0.0
220
0.0
230
-1.0
  0
ARC
  5
160
  8
1
  6
________________
 62
     7
 10
-901.3499999999999
 20
731.5
 30
0.0
 40
0.500000000000056
 50
180.0
 51
270.0
210
0.0
220
0.0
230
-1.0
  0
ARC
  5
161
  8
1
  6
________________
 62
     7
 10
-901.3499999999999
 20
740.0
 30
0.0
 40
0.500000000000056
 50
90.0
 51
180.0
210
0.0
220
0.0
230
-1.0
  0
ARC
  5
162
  8
1
  6
________________
 62
     7
 10
-901.35
 20
825.9000000000001
 30
0.0
 40
0.4999999999999449
 50
90.0
 51
180.0
210
0.0
220
0.0
230
-1.0
  0
ARC
  5
163
  8
1
  6
________________
 62
     7
 10
-901.35
 20
818.4
 30
0.0
 40
0.4999999999999449
 50
180.0
 51
270.0
210
0.0
220
0.0
230
-1.0
  0
ARC
  5
164
  8
1
  6
________________
 62
     7
 10
884.05
 20
760.4
 30
0.0
 40
1.000000000000001
 50
0.0
 51
90.0
  0
ARC
  5
165
  8
1
  6
________________
 62
     7
 10
884.05
 20
743.8
 30
0.0
 40
1.000000000000001
 50
270.0
 51
0.0
  0
ARC
  5
166
  8
1
  6
________________
 62
     7
 10
880.5500000000001
 20
732.0
 30
0.0
 40
1.000000000000001
 50
270.0
 51
0.0
  0
ARC
  5
167
  8
1
  6
________________
 62
     7
 10
-852.6180492897571
 20
735.7
 30
0.0
 40
7.000000000000006
 50
270.0
 51
348.7082937051387
210
0.0
220
0.0
230
-1.0
  0
ARC
  5
168
  8
1
  6
________________
 62
     7
 10
-901.6500000000001
 20
760.4
 30
0.0
 40
1.000000000000001
 50
0.0
 51
90.0
210
0.0
220
0.0
230
-1.0
  0
ARC
  5
169
  8
1
  6
________________
 62
     7
 10
-901.6500000000001
 20
743.8
 30
0.0
 40
1.000000000000001
 50
270.0
 51
0.0
210
0.0
220
0.0
230
-1.0
  0
ARC
  5
16A
  8
1
  6
________________
 62
     7
 10
-845.8806154330094
 20
760.7
 30
0.0
 40
3.000000000000028
 50
358.830617194386
 51
90.0
210
0.0
220
0.0
230
-1.0
  0
ARC
  5
16B
  8
1
  6
________________
 62
     7
 10
-957.85
 20
763.7
 30
0.0
 40
107.7
 50
0.536987987962228
 51
35.04830140403539
210
0.0
220
0.0
230
-1.0
  0
ARC
  5
16C
  8
1
  6
________________
 62
     7
 10
-932.8357135567769
 20
736.0
 30
0.0
 40
5.000000000000036
 50
191.1929428424455
 51
270.0
210
0.0
220
0.0
230
-1.0
  0
ARC
  5
16D
  8
1
  6
________________
 62
     7
 10
-939.0006072515608
 20
759.9
 30
0.0
 40
1.500000000000057
 50
90.0
 51
181.4893877178729
210
0.0
220
0.0
230
-1.0
  0
ARC
  5
16E
  8
1
  6
________________
 62
     7
 10
939.8193845669906
 20
760.7
 30
0.0
 40
3.000000000000028
 50
358.830617194386
 51
90.0
  0
ARC
  5
16F
  8
1
  6
________________
 62
     7
 10
827.8499999999999
 20
763.7
 30
0.0
 40
107.7
 50
0.536987987962228
 51
35.04830140403539
  0
LINE
  5
170
  8
1
  6
________________
 62
     7
 10
871.3167693888643
 20
826.4
 30
0.0
 11
880.5500000000001
 21
826.4
 31
0.0
  0
ARC
  5
171
  8
1
  6
________________
 62
     7
 10
-992.85
 20
763.7
 30
0.0
 40
147.7
 50
348.8070571575545
 51
358.5106122821271
210
0.0
220
0.0
230
-1.0
  0
LINE
  5
172
  8
1
  6
________________
 62
     7
 10
902.6500000000001
 20
815.6
 30
0.0
 11
894.75
 21
815.6
 31
0.0
  0
LINE
  5
173
  8
1
  6
________________
 62
     7
 10
881.5500000000001
 20
741.3
 30
0.0
 11
881.5500000000001
 21
732.0
 31
0.0
  0
LINE
  5
174
  8
1
  6
________________
 62
     7
 10
884.05
 20
742.8
 30
0.0
 11
883.05
 21
742.8
 31
0.0
  0
LINE
  5
175
  8
1
  6
________________
 62
     7
 10
885.05
 20
760.4
 30
0.0
 11
885.05
 21
743.8
 31
0.0
  0
LINE
  5
176
  8
1
  6
________________
 62
     7
 10
846.6993927484392
 20
761.4000000000001
 30
0.0
 11
884.05
 21
761.4000000000001
 31
0.0
  0
LINE
  5
177
  8
1
  6
________________
 62
     7
 10
866.5186800708541
 20
826.4
 30
0.0
 11
862.85
 21
826.4
 31
0.0
  0
ARC
  5
178
  8
1
  6
________________
 62
     7
 10
-957.85
 20
763.7
 30
0.0
 40
110.0000000000001
 50
0.5161851764299518
 51
34.25630797325463
210
0.0
220
0.0
230
-1.0
  0
LINE
  5
179
  8
1
  6
________________
 62
     7
 10
845.8806154330094
 20
763.7
 30
0.0
 11
846.8545045959072
 21
763.7
 31
0.0
  0
ARC
  5
17A
  8
1
  6
________________
 62
     7
 10
-992.85
 20
763.7
 30
0.0
 40
149.9999999999999
 50
348.7082937051388
 51
354.2608295227332
210
0.0
220
0.0
230
-1.0
  0
ARC
  5
17B
  8
1
  6
________________
 62
     7
 10
-992.85
 20
763.7
 30
0.0
 40
149.9999999999999
 50
354.2608295227332
 51
358.8306171943859
210
0.0
220
0.0
230
-1.0
  0
LINE
  5
17C
  8
1
  6
________________
 62
     7
 10
883.85
 20
740.0
 30
0.0
 11
883.85
 21
731.5
 31
0.0
  0
LINE
  5
17D
  8
1
  6
________________
 62
     7
 10
887.35
 20
740.5
 30
0.0
 11
884.35
 21
740.5
 31
0.0
  0
LINE
  5
17E
  8
1
  6
________________
 62
     7
 10
887.35
 20
760.4
 30
0.0
 11
887.35
 21
740.5
 31
0.0
  0
ARC
  5
17F
  8
1
  6
________________
 62
     7
 10
792.85
 20
763.7
 30
0.0
 40
149.9999999999999
 50
348.7082937051388
 51
354.2608295227332
  0
ARC
  5
180
  8
1
  6
________________
 62
     7
 10
792.85
 20
763.7
 30
0.0
 40
149.9999999999999
 50
354.2608295227332
 51
358.8306171943859
  0
LINE
  5
181
  8
1
  6
________________
 62
     7
 10
887.3499999999999
 20
826.4
 30
0.0
 11
884.3499999999999
 21
826.4
 31
0.0
  0
LINE
  5
182
  8
1
  6
________________
 62
     7
 10
887.3499999999999
 20
828.6999999999999
 30
0.0
 11
887.3499999999999
 21
826.4
 31
0.0
  0
LINE
  5
183
  8
1
  6
________________
 62
     7
 10
898.3499999999999
 20
760.4
 30
0.0
 11
898.3499999999999
 21
740.5
 31
0.0
  0
LINE
  5
184
  8
1
  6
________________
 62
     7
 10
888.35
 20
761.4
 30
0.0
 11
897.3499999999999
 21
761.4
 31
0.0
  0
LINE
  5
185
  8
1
  6
________________
 62
     7
 10
901.35
 20
817.9000000000001
 30
0.0
 11
884.3499999999999
 21
817.9000000000001
 31
0.0
  0
LINE
  5
186
  8
1
  6
________________
 62
     7
 10
901.85
 20
825.9000000000001
 30
0.0
 11
901.85
 21
818.4
 31
0.0
  0
LINE
  5
187
  8
1
  6
________________
 62
     7
 10
898.35
 20
826.4
 30
0.0
 11
901.35
 21
826.4
 31
0.0
  0
LINE
  5
188
  8
1
  6
________________
 62
     7
 10
898.35
 20
828.6999999999999
 30
0.0
 11
898.35
 21
826.4
 31
0.0
  0
LINE
  5
189
  8
1
  6
________________
 62
     7
 10
905.3500000000001
 20
828.6999999999999
 30
0.0
 11
898.35
 21
828.6999999999999
 31
0.0
  0
LINE
  5
18A
  8
1
  6
________________
 62
     7
 10
871.35
 20
728.7
 30
0.0
 11
871.35
 21
729.0
 31
0.0
  0
LINE
  5
18B
  8
1
  6
________________
 62
     7
 10
916.35
 20
729.0
 30
0.0
 11
916.35
 21
728.7
 31
0.0
  0
LINE
  5
18C
  8
1
  6
________________
 62
     7
 10
910.35
 20
729.0
 30
0.0
 11
910.35
 21
728.7
 31
0.0
  0
LINE
  5
18D
  8
1
  6
________________
 62
     7
 10
875.35
 20
828.6999999999999
 30
0.0
 11
878.3499999999999
 21
828.6999999999999
 31
0.0
  0
LINE
  5
18E
  8
1
  6
________________
 62
     7
 10
875.35
 20
728.7
 30
0.0
 11
871.35
 21
728.7
 31
0.0
  0
LINE
  5
18F
  8
1
  6
________________
 62
     7
 10
869.35
 20
728.7
 30
0.0
 11
865.35
 21
728.7
 31
0.0
  0
LINE
  5
190
  8
1
  6
________________
 62
     7
 10
863.35
 20
728.7
 30
0.0
 11
859.35
 21
728.7
 31
0.0
  0
LINE
  5
191
  8
1
  6
________________
 62
     7
 10
884.35
 20
731.0
 30
0.0
 11
886.85
 21
731.0
 31
0.0
  0
LINE
  5
192
  8
1
  6
________________
 62
     7
 10
886.85
 20
728.7
 30
0.0
 11
877.35
 21
728.7
 31
0.0
  0
LINE
  5
193
  8
1
  6
________________
 62
     7
 10
898.85
 20
731.0
 30
0.0
 11
898.85
 21
728.7
 31
0.0
  0
ARC
  5
194
  8
1
  6
________________
 62
     7
 10
-938.8454954040928
 20
764.7
 30
0.0
 40
1.000000000000001
 50
270.0
 51
359.4838148235702
210
0.0
220
0.0
230
-1.0
  0
LINE
  5
195
  8
1
  6
________________
 62
     7
 10
928.35
 20
729.0
 30
0.0
 11
928.35
 21
728.7
 31
0.0
  0
LINE
  5
196
  8
1
  6
________________
 62
     7
 10
926.35
 20
728.7
 30
0.0
 11
926.35
 21
729.0
 31
0.0
  0
LINE
  5
197
  8
1
  6
________________
 62
     7
 10
922.35
 20
729.0
 30
0.0
 11
922.35
 21
728.7
 31
0.0
  0
LINE
  5
198
  8
1
  6
________________
 62
     7
 10
920.35
 20
728.7
 30
0.0
 11
920.35
 21
729.0
 31
0.0
  0
LINE
  5
199
  8
1
  6
________________
 62
     7
 10
914.35
 20
728.7
 30
0.0
 11
914.35
 21
729.0
 31
0.0
  0
ARC
  5
19A
  8
1
  6
________________
 62
     7
 10
-905.15
 20
825.4
 30
0.0
 40
1.000000000000001
 50
0.0
 51
90.0
210
0.0
220
0.0
230
-1.0
  0
ARC
  5
19B
  8
1
  6
________________
 62
     7
 10
-894.75
 20
814.6
 30
0.0
 40
1.000000000000001
 50
0.0
 51
90.0
210
0.0
220
0.0
230
-1.0
  0
ARC
  5
19C
  8
1
  6
________________
 62
     7
 10
-894.75
 20
764.7
 30
0.0
 40
1.000000000000001
 50
270.0
 51
0.0
210
0.0
220
0.0
230
-1.0
  0
ARC
  5
19D
  8
1
  6
________________
 62
     7
 10
-897.3499999999999
 20
760.4
 30
0.0
 40
1.000000000000001
 50
90.0
 51
180.0
210
0.0
220
0.0
230
-1.0
  0
ARC
  5
19E
  8
1
  6
________________
 62
     7
 10
-905.15
 20
732.0
 30
0.0
 40
1.000000000000001
 50
270.0
 51
0.0
210
0.0
220
0.0
230
-1.0
  0
ARC
  5
19F
  8
1
  6
________________
 62
     7
 10
933.081950710243
 20
735.7
 30
0.0
 40
7.000000000000006
 50
270.0
 51
348.7082937051387
  0
LINE
  5
1A0
  8
1
  6
________________
 62
     7
 10
894.75
 20
763.7
 30
0.0
 11
934.5453138614813
 21
763.7
 31
0.0
  0
LINE
  5
1A1
  8
1
  6
________________
 62
     7
 10
893.75
 20
814.6
 30
0.0
 11
893.75
 21
764.7
 31
0.0
  0
LINE
  5
1A2
  8
1
  6
________________
 62
     7
 10
904.15
 20
825.4
 30
0.0
 11
904.15
 21
817.1
 31
0.0
  0
LINE
  5
1A3
  8
1
  6
________________
 62
     7
 10
914.3832306111358
 20
826.4
 30
0.0
 11
905.15
 21
826.4
 31
0.0
  0
ARC
  5
1A4
  8
1
  6
________________
 62
     7
 10
792.85
 20
763.7
 30
0.0
 40
147.7
 50
348.8070571575545
 51
358.5106122821271
  0
LINE
  5
1A5
  8
1
  6
________________
 62
     7
 10
905.15
 20
731.0
 30
0.0
 11
932.8357135567769
 21
731.0
 31
0.0
  0
LINE
  5
1A6
  8
1
  6
________________
 62
     7
 10
904.15
 20
741.3
 30
0.0
 11
904.15
 21
732.0
 31
0.0
  0
LINE
  5
1A7
  8
1
  6
________________
 62
     7
 10
901.6500000000001
 20
742.8
 30
0.0
 11
902.6500000000001
 21
742.8
 31
0.0
  0
LINE
  5
1A8
  8
1
  6
________________
 62
     7
 10
900.6500000000001
 20
760.4
 30
0.0
 11
900.6500000000001
 21
743.8
 31
0.0
  0
LINE
  5
1A9
  8
1
  6
________________
 62
     7
 10
939.0006072515608
 20
761.4000000000001
 30
0.0
 11
901.6500000000001
 21
761.4000000000001
 31
0.0
  0
LINE
  5
1AA
  8
1
  6
________________
 62
     7
 10
919.181319929146
 20
826.4
 30
0.0
 11
922.85
 21
826.4
 31
0.0
  0
ARC
  5
1AB
  8
1
  6
________________
 62
     7
 10
827.8499999999999
 20
763.7
 30
0.0
 40
110.0000000000001
 50
0.5161851764299518
 51
34.25630797325463
  0
LINE
  5
1AC
  8
1
  6
________________
 62
     7
 10
939.8193845669906
 20
763.7
 30
0.0
 11
938.8454954040928
 21
763.7
 31
0.0
  0
LINE
  5
1AD
  8
1
  6
________________
 62
     7
 10
901.85
 20
740.0
 30
0.0
 11
901.85
 21
731.5
 31
0.0
  0
LINE
  5
1AE
  8
1
  6
________________
 62
     7
 10
898.3499999999999
 20
740.5
 30
0.0
 11
901.3499999999999
 21
740.5
 31
0.0
  0
LINE
  5
1AF
  8
1
  6
________________
 62
     7
 10
906.2943181818182
 20
628.675
 30
0.0
 11
906.2943181818182
 21
628.7
 31
0.0
  0
LINE
  5
1B0
  8
1
  6
________________
 62
     7
 10
904.4410650969396
 20
628.7
 30
0.0
 11
904.4410650969396
 21
628.675
 31
0.0
  0
LINE
  5
1B1
  8
1
  6
________________
 62
     7
 10
905.8579545454546
 20
628.675
 30
0.0
 11
905.8579545454546
 21
628.7
 31
0.0
  0
LINE
  5
1B2
  8
1
  6
________________
 62
     7
 10
900.7034090909092
 20
628.7
 30
0.0
 11
900.7034090909092
 21
628.675
 31
0.0
  0
LINE
  5
1B3
  8
1
  6
________________
 62
     7
 10
901.1397727272728
 20
628.675
 30
0.0
 11
901.1397727272728
 21
628.7
 31
0.0
  0
ENDBLK
  8
0
  0
BLOCK
  8
0
  2
_3882
 70
     0
 10
0.0
 20
0.0
 30
0.0
  0
LINE
  5
1B8
  8
1
  6
________________
 62
     7
 10
928.35
 20
182.8500000000004
 30
0.0
 11
932.35
 21
182.8500000000004
 31
0.0
  0
LINE
  5
1B9
  8
1
  6
________________
 62
     7
 10
928.35
 20
552.8499999999997
 30
0.0
 11
932.35
 21
552.8499999999997
 31
0.0
  0
LINE
  5
1BA
  8
1
  6
________________
 62
     7
 10
940.35
 20
182.8500000000002
 30
0.0
 11
945.8170248402685
 21
182.85
 31
0.0
  0
LINE
  5
1BB
  8
1
  6
________________
 62
     7
 10
940.35
 20
552.85
 30
0.0
 11
945.8170248402685
 21
552.85
 31
0.0
  0
LINE
  5
1BC
  8
1
  6
________________
 62
     7
 10
934.35
 20
182.8500000000002
 30
0.0
 11
938.35
 21
182.8500000000004
 31
0.0
  0
LINE
  5
1BD
  8
1
  6
________________
 62
     7
 10
934.35
 20
552.85
 30
0.0
 11
938.35
 21
552.8499999999997
 31
0.0
  0
LINE
  5
1BE
  8
1
  6
________________
 62
     7
 10
922.35
 20
182.8500000000004
 30
0.0
 11
926.35
 21
182.8500000000004
 31
0.0
  0
LINE
  5
1BF
  8
1
  6
________________
 62
     7
 10
922.35
 20
552.8499999999997
 30
0.0
 11
926.35
 21
552.8499999999997
 31
0.0
  0
LINE
  5
1C0
  8
1
  6
________________
 62
     7
 10
916.35
 20
182.8500000000004
 30
0.0
 11
920.35
 21
182.8500000000004
 31
0.0
  0
LINE
  5
1C1
  8
1
  6
________________
 62
     7
 10
916.35
 20
552.8499999999997
 30
0.0
 11
920.35
 21
552.8499999999997
 31
0.0
  0
LINE
  5
1C2
  8
1
  6
________________
 62
     7
 10
910.35
 20
182.8500000000004
 30
0.0
 11
914.35
 21
182.8500000000004
 31
0.0
  0
LINE
  5
1C3
  8
1
  6
________________
 62
     7
 10
910.35
 20
552.8499999999997
 30
0.0
 11
914.35
 21
552.8499999999997
 31
0.0
  0
LINE
  5
1C4
  8
1
  6
________________
 62
     7
 10
875.35
 20
182.8500000000004
 30
0.0
 11
871.35
 21
182.8500000000004
 31
0.0
  0
LINE
  5
1C5
  8
1
  6
________________
 62
     7
 10
875.35
 20
552.8499999999997
 30
0.0
 11
871.35
 21
552.8499999999997
 31
0.0
  0
LINE
  5
1C6
  8
1
  6
________________
 62
     7
 10
863.35
 20
182.8500000000004
 30
0.0
 11
859.35
 21
182.8500000000004
 31
0.0
  0
LINE
  5
1C7
  8
1
  6
________________
 62
     7
 10
863.35
 20
552.8499999999997
 30
0.0
 11
859.35
 21
552.8499999999997
 31
0.0
  0
LINE
  5
1C8
  8
1
  6
________________
 62
     7
 10
857.35
 20
182.8500000000004
 30
0.0
 11
853.35
 21
182.8500000000004
 31
0.0
  0
LINE
  5
1C9
  8
1
  6
________________
 62
     7
 10
857.35
 20
552.8499999999997
 30
0.0
 11
853.35
 21
552.8499999999997
 31
0.0
  0
LINE
  5
1CA
  8
1
  6
________________
 62
     7
 10
845.35
 20
182.8500000000002
 30
0.0
 11
839.8829751597315
 21
182.85
 31
0.0
  0
LINE
  5
1CB
  8
1
  6
________________
 62
     7
 10
845.35
 20
552.85
 30
0.0
 11
839.8829751597315
 21
552.85
 31
0.0
  0
LINE
  5
1CC
  8
1
  6
________________
 62
     7
 10
869.35
 20
182.8500000000004
 30
0.0
 11
865.35
 21
182.8500000000004
 31
0.0
  0
LINE
  5
1CD
  8
1
  6
________________
 62
     7
 10
869.35
 20
552.8499999999997
 30
0.0
 11
865.35
 21
552.8499999999997
 31
0.0
  0
LINE
  5
1CE
  8
1
  6
________________
 62
     7
 10
851.35
 20
182.8500000000002
 30
0.0
 11
847.35
 21
182.8500000000004
 31
0.0
  0
LINE
  5
1CF
  8
1
  6
________________
 62
     7
 10
851.35
 20
552.85
 30
0.0
 11
847.35
 21
552.8499999999997
 31
0.0
  0
LINE
  5
1D0
  8
1
  6
________________
 62
     7
 10
886.85
 20
182.85
 30
0.0
 11
886.85
 21
552.85
 31
0.0
  0
LINE
  5
1D1
  8
1
  6
________________
 62
     7
 10
886.85
 20
182.85
 30
0.0
 11
877.35
 21
182.8500000000004
 31
0.0
  0
LINE
  5
1D2
  8
1
  6
________________
 62
     7
 10
886.85
 20
552.85
 30
0.0
 11
877.35
 21
552.85
 31
0.0
  0
LINE
  5
1D3
  8
1
  6
________________
 62
     7
 10
898.85
 20
182.85
 30
0.0
 11
908.35
 21
182.8500000000004
 31
0.0
  0
LINE
  5
1D4
  8
1
  6
________________
 62
     7
 10
898.85
 20
182.85
 30
0.0
 11
898.85
 21
552.85
 31
0.0
  0
LINE
  5
1D5
  8
1
  6
________________
 62
     7
 10
898.85
 20
552.85
 30
0.0
 11
908.35
 21
552.85
 31
0.0
  0
LINE
  5
1D6
  8
1
  6
________________
 62
     7
 10
832.8829751597315
 20
552.85
 30
0.0
 11
839.8829751597315
 21
552.85
 31
0.0
  0
LINE
  5
1D7
  8
1
  6
________________
 62
     7
 10
839.8829751597315
 20
182.85
 30
0.0
 11
832.8829751597315
 21
182.85
 31
0.0
  0
LINE
  5
1D8
  8
1
  6
________________
 62
     7
 10
952.8170248402685
 20
182.85
 30
0.0
 11
945.8170248402685
 21
182.85
 31
0.0
  0
LINE
  5
1D9
  8
1
  6
________________
 62
     7
 10
945.8170248402685
 20
552.85
 30
0.0
 11
952.8170248402685
 21
552.85
 31
0.0
  0
LINE
  5
1DA
  8
1
  6
________________
 62
     7
 10
932.35
 20
182.8500000000002
 30
0.0
 11
934.35
 21
182.8500000000002
 31
0.0
  0
LINE
  5
1DB
  8
1
  6
________________
 62
     7
 10
934.35
 20
552.8499999999997
 30
0.0
 11
932.35
 21
552.8499999999997
 31
0.0
  0
LINE
  5
1DC
  8
1
  6
________________
 62
     7
 10
908.35
 20
182.8500000000002
 30
0.0
 11
910.3500000000001
 21
182.8500000000002
 31
0.0
  0
LINE
  5
1DD
  8
1
  6
________________
 62
     7
 10
910.3500000000001
 20
552.8499999999997
 30
0.0
 11
908.35
 21
552.8499999999997
 31
0.0
  0
LINE
  5
1DE
  8
1
  6
________________
 62
     7
 10
871.35
 20
182.8500000000002
 30
0.0
 11
869.35
 21
182.8500000000002
 31
0.0
  0
LINE
  5
1DF
  8
1
  6
________________
 62
     7
 10
869.35
 20
552.8499999999997
 30
0.0
 11
871.35
 21
552.8499999999997
 31
0.0
  0
LINE
  5
1E0
  8
1
  6
________________
 62
     7
 10
914.35
 20
182.8500000000002
 30
0.0
 11
916.35
 21
182.8500000000002
 31
0.0
  0
LINE
  5
1E1
  8
1
  6
________________
 62
     7
 10
916.35
 20
552.8499999999997
 30
0.0
 11
914.35
 21
552.8499999999997
 31
0.0
  0
LINE
  5
1E2
  8
1
  6
________________
 62
     7
 10
938.35
 20
182.8500000000002
 30
0.0
 11
940.35
 21
182.8500000000002
 31
0.0
  0
LINE
  5
1E3
  8
1
  6
________________
 62
     7
 10
940.35
 20
552.8499999999997
 30
0.0
 11
938.35
 21
552.8499999999997
 31
0.0
  0
LINE
  5
1E4
  8
1
  6
________________
 62
     7
 10
865.35
 20
182.8500000000002
 30
0.0
 11
863.35
 21
182.8500000000002
 31
0.0
  0
LINE
  5
1E5
  8
1
  6
________________
 62
     7
 10
863.35
 20
552.8499999999997
 30
0.0
 11
865.35
 21
552.8499999999997
 31
0.0
  0
LINE
  5
1E6
  8
1
  6
________________
 62
     7
 10
853.35
 20
182.8500000000002
 30
0.0
 11
851.35
 21
182.8500000000002
 31
0.0
  0
LINE
  5
1E7
  8
1
  6
________________
 62
     7
 10
851.35
 20
552.8499999999997
 30
0.0
 11
853.35
 21
552.8499999999997
 31
0.0
  0
LINE
  5
1E8
  8
1
  6
________________
 62
     7
 10
920.35
 20
182.8500000000002
 30
0.0
 11
922.35
 21
182.8500000000002
 31
0.0
  0
LINE
  5
1E9
  8
1
  6
________________
 62
     7
 10
922.35
 20
552.8499999999997
 30
0.0
 11
920.35
 21
552.8499999999997
 31
0.0
  0
LINE
  5
1EA
  8
1
  6
________________
 62
     7
 10
847.35
 20
182.8500000000002
 30
0.0
 11
845.35
 21
182.8500000000002
 31
0.0
  0
LINE
  5
1EB
  8
1
  6
________________
 62
     7
 10
845.35
 20
552.8499999999997
 30
0.0
 11
847.35
 21
552.8499999999997
 31
0.0
  0
LINE
  5
1EC
  8
1
  6
________________
 62
     7
 10
926.35
 20
182.8500000000002
 30
0.0
 11
928.35
 21
182.8500000000002
 31
0.0
  0
LINE
  5
1ED
  8
1
  6
________________
 62
     7
 10
928.35
 20
552.8499999999997
 30
0.0
 11
926.35
 21
552.8499999999997
 31
0.0
  0
LINE
  5
1EE
  8
1
  6
________________
 62
     7
 10
859.35
 20
182.8500000000002
 30
0.0
 11
857.35
 21
182.8500000000002
 31
0.0
  0
LINE
  5
1EF
  8
1
  6
________________
 62
     7
 10
857.35
 20
552.8499999999997
 30
0.0
 11
859.35
 21
552.8499999999997
 31
0.0
  0
LINE
  5
1F0
  8
1
  6
________________
 62
     7
 10
877.35
 20
182.8500000000002
 30
0.0
 11
875.3499999999999
 21
182.8500000000002
 31
0.0
  0
LINE
  5
1F1
  8
1
  6
________________
 62
     7
 10
875.3499999999999
 20
552.8499999999997
 30
0.0
 11
877.35
 21
552.8499999999997
 31
0.0
  0
LINE
  5
1F2
  8
1
  6
________________
 62
     7
 10
886.85
 20
182.85
 30
0.0
 11
898.85
 21
182.85
 31
0.0
  0
LINE
  5
1F3
  8
1
  6
________________
 62
     7
 10
886.85
 20
552.85
 30
0.0
 11
898.85
 21
552.85
 31
0.0
  0
LINE
  5
1F4
  8
1
  6
________________
 62
     7
 10
832.8829751597315
 20
552.85
 30
0.0
 11
832.8829751597315
 21
182.8500000000001
 31
0.0
  0
LINE
  5
1F5
  8
1
  6
________________
 62
     7
 10
952.8170248402685
 20
182.85
 30
0.0
 11
952.8170248402685
 21
552.85
 31
0.0
  0
ENDBLK
  8
0
  0
BLOCK
  8
0
  2
_3910
 70
     0
 10
0.0
 20
0.0
 30
0.0
  0
LINE
  5
1FA
  8
1
  6
________________
 62
     7
 10
1043.85
 20
628.7
 30
0.0
 11
1043.85
 21
635.7659488559892
 31
0.0
  0
LINE
  5
1FB
  8
1
  6
________________
 62
     7
 10
1413.85
 20
635.7659488559892
 30
0.0
 11
1413.85
 21
628.7
 31
0.0
  0
LINE
  5
1FC
  8
1
  6
________________
 62
     7
 10
1413.85
 20
628.7
 30
0.0
 11
1043.85
 21
628.7
 31
0.0
  0
LINE
  5
1FD
  8
1
  6
________________
 62
     7
 10
1413.85
 20
635.7659488559892
 30
0.0
 11
1413.85
 21
747.858878504673
 31
0.0
  0
LINE
  5
1FE
  8
1
  6
________________
 62
     7
 10
1043.85
 20
635.7659488559892
 30
0.0
 11
1043.85
 21
747.858878504673
 31
0.0
  0
LINE
  5
1FF
  8
1
  6
________________
 62
     7
 10
1043.85
 20
748.7
 30
0.0
 11
1413.85
 21
748.7
 31
0.0
  0
LINE
  5
200
  8
1
  6
________________
 62
     7
 10
1413.85
 20
748.7
 30
0.0
 11
1413.85
 21
747.8588785046729
 31
0.0
  0
LINE
  5
201
  8
1
  6
________________
 62
     7
 10
1043.85
 20
747.8588785046729
 30
0.0
 11
1043.85
 21
748.7
 31
0.0
  0
LINE
  5
202
  8
1
  6
________________
 62
     7
 10
1043.85
 20
763.7
 30
0.0
 11
1413.85
 21
763.7
 31
0.0
  0
LINE
  5
203
  8
1
  6
________________
 62
     7
 10
1413.85
 20
763.7
 30
0.0
 11
1413.85
 21
760.638775510204
 31
0.0
  0
LINE
  5
204
  8
1
  6
________________
 62
     7
 10
1043.85
 20
760.638775510204
 30
0.0
 11
1043.85
 21
763.7
 31
0.0
  0
LINE
  5
205
  8
1
  6
________________
 62
     7
 10
1413.85
 20
748.7
 30
0.0
 11
1413.85
 21
760.638775510204
 31
0.0
  0
LINE
  5
206
  8
1
  6
________________
 62
     7
 10
1043.85
 20
748.7
 30
0.0
 11
1043.85
 21
760.638775510204
 31
0.0
  0
LINE
  5
207
  8
1
  6
________________
 62
     7
 10
1413.85
 20
763.7
 30
0.0
 11
1413.85
 21
764.690990990991
 31
0.0
  0
LINE
  5
208
  8
1
  6
________________
 62
     7
 10
1043.85
 20
764.690990990991
 30
0.0
 11
1043.85
 21
763.7
 31
0.0
  0
LINE
  5
209
  8
1
  6
________________
 62
     7
 10
1413.85
 20
764.690990990991
 30
0.0
 11
1413.85
 21
825.6185520361993
 31
0.0
  0
LINE
  5
20A
  8
1
  6
________________
 62
     7
 10
1043.85
 20
764.690990990991
 30
0.0
 11
1043.85
 21
825.6185520361993
 31
0.0
  0
LINE
  5
20B
  8
1
  6
________________
 62
     7
 10
1043.85
 20
828.6999999999999
 30
0.0
 11
1413.85
 21
828.6999999999999
 31
0.0
  0
LINE
  5
20C
  8
1
  6
________________
 62
     7
 10
1413.85
 20
828.6999999999999
 30
0.0
 11
1413.85
 21
827.55
 31
0.0
  0
LINE
  5
20D
  8
1
  6
________________
 62
     7
 10
1043.85
 20
827.55
 30
0.0
 11
1043.85
 21
828.6999999999999
 31
0.0
  0
LINE
  5
20E
  8
1
  6
________________
 62
     7
 10
1413.85
 20
826.4
 30
0.0
 11
1043.85
 21
826.4
 31
0.0
  0
LINE
  5
20F
  8
1
  6
________________
 62
     7
 10
1413.85
 20
827.55
 30
0.0
 11
1413.85
 21
826.4
 31
0.0
  0
LINE
  5
210
  8
1
  6
________________
 62
     7
 10
1043.85
 20
826.4
 30
0.0
 11
1043.85
 21
827.55
 31
0.0
  0
LINE
  5
211
  8
1
  6
________________
 62
     7
 10
1413.85
 20
825.6185520361992
 30
0.0
 11
1413.85
 21
826.4
 31
0.0
  0
LINE
  5
212
  8
1
  6
________________
 62
     7
 10
1043.85
 20
826.4
 30
0.0
 11
1043.85
 21
825.6185520361992
 31
0.0
  0
LINE
  5
213
  8
1
  6
________________
 62
     7
 10
1213.831818181818
 20
628.675
 30
0.0
 11
1213.831818181818
 21
628.7
 31
0.0
  0
ENDBLK
  8
0
  0
ENDSEC
  0
SECTION
  2
ENTITIES
  0
INSERT
  5
1B4
  8
1
  6
________________
 62
     7
  2
_3322
 10
0.0
 20
0.0
 30
0.0
  0
INSERT
  5
1F6
  8
1
  6
________________
 62
     7
  2
_3882
 10
0.0
 20
0.0
 30
0.0
  0
INSERT
  5
214
  8
1
  6
________________
 62
     7
  2
_3910
 10
0.0
 20
0.0
 30
0.0
  0
TEXT
  5
215
  8
1
 62
     7
 10
1234.347
 20
542.9795454545455
 30
0.0
 40
3.0
  1
GKB20-370
  7
EXPLODED0
  0
LINE
  5
216
  8
1
  6
________________0
 62
     1
 10
892.85
 20
838.6999999999999
 30
0.0
 11
892.85
 21
618.7
 31
0.0
  0
LINE
  5
218
  8
1
  6
________________0
 62
     1
 10
892.85
 20
567.8499999999999
 30
0.0
 11
892.85
 21
147.85
 31
0.0
  0
POINT
  5
219
  8
1
 62
     7
 10
907.85
 20
838.6999999999999
 30
0.0
  0
POINT
  5
21A
  8
1
 62
     7
 10
902.85
 20
618.7
 30
0.0
  0
POINT
  5
21B
  8
1
 62
     7
 10
892.85
 20
567.8499999999999
 30
0.0
  0
POINT
  5
21C
  8
1
 62
     7
 10
927.85
 20
147.85
 30
0.0
  0
ENDSEC
  0
EOF
