  0
SECTION
  2
HEADER
  9
$ACADVER
  1
AC1006
  9
$DWGCODEPAGE
  3
ansi_932
  9
$INSBASE
 10
0.0
 20
0.0
 30
0.0
  9
$EXTMIN
 10
1745.332975159731
 20
107.85
  9
$EXTMAX
 10
2346.9
 20
858.5
  9
$LIMMIN
 10
0.0
 20
0.0
  9
$LIMMAX
 10
12.0
 20
9.0
  9
$ORTHOMODE
 70
     0
  9
$REGENMODE
 70
     1
  9
$FILLMODE
 70
     1
  9
$QTEXTMODE
 70
     0
  9
$MIRRTEXT
 70
     1
  9
$DRAGMODE
 70
     2
  9
$LTSCALE
 40
1.0
  9
$OSMODE
 70
    37
  9
$ATTMODE
 70
     1
  9
$TEXTSIZE
 40
0.2
  9
$TRACEWID
 40
0.05
  9
$TEXTSTYLE
  7
STANDARD
  9
$CLAYER
  8
0
  9
$CELTYPE
  6
BYLAYER
  9
$CECOLOR
 62
   256
  9
$DIMSCALE
 40
1.0
  9
$DIMASZ
 40
3.0
  9
$DIMEXO
 40
0.0625
  9
$DIMDLI
 40
0.38
  9
$DIMRND
 40
0.0
  9
$DIMDLE
 40
0.0
  9
$DIMEXE
 40
0.18
  9
$DIMTP
 40
0.0
  9
$DIMTM
 40
0.0
  9
$DIMTXT
 40
3.0
  9
$DIMCEN
 40
0.09
  9
$DIMTSZ
 40
0.0
  9
$DIMTOL
 70
     0
  9
$DIMLIM
 70
     0
  9
$DIMTIH
 70
     1
  9
$DIMTOH
 70
     1
  9
$DIMSE1
 70
     0
  9
$DIMSE2
 70
     0
  9
$DIMTAD
 70
     1
  9
$DIMZIN
 70
     0
  9
$DIMBLK
  1

  9
$DIMASO
 70
     1
  9
$DIMSHO
 70
     1
  9
$DIMPOST
  1

  9
$DIMAPOST
  1

  9
$DIMALT
 70
     0
  9
$DIMALTD
 70
     2
  9
$DIMALTF
 40
25.4
  9
$DIMLFAC
 40
1.0
  9
$DIMTOFL
 70
     0
  9
$DIMTVP
 40
0.0
  9
$DIMTIX
 70
     0
  9
$DIMSOXD
 70
     0
  9
$DIMSAH
 70
     0
  9
$DIMBLK1
  1

  9
$DIMBLK2
  1

  9
$LUNITS
 70
     2
  9
$LUPREC
 70
     4
  9
$SKETCHINC
 40
0.1
  9
$FILLETRAD
 40
0.5
  9
$AUNITS
 70
     0
  9
$AUPREC
 70
     0
  9
$MENU
  1
.
  9
$ELEVATION
 40
0.0
  9
$THICKNESS
 40
0.0
  9
$LIMCHECK
 70
     0
  9
$CHAMFERA
 40
0.5
  9
$CHAMFERB
 40
0.5
  9
$SKPOLY
 70
     0
  9
$TDCREATE
 40
2460017.349456377
  9
$TDUPDATE
 40
2460017.349456389
  9
$TDINDWG
 40
0.0000000116
  9
$TDUSRTIMER
 40
0.0000000116
  9
$USRTIMER
 70
     1
  9
$ANGBASE
 50
0.0
  9
$ANGDIR
 70
     0
  9
$PDMODE
 70
     0
  9
$PDSIZE
 40
0.0
  9
$PLINEWID
 40
0.0
  9
$COORDS
 70
     1
  9
$SPLFRAME
 70
     0
  9
$SPLINETYPE
 70
     6
  9
$SPLINESEGS
 70
     8
  9
$ATTDIA
 70
     0
  9
$ATTREQ
 70
     1
  9
$HANDLING
 70
     1
  9
$HANDSEED
  5
246
  9
$SURFTAB1
 70
     6
  9
$SURFTAB2
 70
     6
  9
$SURFTYPE
 70
     6
  9
$SURFU
 70
     6
  9
$SURFV
 70
     6
  9
$UCSNAME
  2

  9
$UCSORG
 10
0.0
 20
0.0
 30
0.0
  9
$UCSXDIR
 10
1.0
 20
0.0
 30
0.0
  9
$UCSYDIR
 10
0.0
 20
1.0
 30
0.0
  9
$USERI1
 70
     0
  9
$USERI2
 70
     0
  9
$USERI3
 70
     0
  9
$USERI4
 70
     0
  9
$USERI5
 70
     0
  9
$USERR1
 40
0.0
  9
$USERR2
 40
0.0
  9
$USERR3
 40
0.0
  9
$USERR4
 40
0.0
  9
$USERR5
 40
0.0
  9
$WORLDVIEW
 70
     1
  0
ENDSEC
  0
SECTION
  2
TABLES
  0
TABLE
  2
VPORT
 70
     1
  0
VPORT
  2
*ACTIVE
 70
     0
 10
0.0
 20
0.0
 11
1.0
 21
1.0
 12
2046.116487579865
 22
483.175
 13
0.0
 23
0.0
 14
0.5
 24
0.5
 15
0.5
 25
0.5
 16
0.0
 26
0.0
 36
1.0
 17
0.0
 27
0.0
 37
0.0
 40
750.65
 41
1.6
 42
50.0
 43
0.0
 44
0.0
 50
0.0
 51
0.0
 71
     0
 72
   100
 73
     1
 74
     3
 75
     0
 76
     0
 77
     0
 78
     0
  0
ENDTAB
  0
TABLE
  2
LTYPE
 70
     3
  0
LTYPE
  2
CONTINUOUS
 70
     0
  3
Solid line
 72
    65
 73
     0
 40
0.0
  0
LTYPE
  2
________________
 70
     0
  3

 72
    65
 73
     0
 40
0.0
  0
LTYPE
  2
________________0
 70
     0
  3

 72
    65
 73
     4
 40
7.2
 49
2.7
 49
-1.8
 49
0.8999999999999999
 49
-1.8
  0
ENDTAB
  0
TABLE
  2
LAYER
 70
     2
  0
LAYER
  2
0
 70
     0
 62
     7
  6
CONTINUOUS
  0
LAYER
  2
1
 70
     0
 62
     7
  6
CONTINUOUS
  0
ENDTAB
  0
TABLE
  2
STYLE
 70
     2
  0
STYLE
  2
STANDARD
 70
     0
 40
0.0
 41
1.0
 50
0.0
 71
     0
 42
0.2
  3
txt
  4

  0
STYLE
  2
EXPLODED0
 70
     0
 40
0.2
 41
1.0
 50
0.0
 71
     0
 42
0.2
  3
ＭＳ ゴシック
  4

  0
ENDTAB
  0
TABLE
  2
VIEW
 70
     0
  0
ENDTAB
  0
TABLE
  2
UCS
 70
     0
  0
ENDTAB
  0
ENDSEC
  0
SECTION
  2
BLOCKS
  0
BLOCK
  8
0
  2
_3912
 70
     0
 10
0.0
 20
0.0
 30
0.0
  0
ARC
  5
3D
  8
1
  6
________________
 62
     7
 10
-1783.1
 20
691.8000000000001
 30
0.0
 40
1.000000000000001
 50
270.0
 51
0.0
210
0.0
220
0.0
230
-1.0
  0
LINE
  5
3F
  8
1
  6
________________
 62
     7
 10
1828.5
 20
690.8000000000001
 30
0.0
 11
1783.1
 21
690.8000000000001
 31
0.0
  0
LINE
  5
40
  8
1
  6
________________
 62
     7
 10
1828.5
 20
735.2
 30
0.0
 11
1828.5
 21
690.8000000000001
 31
0.0
  0
ARC
  5
41
  8
1
  6
________________
 62
     7
 10
-1827.5
 20
735.2
 30
0.0
 40
1.000000000000001
 50
90.0
 51
180.0
210
0.0
220
0.0
230
-1.0
  0
LINE
  5
42
  8
1
  6
________________
 62
     7
 10
1783.1
 20
736.2
 30
0.0
 11
1827.5
 21
736.2
 31
0.0
  0
ARC
  5
43
  8
1
  6
________________
 62
     7
 10
-1783.1
 20
735.2
 30
0.0
 40
1.000000000000112
 50
0.0
 51
90.0
210
0.0
220
0.0
230
-1.0
  0
LINE
  5
44
  8
1
  6
________________
 62
     7
 10
1782.1
 20
735.2
 30
0.0
 11
1782.1
 21
691.8000000000001
 31
0.0
  0
ARC
  5
45
  8
1
  6
________________
 62
     7
 10
-1803.6
 20
739.5
 30
0.0
 40
1.000000000000001
 50
270.0000000000001
 51
0.0000000000007958
210
0.0
220
0.0
230
-1.0
  0
LINE
  5
46
  8
1
  6
________________
 62
     7
 10
1807.0
 20
738.5
 30
0.0
 11
1803.6
 21
738.5
 31
0.0
  0
ARC
  5
47
  8
1
  6
________________
 62
     7
 10
-1807.0
 20
739.5
 30
0.0
 40
0.9999999999998899
 50
179.9999999999991
 51
270.0000000000001
210
0.0
220
0.0
230
-1.0
  0
LINE
  5
48
  8
1
  6
________________
 62
     7
 10
1808.0
 20
758.0
 30
0.0
 11
1808.0
 21
739.5
 31
0.0
  0
ARC
  5
49
  8
1
  6
________________
 62
     7
 10
1808.5
 20
758.0
 30
0.0
 40
0.500000000000056
 50
90.0
 51
180.0
  0
LINE
  5
4A
  8
1
  6
________________
 62
     7
 10
1809.8
 20
758.5
 30
0.0
 11
1808.5
 21
758.5
 31
0.0
  0
ARC
  5
4B
  8
1
  6
________________
 62
     7
 10
1809.8
 20
758.0
 30
0.0
 40
0.4999999999999449
 50
0.0
 51
90.0
  0
LINE
  5
4C
  8
1
  6
________________
 62
     7
 10
1810.3
 20
749.9338441815177
 30
0.0
 11
1810.3
 21
758.0
 31
0.0
  0
ARC
  5
4D
  8
1
  6
________________
 62
     7
 10
-1815.3
 20
749.9338441815177
 30
0.0
 40
4.999999999999955
 50
343.3007557660064
 51
0.0
210
0.0
220
0.0
230
-1.0
  0
LINE
  5
4E
  8
1
  6
________________
 62
     7
 10
1811.589131426106
 20
744.9028952463141
 30
0.0
 11
1810.510868573894
 21
748.4971047536859
 31
0.0
  0
ARC
  5
4F
  8
1
  6
________________
 62
     7
 10
1806.8
 20
743.4661558184824
 30
0.0
 40
4.999999999999893
 50
0.0
 51
16.69924423399361
  0
LINE
  5
50
  8
1
  6
________________
 62
     7
 10
1811.8
 20
742.2
 30
0.0
 11
1811.8
 21
743.4661558184824
 31
0.0
  0
ARC
  5
51
  8
1
  6
________________
 62
     7
 10
1810.8
 20
742.2
 30
0.0
 40
1.000000000000001
 50
270.0
 51
0.0
  0
LINE
  5
52
  8
1
  6
________________
 62
     7
 10
1810.3
 20
741.2
 30
0.0
 11
1810.8
 21
741.2
 31
0.0
  0
LINE
  5
53
  8
1
  6
________________
 62
     7
 10
1810.3
 20
739.0
 30
0.0
 11
1810.3
 21
741.2
 31
0.0
  0
ARC
  5
54
  8
1
  6
________________
 62
     7
 10
-1810.8
 20
739.0
 30
0.0
 40
0.4999999999999449
 50
270.0
 51
0.0
210
0.0
220
0.0
230
-1.0
  0
LINE
  5
55
  8
1
  6
________________
 62
     7
 10
1845.531950710243
 20
738.5
 30
0.0
 11
1840.8
 21
738.5
 31
0.0
  0
LINE
  5
56
  8
1
  6
________________
 62
     7
 10
1840.8
 20
738.5
 30
0.0
 11
1838.8
 21
738.5
 31
0.0
  0
LINE
  5
57
  8
1
  6
________________
 62
     7
 10
1838.8
 20
738.5
 30
0.0
 11
1834.8
 21
738.5
 31
0.0
  0
LINE
  5
58
  8
1
  6
________________
 62
     7
 10
1834.8
 20
738.5
 30
0.0
 11
1832.8
 21
738.5
 31
0.0
  0
LINE
  5
59
  8
1
  6
________________
 62
     7
 10
1832.8
 20
738.5
 30
0.0
 11
1828.8
 21
738.5
 31
0.0
  0
LINE
  5
5A
  8
1
  6
________________
 62
     7
 10
1828.8
 20
738.5
 30
0.0
 11
1826.8
 21
738.5
 31
0.0
  0
LINE
  5
5B
  8
1
  6
________________
 62
     7
 10
1826.8
 20
738.5
 30
0.0
 11
1822.8
 21
738.5
 31
0.0
  0
LINE
  5
5C
  8
1
  6
________________
 62
     7
 10
1822.8
 20
738.5
 30
0.0
 11
1820.8
 21
738.5
 31
0.0
  0
LINE
  5
5D
  8
1
  6
________________
 62
     7
 10
1820.8
 20
738.5
 30
0.0
 11
1811.3
 21
738.5
 31
0.0
  0
LINE
  5
5E
  8
1
  6
________________
 62
     7
 10
1811.3
 20
738.5
 30
0.0
 11
1810.8
 21
738.5
 31
0.0
  0
ARC
  5
5F
  8
1
  6
________________
 62
     7
 10
-1845.531950710243
 20
745.5
 30
0.0
 40
7.000000000000091
 50
191.2917062948613
 51
270.0
210
0.0
220
0.0
230
-1.0
  0
ARC
  5
60
  8
1
  6
________________
 62
     7
 10
-1705.3
 20
773.5000000000001
 30
0.0
 40
150.0000000000001
 50
185.7391704772668
 51
191.2917062948612
210
0.0
220
0.0
230
-1.0
  0
LINE
  5
61
  8
1
  6
________________
 62
     7
 10
1854.786308189678
 20
758.5
 30
0.0
 11
1854.548115565993
 21
758.5
 31
0.0
  0
ARC
  5
62
  8
1
  6
________________
 62
     7
 10
1854.786308189678
 20
757.5
 30
0.0
 40
0.9999999999998458
 50
9.141806625698191
 51
90.00000000000001
  0
ARC
  5
63
  8
1
  6
________________
 62
     7
 10
1115.3
 20
638.5
 30
0.0
 40
749.9999999999999
 50
0.5398067160341329
 51
9.141806625698315
  0
ARC
  5
64
  8
1
  6
________________
 62
     7
 10
1858.267024840268
 20
645.5000000000001
 30
0.0
 40
7.000000000000006
 50
270.0
 51
0.5398067160341496
  0
LINE
  5
65
  8
1
  6
________________
 62
     7
 10
1852.8
 20
638.5
 30
0.0
 11
1858.267024840268
 21
638.5
 31
0.0
  0
LINE
  5
66
  8
1
  6
________________
 62
     7
 10
1852.8
 20
638.5
 30
0.0
 11
1852.8
 21
638.8000000000001
 31
0.0
  0
LINE
  5
67
  8
1
  6
________________
 62
     7
 10
1852.8
 20
638.8000000000001
 30
0.0
 11
1850.8
 21
638.8000000000001
 31
0.0
  0
LINE
  5
68
  8
1
  6
________________
 62
     7
 10
1850.8
 20
638.8000000000001
 30
0.0
 11
1850.8
 21
638.5
 31
0.0
  0
LINE
  5
69
  8
1
  6
________________
 62
     7
 10
1846.8
 20
638.5
 30
0.0
 11
1850.8
 21
638.5
 31
0.0
  0
LINE
  5
6A
  8
1
  6
________________
 62
     7
 10
1846.8
 20
638.5
 30
0.0
 11
1846.8
 21
638.8000000000001
 31
0.0
  0
LINE
  5
6B
  8
1
  6
________________
 62
     7
 10
1846.8
 20
638.8000000000001
 30
0.0
 11
1844.8
 21
638.8000000000001
 31
0.0
  0
LINE
  5
6C
  8
1
  6
________________
 62
     7
 10
1844.8
 20
638.8000000000001
 30
0.0
 11
1844.8
 21
638.5
 31
0.0
  0
LINE
  5
6D
  8
1
  6
________________
 62
     7
 10
1840.8
 20
638.5
 30
0.0
 11
1844.8
 21
638.5
 31
0.0
  0
LINE
  5
6E
  8
1
  6
________________
 62
     7
 10
1840.8
 20
638.5
 30
0.0
 11
1840.8
 21
638.8000000000001
 31
0.0
  0
LINE
  5
6F
  8
1
  6
________________
 62
     7
 10
1840.8
 20
638.8000000000001
 30
0.0
 11
1838.8
 21
638.8000000000001
 31
0.0
  0
LINE
  5
70
  8
1
  6
________________
 62
     7
 10
1838.8
 20
638.8000000000001
 30
0.0
 11
1838.8
 21
638.5
 31
0.0
  0
LINE
  5
71
  8
1
  6
________________
 62
     7
 10
1834.8
 20
638.5
 30
0.0
 11
1838.8
 21
638.5
 31
0.0
  0
LINE
  5
72
  8
1
  6
________________
 62
     7
 10
1834.8
 20
638.5
 30
0.0
 11
1834.8
 21
638.8000000000001
 31
0.0
  0
LINE
  5
73
  8
1
  6
________________
 62
     7
 10
1834.8
 20
638.8000000000001
 30
0.0
 11
1832.8
 21
638.8000000000001
 31
0.0
  0
LINE
  5
74
  8
1
  6
________________
 62
     7
 10
1832.8
 20
638.8000000000001
 30
0.0
 11
1832.8
 21
638.5
 31
0.0
  0
LINE
  5
75
  8
1
  6
________________
 62
     7
 10
1828.8
 20
638.5
 30
0.0
 11
1832.8
 21
638.5
 31
0.0
  0
LINE
  5
76
  8
1
  6
________________
 62
     7
 10
1828.8
 20
638.5
 30
0.0
 11
1828.8
 21
638.8000000000001
 31
0.0
  0
LINE
  5
77
  8
1
  6
________________
 62
     7
 10
1828.8
 20
638.8000000000001
 30
0.0
 11
1826.8
 21
638.8000000000001
 31
0.0
  0
LINE
  5
78
  8
1
  6
________________
 62
     7
 10
1826.8
 20
638.8000000000001
 30
0.0
 11
1826.8
 21
638.5
 31
0.0
  0
LINE
  5
79
  8
1
  6
________________
 62
     7
 10
1822.8
 20
638.5
 30
0.0
 11
1826.8
 21
638.5
 31
0.0
  0
LINE
  5
7A
  8
1
  6
________________
 62
     7
 10
1822.8
 20
638.5
 30
0.0
 11
1822.8
 21
638.8000000000001
 31
0.0
  0
LINE
  5
7B
  8
1
  6
________________
 62
     7
 10
1822.8
 20
638.8000000000001
 30
0.0
 11
1820.8
 21
638.8000000000001
 31
0.0
  0
LINE
  5
7C
  8
1
  6
________________
 62
     7
 10
1820.8
 20
638.8000000000001
 30
0.0
 11
1820.8
 21
638.5
 31
0.0
  0
LINE
  5
7D
  8
1
  6
________________
 62
     7
 10
1811.3
 20
640.8000000000001
 30
0.0
 11
1811.3
 21
638.5
 31
0.0
  0
LINE
  5
7E
  8
1
  6
________________
 62
     7
 10
1813.8
 20
640.8000000000001
 30
0.0
 11
1811.3
 21
640.8000000000001
 31
0.0
  0
ARC
  5
7F
  8
1
  6
________________
 62
     7
 10
-1813.8
 20
641.3
 30
0.0
 40
0.4999999999999449
 50
180.0
 51
270.0
210
0.0
220
0.0
230
-1.0
  0
LINE
  5
80
  8
1
  6
________________
 62
     7
 10
1814.3
 20
649.3
 30
0.0
 11
1814.3
 21
641.3
 31
0.0
  0
ARC
  5
81
  8
1
  6
________________
 62
     7
 10
-1813.8
 20
649.3
 30
0.0
 40
0.500000000000056
 50
90.0
 51
180.0
210
0.0
220
0.0
230
-1.0
  0
LINE
  5
82
  8
1
  6
________________
 62
     7
 10
1796.8
 20
649.8000000000001
 30
0.0
 11
1813.8
 21
649.8000000000001
 31
0.0
  0
ARC
  5
83
  8
1
  6
________________
 62
     7
 10
-1796.8
 20
649.3
 30
0.0
 40
0.4999999999999449
 50
0.0
 51
90.0
210
0.0
220
0.0
230
-1.0
  0
LINE
  5
84
  8
1
  6
________________
 62
     7
 10
1796.3
 20
649.3
 30
0.0
 11
1796.3
 21
641.3
 31
0.0
  0
ARC
  5
85
  8
1
  6
________________
 62
     7
 10
-1796.8
 20
641.3
 30
0.0
 40
0.4999999999999449
 50
270.0
 51
0.0
210
0.0
220
0.0
230
-1.0
  0
LINE
  5
86
  8
1
  6
________________
 62
     7
 10
1796.8
 20
640.8000000000001
 30
0.0
 11
1799.3
 21
640.8000000000001
 31
0.0
  0
LINE
  5
87
  8
1
  6
________________
 62
     7
 10
1799.3
 20
640.8000000000001
 30
0.0
 11
1799.3
 21
638.5
 31
0.0
  0
LINE
  5
88
  8
1
  6
________________
 62
     7
 10
1799.3
 20
638.5
 30
0.0
 11
1789.8
 21
638.5
 31
0.0
  0
LINE
  5
89
  8
1
  6
________________
 62
     7
 10
1789.8
 20
638.8000000000001
 30
0.0
 11
1789.8
 21
638.5
 31
0.0
  0
LINE
  5
8A
  8
1
  6
________________
 62
     7
 10
1787.8
 20
638.8000000000001
 30
0.0
 11
1789.8
 21
638.8000000000001
 31
0.0
  0
LINE
  5
8B
  8
1
  6
________________
 62
     7
 10
1787.8
 20
638.5
 30
0.0
 11
1787.8
 21
638.8000000000001
 31
0.0
  0
LINE
  5
8C
  8
1
  6
________________
 62
     7
 10
1787.8
 20
638.5
 30
0.0
 11
1783.8
 21
638.5
 31
0.0
  0
LINE
  5
8D
  8
1
  6
________________
 62
     7
 10
1783.8
 20
638.8000000000001
 30
0.0
 11
1783.8
 21
638.5
 31
0.0
  0
LINE
  5
8E
  8
1
  6
________________
 62
     7
 10
1781.8
 20
638.8000000000001
 30
0.0
 11
1783.8
 21
638.8000000000001
 31
0.0
  0
LINE
  5
8F
  8
1
  6
________________
 62
     7
 10
1781.8
 20
638.5
 30
0.0
 11
1781.8
 21
638.8000000000001
 31
0.0
  0
LINE
  5
90
  8
1
  6
________________
 62
     7
 10
1781.8
 20
638.5
 30
0.0
 11
1777.8
 21
638.5
 31
0.0
  0
LINE
  5
91
  8
1
  6
________________
 62
     7
 10
1777.8
 20
638.8000000000001
 30
0.0
 11
1777.8
 21
638.5
 31
0.0
  0
LINE
  5
92
  8
1
  6
________________
 62
     7
 10
1775.8
 20
638.8000000000001
 30
0.0
 11
1777.8
 21
638.8000000000001
 31
0.0
  0
LINE
  5
93
  8
1
  6
________________
 62
     7
 10
1775.8
 20
638.5
 30
0.0
 11
1775.8
 21
638.8000000000001
 31
0.0
  0
LINE
  5
94
  8
1
  6
________________
 62
     7
 10
1775.8
 20
638.5
 30
0.0
 11
1771.8
 21
638.5
 31
0.0
  0
LINE
  5
95
  8
1
  6
________________
 62
     7
 10
1771.8
 20
638.8000000000001
 30
0.0
 11
1771.8
 21
638.5
 31
0.0
  0
LINE
  5
96
  8
1
  6
________________
 62
     7
 10
1769.8
 20
638.8000000000001
 30
0.0
 11
1771.8
 21
638.8000000000001
 31
0.0
  0
LINE
  5
97
  8
1
  6
________________
 62
     7
 10
1769.8
 20
638.5
 30
0.0
 11
1769.8
 21
638.8000000000001
 31
0.0
  0
LINE
  5
98
  8
1
  6
________________
 62
     7
 10
1769.8
 20
638.5
 30
0.0
 11
1765.8
 21
638.5
 31
0.0
  0
LINE
  5
99
  8
1
  6
________________
 62
     7
 10
1765.8
 20
638.8000000000001
 30
0.0
 11
1765.8
 21
638.5
 31
0.0
  0
LINE
  5
9A
  8
1
  6
________________
 62
     7
 10
1763.8
 20
638.8000000000001
 30
0.0
 11
1765.8
 21
638.8000000000001
 31
0.0
  0
LINE
  5
9B
  8
1
  6
________________
 62
     7
 10
1763.8
 20
638.5
 30
0.0
 11
1763.8
 21
638.8000000000001
 31
0.0
  0
LINE
  5
9C
  8
1
  6
________________
 62
     7
 10
1763.8
 20
638.5
 30
0.0
 11
1759.8
 21
638.5
 31
0.0
  0
LINE
  5
9D
  8
1
  6
________________
 62
     7
 10
1759.8
 20
638.8000000000001
 30
0.0
 11
1759.8
 21
638.5
 31
0.0
  0
LINE
  5
9E
  8
1
  6
________________
 62
     7
 10
1757.8
 20
638.8000000000001
 30
0.0
 11
1759.8
 21
638.8000000000001
 31
0.0
  0
LINE
  5
9F
  8
1
  6
________________
 62
     7
 10
1757.8
 20
638.5
 30
0.0
 11
1757.8
 21
638.8000000000001
 31
0.0
  0
LINE
  5
A0
  8
1
  6
________________
 62
     7
 10
1757.8
 20
638.5
 30
0.0
 11
1752.332975159731
 21
638.5
 31
0.0
  0
ARC
  5
A1
  8
1
  6
________________
 62
     7
 10
1752.332975159731
 20
645.5000000000001
 30
0.0
 40
6.999999999999923
 50
179.4601932839659
 51
270.0
  0
ARC
  5
A2
  8
1
  6
________________
 62
     7
 10
-2495.3
 20
638.5
 30
0.0
 40
749.9999999999999
 50
0.5398067160341403
 51
9.141806625698322
210
0.0
220
0.0
230
-1.0
  0
ARC
  5
A3
  8
1
  6
________________
 62
     7
 10
1755.813691810321
 20
757.5
 30
0.0
 40
1.000000000000001
 50
90.0
 51
170.8581933743014
  0
LINE
  5
A4
  8
1
  6
________________
 62
     7
 10
1755.813691810321
 20
758.5
 30
0.0
 11
1756.051884434007
 21
758.5
 31
0.0
  0
ARC
  5
A5
  8
1
  6
________________
 62
     7
 10
1905.3
 20
773.5000000000001
 30
0.0
 40
150.0000000000001
 50
185.7391704772668
 51
191.2917062948612
  0
ARC
  5
A6
  8
1
  6
________________
 62
     7
 10
-1765.068049289757
 20
745.5
 30
0.0
 40
7.000000000000006
 50
270.0
 51
348.7082937051388
210
0.0
220
0.0
230
-1.0
  0
LINE
  5
A7
  8
1
  6
________________
 62
     7
 10
1765.068049289757
 20
738.5
 30
0.0
 11
1769.8
 21
738.5
 31
0.0
  0
LINE
  5
A8
  8
1
  6
________________
 62
     7
 10
1769.8
 20
738.5
 30
0.0
 11
1771.8
 21
738.5
 31
0.0
  0
LINE
  5
A9
  8
1
  6
________________
 62
     7
 10
1771.8
 20
738.5
 30
0.0
 11
1775.8
 21
738.5
 31
0.0
  0
LINE
  5
AA
  8
1
  6
________________
 62
     7
 10
1775.8
 20
738.5
 30
0.0
 11
1777.8
 21
738.5
 31
0.0
  0
LINE
  5
AB
  8
1
  6
________________
 62
     7
 10
1777.8
 20
738.5
 30
0.0
 11
1781.8
 21
738.5
 31
0.0
  0
LINE
  5
AC
  8
1
  6
________________
 62
     7
 10
1781.8
 20
738.5
 30
0.0
 11
1783.8
 21
738.5
 31
0.0
  0
LINE
  5
AD
  8
1
  6
________________
 62
     7
 10
1783.8
 20
738.5
 30
0.0
 11
1787.8
 21
738.5
 31
0.0
  0
LINE
  5
AE
  8
1
  6
________________
 62
     7
 10
1787.8
 20
738.5
 30
0.0
 11
1789.8
 21
738.5
 31
0.0
  0
LINE
  5
AF
  8
1
  6
________________
 62
     7
 10
1789.8
 20
738.5
 30
0.0
 11
1799.3
 21
738.5
 31
0.0
  0
LINE
  5
B0
  8
1
  6
________________
 62
     7
 10
1799.3
 20
738.5
 30
0.0
 11
1799.8
 21
738.5
 31
0.0
  0
ARC
  5
B1
  8
1
  6
________________
 62
     7
 10
-1799.8
 20
739.0
 30
0.0
 40
0.500000000000167
 50
180.0
 51
269.9999999999998
210
0.0
220
0.0
230
-1.0
  0
LINE
  5
B2
  8
1
  6
________________
 62
     7
 10
1800.3
 20
739.0
 30
0.0
 11
1800.3
 21
741.2
 31
0.0
  0
LINE
  5
B3
  8
1
  6
________________
 62
     7
 10
1800.3
 20
741.2
 30
0.0
 11
1799.8
 21
741.2
 31
0.0
  0
ARC
  5
B4
  8
1
  6
________________
 62
     7
 10
1799.8
 20
742.2
 30
0.0
 40
0.9999999999998899
 50
180.0
 51
270.0
  0
LINE
  5
B5
  8
1
  6
________________
 62
     7
 10
1798.8
 20
742.2
 30
0.0
 11
1798.8
 21
743.4661558184824
 31
0.0
  0
ARC
  5
B6
  8
1
  6
________________
 62
     7
 10
1803.8
 20
743.4661558184824
 30
0.0
 40
4.999999999999955
 50
163.3007557660064
 51
180.0
  0
LINE
  5
B7
  8
1
  6
________________
 62
     7
 10
1800.089131426105
 20
748.4971047536859
 30
0.0
 11
1799.010868573894
 21
744.9028952463141
 31
0.0
  0
ARC
  5
B8
  8
1
  6
________________
 62
     7
 10
-1795.3
 20
749.9338441815177
 30
0.0
 40
5.000000000000115
 50
180.0
 51
196.6992442339936
210
0.0
220
0.0
230
-1.0
  0
LINE
  5
B9
  8
1
  6
________________
 62
     7
 10
1800.3
 20
749.9338441815177
 30
0.0
 11
1800.3
 21
758.0
 31
0.0
  0
ARC
  5
BA
  8
1
  6
________________
 62
     7
 10
1800.8
 20
758.0
 30
0.0
 40
0.500000000000056
 50
90.0
 51
180.0
  0
LINE
  5
BB
  8
1
  6
________________
 62
     7
 10
1800.8
 20
758.5
 30
0.0
 11
1802.1
 21
758.5
 31
0.0
  0
ARC
  5
BC
  8
1
  6
________________
 62
     7
 10
1802.1
 20
758.0
 30
0.0
 40
0.500000000000167
 50
0.0
 51
90.0
  0
LINE
  5
BD
  8
1
  6
________________
 62
     7
 10
1802.6
 20
758.0
 30
0.0
 11
1802.6
 21
739.5
 31
0.0
  0
ARC
  5
BE
  8
1
  6
________________
 62
     7
 10
-1831.3
 20
735.2
 30
0.0
 40
1.000000000000112
 50
0.0
 51
90.0
210
0.0
220
0.0
230
-1.0
  0
LINE
  5
BF
  8
1
  6
________________
 62
     7
 10
1830.3
 20
735.2
 30
0.0
 11
1830.3
 21
691.8000000000001
 31
0.0
  0
ARC
  5
C0
  8
1
  6
________________
 62
     7
 10
-1831.3
 20
691.8000000000001
 30
0.0
 40
1.000000000000001
 50
270.0
 51
0.0
210
0.0
220
0.0
230
-1.0
  0
LINE
  5
C1
  8
1
  6
________________
 62
     7
 10
1831.3
 20
690.8000000000001
 30
0.0
 11
1860.095273884038
 21
690.8000000000001
 31
0.0
  0
ARC
  5
C2
  8
1
  6
________________
 62
     7
 10
-1860.095273884038
 20
691.8000000000001
 30
0.0
 40
0.9999999999999907
 50
175.9067036832227
 51
269.9999999999999
210
0.0
220
0.0
230
-1.0
  0
ARC
  5
C3
  8
1
  6
________________
 62
     7
 10
1115.3
 20
638.5
 30
0.0
 40
747.6999999999999
 50
4.093296316777217
 51
7.850028204820808
  0
ARC
  5
C4
  8
1
  6
________________
 62
     7
 10
-1855.002645794299
 20
740.4847331952851
 30
0.0
 40
1.000000000000043
 50
29.13828378346141
 51
172.1499717951794
210
0.0
220
0.0
230
-1.0
  0
ARC
  5
C5
  8
1
  6
________________
 62
     7
 10
1846.006140979788
 20
745.5
 30
0.0
 40
9.299999999999974
 50
270.0
 51
330.8617162165385
  0
LINE
  5
C6
  8
1
  6
________________
 62
     7
 10
1846.006140979788
 20
736.2
 30
0.0
 11
1831.3
 21
736.2
 31
0.0
  0
ARC
  5
C7
  8
1
  6
________________
 62
     7
 10
-1817.6
 20
641.8000000000001
 30
0.0
 40
1.000000000000001
 50
270.0
 51
0.0
210
0.0
220
0.0
230
-1.0
  0
LINE
  5
C8
  8
1
  6
________________
 62
     7
 10
1827.5
 20
640.8000000000001
 30
0.0
 11
1817.6
 21
640.8000000000001
 31
0.0
  0
ARC
  5
C9
  8
1
  6
________________
 62
     7
 10
-1827.5
 20
641.8000000000001
 30
0.0
 40
1.000000000000112
 50
180.0
 51
270.0
210
0.0
220
0.0
230
-1.0
  0
LINE
  5
CA
  8
1
  6
________________
 62
     7
 10
1828.5
 20
687.5
 30
0.0
 11
1828.5
 21
641.8000000000001
 31
0.0
  0
ARC
  5
CB
  8
1
  6
________________
 62
     7
 10
-1827.5
 20
687.5
 30
0.0
 40
1.000000000000001
 50
90.0
 51
180.0
210
0.0
220
0.0
230
-1.0
  0
LINE
  5
CC
  8
1
  6
________________
 62
     7
 10
1783.1
 20
688.5
 30
0.0
 11
1827.5
 21
688.5
 31
0.0
  0
ARC
  5
CD
  8
1
  6
________________
 62
     7
 10
-1783.1
 20
687.5
 30
0.0
 40
1.000000000000112
 50
0.0
 51
90.0
210
0.0
220
0.0
230
-1.0
  0
LINE
  5
CE
  8
1
  6
________________
 62
     7
 10
1782.1
 20
687.5
 30
0.0
 11
1782.1
 21
641.8000000000001
 31
0.0
  0
ARC
  5
CF
  8
1
  6
________________
 62
     7
 10
-1783.1
 20
641.8000000000001
 30
0.0
 40
1.000000000000001
 50
270.0
 51
0.0
210
0.0
220
0.0
230
-1.0
  0
LINE
  5
D0
  8
1
  6
________________
 62
     7
 10
1783.1
 20
640.8000000000001
 30
0.0
 11
1793.0
 21
640.8000000000001
 31
0.0
  0
ARC
  5
D1
  8
1
  6
________________
 62
     7
 10
-1793.0
 20
641.8000000000001
 30
0.0
 40
0.9999999999998899
 50
180.0
 51
270.0
210
0.0
220
0.0
230
-1.0
  0
LINE
  5
D2
  8
1
  6
________________
 62
     7
 10
1794.0
 20
641.8000000000001
 30
0.0
 11
1794.0
 21
650.6
 31
0.0
  0
ARC
  5
D3
  8
1
  6
________________
 62
     7
 10
1795.5
 20
650.6
 30
0.0
 40
1.499999999999946
 50
90.0
 51
180.0
  0
LINE
  5
D4
  8
1
  6
________________
 62
     7
 10
1815.1
 20
652.1
 30
0.0
 11
1795.5
 21
652.1
 31
0.0
  0
ARC
  5
D5
  8
1
  6
________________
 62
     7
 10
1815.1
 20
650.6
 30
0.0
 40
1.500000000000057
 50
0.0
 51
90.0
  0
LINE
  5
D6
  8
1
  6
________________
 62
     7
 10
1816.6
 20
641.8000000000001
 30
0.0
 11
1816.6
 21
650.6
 31
0.0
  0
ARC
  5
D7
  8
1
  6
________________
 62
     7
 10
-2495.3
 20
638.5
 30
0.0
 40
747.6999999999999
 50
4.093296316777217
 51
7.850028204820808
210
0.0
220
0.0
230
-1.0
  0
ARC
  5
D8
  8
1
  6
________________
 62
     7
 10
-1750.504726115961
 20
691.8000000000001
 30
0.0
 40
1.000000000000001
 50
270.0
 51
4.093296316777241
210
0.0
220
0.0
230
-1.0
  0
LINE
  5
D9
  8
1
  6
________________
 62
     7
 10
1779.3
 20
690.8000000000001
 30
0.0
 11
1750.504726115961
 21
690.8000000000001
 31
0.0
  0
ARC
  5
DA
  8
1
  6
________________
 62
     7
 10
-1779.3
 20
691.8000000000001
 30
0.0
 40
1.000000000000112
 50
180.0
 51
270.0
210
0.0
220
0.0
230
-1.0
  0
LINE
  5
DB
  8
1
  6
________________
 62
     7
 10
1780.3
 20
735.2
 30
0.0
 11
1780.3
 21
691.8000000000001
 31
0.0
  0
ARC
  5
DC
  8
1
  6
________________
 62
     7
 10
-1779.3
 20
735.2
 30
0.0
 40
1.000000000000001
 50
90.0
 51
180.0
210
0.0
220
0.0
230
-1.0
  0
LINE
  5
DD
  8
1
  6
________________
 62
     7
 10
1764.593859020212
 20
736.2
 30
0.0
 11
1779.3
 21
736.2
 31
0.0
  0
ARC
  5
DE
  8
1
  6
________________
 62
     7
 10
1764.593859020212
 20
745.5
 30
0.0
 40
9.300000000000088
 50
209.1382837834666
 51
270.0
  0
ARC
  5
DF
  8
1
  6
________________
 62
     7
 10
-1755.597354205701
 20
740.4847331952844
 30
0.0
 40
1.000000000000008
 50
7.850028204820732
 51
150.8617162165336
210
0.0
220
0.0
230
-1.0
  0
ARC
  5
E0
  8
1
  6
________________
 62
     7
 10
1753.86
 20
661.35
 30
0.0
 40
1.000000000000001
 50
270.0
 51
0.0
  0
LINE
  5
E1
  8
1
  6
________________
 62
     7
 10
1753.86
 20
660.35
 30
0.0
 11
1748.89115258459
 21
660.35
 31
0.0
  0
ARC
  5
E2
  8
1
  6
________________
 62
     7
 10
-1748.89115258459
 20
659.35
 30
0.0
 40
1.000000000000103
 50
1.600070034900094
 51
90.00000000000001
210
0.0
220
0.0
230
-1.0
  0
ARC
  5
E3
  8
1
  6
________________
 62
     7
 10
-1752.635876724882
 20
645.8000000000001
 30
0.0
 40
5.000000000000004
 50
270.0
 51
0.5631694161285168
210
0.0
220
0.0
230
-1.0
  0
LINE
  5
E4
  8
1
  6
________________
 62
     7
 10
1752.635876724882
 20
640.8000000000001
 30
0.0
 11
1779.3
 21
640.8000000000001
 31
0.0
  0
ARC
  5
E5
  8
1
  6
________________
 62
     7
 10
-1779.3
 20
641.8000000000001
 30
0.0
 40
1.000000000000112
 50
180.0
 51
270.0
210
0.0
220
0.0
230
-1.0
  0
ARC
  5
E6
  8
1
  6
________________
 62
     7
 10
-1779.3
 20
659.35
 30
0.0
 40
1.000000000000001
 50
90.0
 51
180.0
210
0.0
220
0.0
230
-1.0
  0
LINE
  5
E7
  8
1
  6
________________
 62
     7
 10
1774.3
 20
660.35
 30
0.0
 11
1779.3
 21
660.35
 31
0.0
  0
ARC
  5
E8
  8
1
  6
________________
 62
     7
 10
1774.3
 20
661.35
 30
0.0
 40
1.000000000000112
 50
180.0
 51
270.0
  0
LINE
  5
E9
  8
1
  6
________________
 62
     7
 10
1773.3
 20
661.6500000000001
 30
0.0
 11
1773.3
 21
661.35
 31
0.0
  0
ARC
  5
EA
  8
1
  6
________________
 62
     7
 10
1774.3
 20
661.6500000000001
 30
0.0
 40
1.000000000000001
 50
90.0
 51
180.0
  0
LINE
  5
EB
  8
1
  6
________________
 62
     7
 10
1779.3
 20
662.6500000000001
 30
0.0
 11
1774.3
 21
662.6500000000001
 31
0.0
  0
ARC
  5
EC
  8
1
  6
________________
 62
     7
 10
-1779.3
 20
663.6500000000001
 30
0.0
 40
1.000000000000112
 50
180.0
 51
270.0
210
0.0
220
0.0
230
-1.0
  0
LINE
  5
ED
  8
1
  6
________________
 62
     7
 10
1780.3
 20
663.6500000000001
 30
0.0
 11
1780.3
 21
687.5
 31
0.0
  0
ARC
  5
EE
  8
1
  6
________________
 62
     7
 10
-1779.3
 20
687.5
 30
0.0
 40
1.000000000000001
 50
90.0
 51
180.0
210
0.0
220
0.0
230
-1.0
  0
LINE
  5
EF
  8
1
  6
________________
 62
     7
 10
1779.3
 20
688.5
 30
0.0
 11
1750.209475298471
 21
688.5
 31
0.0
  0
ARC
  5
F0
  8
1
  6
________________
 62
     7
 10
-1750.209475298471
 20
687.5
 30
0.0
 40
0.9999999999999379
 50
3.762571414139182
 51
89.99999999999996
210
0.0
220
0.0
230
-1.0
  0
ARC
  5
F1
  8
1
  6
________________
 62
     7
 10
-1749.023665456287
 20
663.6500000000001
 30
0.0
 40
1.000000000000001
 50
270.0
 51
1.930174699139684
210
0.0
220
0.0
230
-1.0
  0
LINE
  5
F2
  8
1
  6
________________
 62
     7
 10
1749.023665456287
 20
662.6500000000001
 30
0.0
 11
1753.86
 21
662.6500000000001
 31
0.0
  0
ARC
  5
F3
  8
1
  6
________________
 62
     7
 10
1753.86
 20
661.6500000000001
 30
0.0
 40
0.9999999999998899
 50
0.0
 51
90.0
  0
LINE
  5
F4
  8
1
  6
________________
 62
     7
 10
1754.86
 20
661.6500000000001
 30
0.0
 11
1754.86
 21
661.35
 31
0.0
  0
ARC
  5
F5
  8
1
  6
________________
 62
     7
 10
1836.3
 20
670.35
 30
0.0
 40
1.000000000000001
 50
270.0
 51
0.0
  0
LINE
  5
F6
  8
1
  6
________________
 62
     7
 10
1831.3
 20
669.35
 30
0.0
 11
1836.3
 21
669.35
 31
0.0
  0
ARC
  5
F7
  8
1
  6
________________
 62
     7
 10
-1831.3
 20
668.35
 30
0.0
 40
1.000000000000112
 50
0.0
 51
90.0
210
0.0
220
0.0
230
-1.0
  0
ARC
  5
F8
  8
1
  6
________________
 62
     7
 10
-1831.3
 20
641.8000000000001
 30
0.0
 40
1.000000000000001
 50
270.0000000000002
 51
0.0
210
0.0
220
0.0
230
-1.0
  0
LINE
  5
F9
  8
1
  6
________________
 62
     7
 10
1857.964123275118
 20
640.8000000000001
 30
0.0
 11
1831.3
 21
640.8000000000001
 31
0.0
  0
ARC
  5
FA
  8
1
  6
________________
 62
     7
 10
-1857.964123275118
 20
645.8000000000001
 30
0.0
 40
4.999999999999972
 50
179.4368305838715
 51
270.0
210
0.0
220
0.0
230
-1.0
  0
ARC
  5
FB
  8
1
  6
________________
 62
     7
 10
-1861.403121223869
 20
668.35
 30
0.0
 40
1.000000000000001
 50
90.0
 51
177.708939505528
210
0.0
220
0.0
230
-1.0
  0
LINE
  5
FC
  8
1
  6
________________
 62
     7
 10
1856.4
 20
669.35
 30
0.0
 11
1861.403121223869
 21
669.35
 31
0.0
  0
ARC
  5
FD
  8
1
  6
________________
 62
     7
 10
1856.4
 20
670.35
 30
0.0
 40
0.9999999999998899
 50
180.0
 51
270.0
  0
LINE
  5
FE
  8
1
  6
________________
 62
     7
 10
1855.4
 20
670.6500000000001
 30
0.0
 11
1855.4
 21
670.35
 31
0.0
  0
ARC
  5
FF
  8
1
  6
________________
 62
     7
 10
1856.4
 20
670.6500000000001
 30
0.0
 40
1.000000000000001
 50
90.0
 51
180.0
  0
LINE
  5
100
  8
1
  6
________________
 62
     7
 10
1861.218673516088
 20
671.6500000000001
 30
0.0
 11
1856.4
 21
671.6500000000001
 31
0.0
  0
ARC
  5
101
  8
1
  6
________________
 62
     7
 10
-1861.218673516088
 20
672.6500000000001
 30
0.0
 40
0.9999999999999742
 50
177.3786880699718
 51
270.0000000000001
210
0.0
220
0.0
230
-1.0
  0
ARC
  5
102
  8
1
  6
________________
 62
     7
 10
-1115.3
 20
638.5
 30
0.0
 40
747.6999999999999
 50
176.2374285858606
 51
177.3786880699718
210
0.0
220
0.0
230
-1.0
  0
ARC
  5
103
  8
1
  6
________________
 62
     7
 10
-1860.390524701529
 20
687.5
 30
0.0
 40
1.000000000000001
 50
90.0
 51
176.2374285858608
210
0.0
220
0.0
230
-1.0
  0
LINE
  5
104
  8
1
  6
________________
 62
     7
 10
1831.3
 20
688.5
 30
0.0
 11
1860.390524701529
 21
688.5
 31
0.0
  0
ARC
  5
105
  8
1
  6
________________
 62
     7
 10
-1831.3
 20
687.5
 30
0.0
 40
1.000000000000112
 50
0.0
 51
90.0
210
0.0
220
0.0
230
-1.0
  0
LINE
  5
106
  8
1
  6
________________
 62
     7
 10
1830.3
 20
672.6500000000001
 30
0.0
 11
1830.3
 21
687.5
 31
0.0
  0
ARC
  5
107
  8
1
  6
________________
 62
     7
 10
-1831.3
 20
672.6500000000001
 30
0.0
 40
1.000000000000001
 50
270.0
 51
0.0
210
0.0
220
0.0
230
-1.0
  0
LINE
  5
108
  8
1
  6
________________
 62
     7
 10
1836.3
 20
671.6500000000001
 30
0.0
 11
1831.3
 21
671.6500000000001
 31
0.0
  0
ARC
  5
109
  8
1
  6
________________
 62
     7
 10
1836.3
 20
670.6500000000001
 30
0.0
 40
1.000000000000112
 50
0.0
 51
90.0
  0
LINE
  5
10A
  8
1
  6
________________
 62
     7
 10
1837.3
 20
670.35
 30
0.0
 11
1837.3
 21
670.6500000000001
 31
0.0
  0
ARC
  5
10B
  8
1
  6
________________
 62
     7
 10
2495.3
 20
638.5
 30
0.0
 40
747.6999999999998
 50
178.3999299650995
 51
179.4368305838716
  0
ARC
  5
10C
  8
1
  6
________________
 62
     7
 10
2495.3
 20
638.5
 30
0.0
 40
747.6999999999999
 50
176.2374285858606
 51
178.0698253008603
  0
LINE
  5
10D
  8
1
  6
________________
 62
     7
 10
1780.3
 20
641.8000000000001
 30
0.0
 11
1780.3
 21
659.35
 31
0.0
  0
LINE
  5
10E
  8
1
  6
________________
 62
     7
 10
1830.3
 20
641.8000000000001
 30
0.0
 11
1830.3
 21
668.35
 31
0.0
  0
ARC
  5
10F
  8
1
  6
________________
 62
     7
 10
-1115.3
 20
638.5
 30
0.0
 40
747.6999999999998
 50
177.7089395055274
 51
179.4368305838716
210
0.0
220
0.0
230
-1.0
  0
LINE
  5
110
  8
1
  6
________________
 62
     7
 10
1811.3
 20
638.5
 30
0.0
 11
1820.8
 21
638.5
 31
0.0
  0
ARC
  5
111
  8
1
  6
________________
 62
     7
 10
-1795.5
 20
751.1
 30
0.0
 40
1.500000000000057
 50
0.0
 51
90.0
210
0.0
220
0.0
230
-1.0
  0
ARC
  5
112
  8
1
  6
________________
 62
     7
 10
1759.149392748439
 20
769.7
 30
0.0
 40
1.500000000000057
 50
90.0
 51
181.4893877178729
  0
ARC
  5
113
  8
1
  6
________________
 62
     7
 10
1765.314286443223
 20
745.8
 30
0.0
 40
4.999999999999926
 50
191.1929428424455
 51
270.0
  0
LINE
  5
114
  8
1
  6
________________
 62
     7
 10
1793.0
 20
740.8
 30
0.0
 11
1765.314286443223
 21
740.8
 31
0.0
  0
ARC
  5
115
  8
1
  6
________________
 62
     7
 10
-1795.5
 20
826.9000000000001
 30
0.0
 40
1.500000000000057
 50
270.0
 51
0.0
210
0.0
220
0.0
230
-1.0
  0
LINE
  5
116
  8
1
  6
________________
 62
     7
 10
1794.0
 20
835.2
 30
0.0
 11
1794.0
 21
826.9000000000001
 31
0.0
  0
ARC
  5
117
  8
1
  6
________________
 62
     7
 10
1793.0
 20
835.2
 30
0.0
 40
0.9999999999998899
 50
0.0
 51
90.0
  0
ARC
  5
118
  8
1
  6
________________
 62
     7
 10
1783.766769388864
 20
834.2
 30
0.0
 40
2.000000000000002
 50
90.0
 51
144.9516985959647
  0
ARC
  5
119
  8
1
  6
________________
 62
     7
 10
1763.604686138519
 20
774.5000000000001
 30
0.0
 40
0.9999999999999595
 50
179.4630120120378
 51
270.0
  0
ARC
  5
11A
  8
1
  6
________________
 62
     7
 10
1803.4
 20
774.5000000000001
 30
0.0
 40
1.000000000000001
 50
270.0
 51
0.0
  0
LINE
  5
11B
  8
1
  6
________________
 62
     7
 10
1804.4
 20
824.4
 30
0.0
 11
1804.4
 21
774.5000000000001
 31
0.0
  0
ARC
  5
11C
  8
1
  6
________________
 62
     7
 10
1803.4
 20
824.4
 30
0.0
 40
1.000000000000112
 50
0.0
 51
90.0
  0
LINE
  5
11D
  8
1
  6
________________
 62
     7
 10
1795.5
 20
825.4
 30
0.0
 11
1803.4
 21
825.4
 31
0.0
  0
ARC
  5
11E
  8
1
  6
________________
 62
     7
 10
1800.8
 20
770.1999999999999
 30
0.0
 40
1.000000000000001
 50
90.0
 51
180.0
  0
ARC
  5
11F
  8
1
  6
________________
 62
     7
 10
1796.8
 20
749.8
 30
0.0
 40
0.500000000000056
 50
90.0
 51
180.0
  0
ARC
  5
120
  8
1
  6
________________
 62
     7
 10
1796.8
 20
741.3000000000001
 30
0.0
 40
0.4999999999999449
 50
180.0
 51
270.0
  0
LINE
  5
121
  8
1
  6
________________
 62
     7
 10
1799.3
 20
740.8
 30
0.0
 11
1799.3
 21
738.5
 31
0.0
  0
LINE
  5
122
  8
1
  6
________________
 62
     7
 10
1789.8
 20
738.5
 30
0.0
 11
1789.8
 21
738.8
 31
0.0
  0
LINE
  5
123
  8
1
  6
________________
 62
     7
 10
1789.8
 20
738.8
 30
0.0
 11
1787.8
 21
738.8
 31
0.0
  0
LINE
  5
124
  8
1
  6
________________
 62
     7
 10
1787.8
 20
738.8
 30
0.0
 11
1787.8
 21
738.5
 31
0.0
  0
LINE
  5
125
  8
1
  6
________________
 62
     7
 10
1783.8
 20
738.8
 30
0.0
 11
1781.8
 21
738.8
 31
0.0
  0
LINE
  5
126
  8
1
  6
________________
 62
     7
 10
1781.8
 20
738.8
 30
0.0
 11
1781.8
 21
738.5
 31
0.0
  0
LINE
  5
127
  8
1
  6
________________
 62
     7
 10
1777.8
 20
738.5
 30
0.0
 11
1777.8
 21
738.8
 31
0.0
  0
LINE
  5
128
  8
1
  6
________________
 62
     7
 10
1777.8
 20
738.8
 30
0.0
 11
1775.8
 21
738.8
 31
0.0
  0
LINE
  5
129
  8
1
  6
________________
 62
     7
 10
1775.8
 20
738.8
 30
0.0
 11
1775.8
 21
738.5
 31
0.0
  0
LINE
  5
12A
  8
1
  6
________________
 62
     7
 10
1771.8
 20
738.5
 30
0.0
 11
1771.8
 21
738.8
 31
0.0
  0
LINE
  5
12B
  8
1
  6
________________
 62
     7
 10
1771.8
 20
738.8
 30
0.0
 11
1769.8
 21
738.8
 31
0.0
  0
LINE
  5
12C
  8
1
  6
________________
 62
     7
 10
1769.8
 20
738.8
 30
0.0
 11
1769.8
 21
738.5
 31
0.0
  0
LINE
  5
12D
  8
1
  6
________________
 62
     7
 10
1769.8
 20
738.5
 30
0.0
 11
1765.068049289757
 21
738.5
 31
0.0
  0
ARC
  5
12E
  8
1
  6
________________
 62
     7
 10
1759.304504595907
 20
774.5000000000001
 30
0.0
 40
1.000000000000001
 50
270.0
 51
359.4838148235702
  0
ARC
  5
12F
  8
1
  6
________________
 62
     7
 10
1778.968680070854
 20
835.7
 30
0.0
 40
0.4999999999999959
 50
325.743692026745
 51
90.0
  0
ARC
  5
130
  8
1
  6
________________
 62
     7
 10
-1775.3
 20
837.35
 30
0.0
 40
1.149999999999984
 50
270.0
 51
0.0
210
0.0
220
0.0
230
-1.0
  0
ARC
  5
131
  8
1
  6
________________
 62
     7
 10
-1775.3
 20
837.35
 30
0.0
 40
1.149999999999984
 50
0.0
 51
90.0
210
0.0
220
0.0
230
-1.0
  0
LINE
  5
132
  8
1
  6
________________
 62
     7
 10
1775.3
 20
838.5
 30
0.0
 11
1780.8
 21
838.5
 31
0.0
  0
LINE
  5
133
  8
1
  6
________________
 62
     7
 10
1780.8
 20
838.2
 30
0.0
 11
1782.8
 21
838.2
 31
0.0
  0
LINE
  5
134
  8
1
  6
________________
 62
     7
 10
1782.8
 20
838.5
 30
0.0
 11
1785.8
 21
838.5
 31
0.0
  0
LINE
  5
135
  8
1
  6
________________
 62
     7
 10
1785.8
 20
838.5
 30
0.0
 11
1785.8
 21
838.2
 31
0.0
  0
LINE
  5
136
  8
1
  6
________________
 62
     7
 10
1785.8
 20
838.2
 30
0.0
 11
1787.8
 21
838.2
 31
0.0
  0
LINE
  5
137
  8
1
  6
________________
 62
     7
 10
1787.8
 20
838.2
 30
0.0
 11
1787.8
 21
838.5
 31
0.0
  0
LINE
  5
138
  8
1
  6
________________
 62
     7
 10
1790.8
 20
838.5
 30
0.0
 11
1790.8
 21
838.2
 31
0.0
  0
LINE
  5
139
  8
1
  6
________________
 62
     7
 10
1790.8
 20
838.2
 30
0.0
 11
1792.8
 21
838.2
 31
0.0
  0
LINE
  5
13A
  8
1
  6
________________
 62
     7
 10
1792.8
 20
838.2
 30
0.0
 11
1792.8
 21
838.5
 31
0.0
  0
LINE
  5
13B
  8
1
  6
________________
 62
     7
 10
1792.8
 20
838.5
 30
0.0
 11
1799.8
 21
838.5
 31
0.0
  0
ARC
  5
13C
  8
1
  6
________________
 62
     7
 10
1796.8
 20
835.7
 30
0.0
 40
0.4999999999999449
 50
90.0
 51
180.0
  0
LINE
  5
13D
  8
1
  6
________________
 62
     7
 10
1796.3
 20
835.7
 30
0.0
 11
1796.3
 21
828.2
 31
0.0
  0
ARC
  5
13E
  8
1
  6
________________
 62
     7
 10
1796.8
 20
828.2
 30
0.0
 40
0.4999999999999449
 50
180.0
 51
270.0
  0
LINE
  5
13F
  8
1
  6
________________
 62
     7
 10
1822.8
 20
838.5
 30
0.0
 11
1819.8
 21
838.5
 31
0.0
  0
LINE
  5
140
  8
1
  6
________________
 62
     7
 10
1827.8
 20
838.5
 30
0.0
 11
1824.8
 21
838.5
 31
0.0
  0
LINE
  5
141
  8
1
  6
________________
 62
     7
 10
1835.3
 20
838.5
 30
0.0
 11
1829.8
 21
838.5
 31
0.0
  0
LINE
  5
142
  8
1
  6
________________
 62
     7
 10
1840.8
 20
738.5
 30
0.0
 11
1845.531950710243
 21
738.5
 31
0.0
  0
LINE
  5
143
  8
1
  6
________________
 62
     7
 10
1838.8
 20
738.8
 30
0.0
 11
1840.8
 21
738.8
 31
0.0
  0
LINE
  5
144
  8
1
  6
________________
 62
     7
 10
1834.8
 20
738.5
 30
0.0
 11
1838.8
 21
738.5
 31
0.0
  0
LINE
  5
145
  8
1
  6
________________
 62
     7
 10
1832.8
 20
738.8
 30
0.0
 11
1834.8
 21
738.8
 31
0.0
  0
LINE
  5
146
  8
1
  6
________________
 62
     7
 10
1828.8
 20
738.5
 30
0.0
 11
1832.8
 21
738.5
 31
0.0
  0
LINE
  5
147
  8
1
  6
________________
 62
     7
 10
1826.8
 20
738.8
 30
0.0
 11
1828.8
 21
738.8
 31
0.0
  0
LINE
  5
148
  8
1
  6
________________
 62
     7
 10
1822.8
 20
738.5
 30
0.0
 11
1826.8
 21
738.5
 31
0.0
  0
LINE
  5
149
  8
1
  6
________________
 62
     7
 10
1820.8
 20
738.8
 30
0.0
 11
1822.8
 21
738.8
 31
0.0
  0
LINE
  5
14A
  8
1
  6
________________
 62
     7
 10
1813.8
 20
740.8
 30
0.0
 11
1811.3
 21
740.8
 31
0.0
  0
LINE
  5
14B
  8
1
  6
________________
 62
     7
 10
1803.4
 20
773.5000000000001
 30
0.0
 11
1763.604686138519
 21
773.5000000000001
 31
0.0
  0
LINE
  5
14C
  8
1
  6
________________
 62
     7
 10
1811.3
 20
738.5
 30
0.0
 11
1820.8
 21
738.5
 31
0.0
  0
LINE
  5
14D
  8
1
  6
________________
 62
     7
 10
1780.8
 20
838.5
 30
0.0
 11
1780.8
 21
838.2
 31
0.0
  0
LINE
  5
14E
  8
1
  6
________________
 62
     7
 10
1782.8
 20
838.2
 30
0.0
 11
1782.8
 21
838.5
 31
0.0
  0
LINE
  5
14F
  8
1
  6
________________
 62
     7
 10
1820.8
 20
738.5
 30
0.0
 11
1820.8
 21
738.8
 31
0.0
  0
LINE
  5
150
  8
1
  6
________________
 62
     7
 10
1829.8
 20
838.5
 30
0.0
 11
1829.8
 21
838.2
 31
0.0
  0
LINE
  5
151
  8
1
  6
________________
 62
     7
 10
1827.8
 20
838.2
 30
0.0
 11
1827.8
 21
838.5
 31
0.0
  0
LINE
  5
152
  8
1
  6
________________
 62
     7
 10
1829.8
 20
838.2
 30
0.0
 11
1827.8
 21
838.2
 31
0.0
  0
LINE
  5
153
  8
1
  6
________________
 62
     7
 10
1824.8
 20
838.5
 30
0.0
 11
1824.8
 21
838.2
 31
0.0
  0
LINE
  5
154
  8
1
  6
________________
 62
     7
 10
1822.8
 20
838.2
 30
0.0
 11
1822.8
 21
838.5
 31
0.0
  0
LINE
  5
155
  8
1
  6
________________
 62
     7
 10
1824.8
 20
838.2
 30
0.0
 11
1822.8
 21
838.2
 31
0.0
  0
LINE
  5
156
  8
1
  6
________________
 62
     7
 10
1819.8
 20
838.5
 30
0.0
 11
1819.8
 21
838.2
 31
0.0
  0
LINE
  5
157
  8
1
  6
________________
 62
     7
 10
1817.8
 20
838.2
 30
0.0
 11
1817.8
 21
838.5
 31
0.0
  0
LINE
  5
158
  8
1
  6
________________
 62
     7
 10
1819.8
 20
838.2
 30
0.0
 11
1817.8
 21
838.2
 31
0.0
  0
ARC
  5
159
  8
1
  6
________________
 62
     7
 10
-1826.833230611136
 20
834.2
 30
0.0
 40
2.000000000000002
 50
90.0
 51
144.9516985959647
210
0.0
220
0.0
230
-1.0
  0
ARC
  5
15A
  8
1
  6
________________
 62
     7
 10
-1846.995313861481
 20
774.5000000000001
 30
0.0
 40
0.9999999999999595
 50
179.4630120120378
 51
270.0
210
0.0
220
0.0
230
-1.0
  0
ARC
  5
15B
  8
1
  6
________________
 62
     7
 10
1835.3
 20
837.35
 30
0.0
 40
1.149999999999984
 50
0.0
 51
90.0
  0
ARC
  5
15C
  8
1
  6
________________
 62
     7
 10
1835.3
 20
837.35
 30
0.0
 40
1.149999999999984
 50
270.0
 51
0.0
  0
ARC
  5
15D
  8
1
  6
________________
 62
     7
 10
1815.1
 20
751.1
 30
0.0
 40
1.500000000000057
 50
0.0
 51
90.0
  0
ARC
  5
15E
  8
1
  6
________________
 62
     7
 10
1815.1
 20
826.9000000000001
 30
0.0
 40
1.500000000000057
 50
270.0
 51
0.0
  0
ARC
  5
15F
  8
1
  6
________________
 62
     7
 10
-1831.631319929146
 20
835.7
 30
0.0
 40
0.4999999999999959
 50
325.743692026745
 51
90.0
210
0.0
220
0.0
230
-1.0
  0
ARC
  5
160
  8
1
  6
________________
 62
     7
 10
-1813.8
 20
741.3000000000001
 30
0.0
 40
0.4999999999999449
 50
180.0
 51
270.0
210
0.0
220
0.0
230
-1.0
  0
ARC
  5
161
  8
1
  6
________________
 62
     7
 10
-1813.8
 20
749.8
 30
0.0
 40
0.500000000000056
 50
90.0
 51
180.0
210
0.0
220
0.0
230
-1.0
  0
ARC
  5
162
  8
1
  6
________________
 62
     7
 10
-1813.8
 20
835.7
 30
0.0
 40
0.4999999999999449
 50
90.0
 51
180.0
210
0.0
220
0.0
230
-1.0
  0
ARC
  5
163
  8
1
  6
________________
 62
     7
 10
-1813.8
 20
828.2
 30
0.0
 40
0.4999999999999449
 50
180.0
 51
270.0
210
0.0
220
0.0
230
-1.0
  0
ARC
  5
164
  8
1
  6
________________
 62
     7
 10
1796.5
 20
770.1999999999999
 30
0.0
 40
0.9999999999998899
 50
0.0
 51
90.0
  0
ARC
  5
165
  8
1
  6
________________
 62
     7
 10
1796.5
 20
753.6
 30
0.0
 40
1.000000000000001
 50
270.0
 51
0.0
  0
ARC
  5
166
  8
1
  6
________________
 62
     7
 10
1793.0
 20
741.8
 30
0.0
 40
1.000000000000001
 50
270.0
 51
0.0
  0
ARC
  5
167
  8
1
  6
________________
 62
     7
 10
-1765.068049289757
 20
745.5
 30
0.0
 40
7.000000000000006
 50
270.0
 51
348.7082937051387
210
0.0
220
0.0
230
-1.0
  0
ARC
  5
168
  8
1
  6
________________
 62
     7
 10
-1814.1
 20
770.1999999999999
 30
0.0
 40
0.9999999999998899
 50
0.0
 51
90.0
210
0.0
220
0.0
230
-1.0
  0
ARC
  5
169
  8
1
  6
________________
 62
     7
 10
-1814.1
 20
753.6
 30
0.0
 40
1.000000000000001
 50
270.0
 51
0.0
210
0.0
220
0.0
230
-1.0
  0
ARC
  5
16A
  8
1
  6
________________
 62
     7
 10
-1758.330615433009
 20
770.5000000000001
 30
0.0
 40
2.999999999999917
 50
358.830617194386
 51
90.0
210
0.0
220
0.0
230
-1.0
  0
ARC
  5
16B
  8
1
  6
________________
 62
     7
 10
-1870.3
 20
773.5000000000001
 30
0.0
 40
107.6999999999999
 50
0.536987987962228
 51
35.04830140403539
210
0.0
220
0.0
230
-1.0
  0
ARC
  5
16C
  8
1
  6
________________
 62
     7
 10
-1845.285713556777
 20
745.8
 30
0.0
 40
4.999999999999926
 50
191.1929428424455
 51
270.0
210
0.0
220
0.0
230
-1.0
  0
ARC
  5
16D
  8
1
  6
________________
 62
     7
 10
-1851.450607251561
 20
769.7
 30
0.0
 40
1.500000000000057
 50
90.0
 51
181.4893877178729
210
0.0
220
0.0
230
-1.0
  0
ARC
  5
16E
  8
1
  6
________________
 62
     7
 10
1852.269384566991
 20
770.5000000000001
 30
0.0
 40
2.999999999999917
 50
358.830617194386
 51
90.0
  0
ARC
  5
16F
  8
1
  6
________________
 62
     7
 10
1740.3
 20
773.5000000000001
 30
0.0
 40
107.6999999999999
 50
0.536987987962228
 51
35.04830140403539
  0
LINE
  5
170
  8
1
  6
________________
 62
     7
 10
1783.766769388864
 20
836.2
 30
0.0
 11
1793.0
 21
836.2
 31
0.0
  0
ARC
  5
171
  8
1
  6
________________
 62
     7
 10
-1905.3
 20
773.5000000000001
 30
0.0
 40
147.7
 50
348.8070571575545
 51
358.5106122821271
210
0.0
220
0.0
230
-1.0
  0
LINE
  5
172
  8
1
  6
________________
 62
     7
 10
1815.1
 20
825.4
 30
0.0
 11
1807.2
 21
825.4
 31
0.0
  0
LINE
  5
173
  8
1
  6
________________
 62
     7
 10
1794.0
 20
751.1
 30
0.0
 11
1794.0
 21
741.8
 31
0.0
  0
LINE
  5
174
  8
1
  6
________________
 62
     7
 10
1796.5
 20
752.6
 30
0.0
 11
1795.5
 21
752.6
 31
0.0
  0
LINE
  5
175
  8
1
  6
________________
 62
     7
 10
1797.5
 20
770.1999999999999
 30
0.0
 11
1797.5
 21
753.6
 31
0.0
  0
LINE
  5
176
  8
1
  6
________________
 62
     7
 10
1759.149392748439
 20
771.2
 30
0.0
 11
1796.5
 21
771.2
 31
0.0
  0
LINE
  5
177
  8
1
  6
________________
 62
     7
 10
1778.968680070854
 20
836.2
 30
0.0
 11
1775.3
 21
836.2
 31
0.0
  0
ARC
  5
178
  8
1
  6
________________
 62
     7
 10
-1870.3
 20
773.5000000000001
 30
0.0
 40
109.9999999999999
 50
0.5161851764299518
 51
34.25630797325463
210
0.0
220
0.0
230
-1.0
  0
LINE
  5
179
  8
1
  6
________________
 62
     7
 10
1758.330615433009
 20
773.5000000000001
 30
0.0
 11
1759.304504595907
 21
773.5000000000001
 31
0.0
  0
ARC
  5
17A
  8
1
  6
________________
 62
     7
 10
-1905.3
 20
773.5000000000001
 30
0.0
 40
150.0000000000002
 50
348.7082937051388
 51
354.2608295227332
210
0.0
220
0.0
230
-1.0
  0
ARC
  5
17B
  8
1
  6
________________
 62
     7
 10
-1905.3
 20
773.5000000000001
 30
0.0
 40
150.0000000000001
 50
354.2608295227332
 51
358.8306171943859
210
0.0
220
0.0
230
-1.0
  0
LINE
  5
17C
  8
1
  6
________________
 62
     7
 10
1796.3
 20
749.8
 30
0.0
 11
1796.3
 21
741.3000000000001
 31
0.0
  0
LINE
  5
17D
  8
1
  6
________________
 62
     7
 10
1799.8
 20
750.3000000000001
 30
0.0
 11
1796.8
 21
750.3000000000001
 31
0.0
  0
LINE
  5
17E
  8
1
  6
________________
 62
     7
 10
1799.8
 20
770.1999999999999
 30
0.0
 11
1799.8
 21
750.3000000000001
 31
0.0
  0
ARC
  5
17F
  8
1
  6
________________
 62
     7
 10
1705.3
 20
773.5000000000001
 30
0.0
 40
150.0000000000002
 50
348.7082937051388
 51
354.2608295227332
  0
ARC
  5
180
  8
1
  6
________________
 62
     7
 10
1705.3
 20
773.5000000000001
 30
0.0
 40
150.0000000000001
 50
354.2608295227332
 51
358.8306171943859
  0
LINE
  5
181
  8
1
  6
________________
 62
     7
 10
1799.8
 20
836.2
 30
0.0
 11
1796.8
 21
836.2
 31
0.0
  0
LINE
  5
182
  8
1
  6
________________
 62
     7
 10
1799.8
 20
838.5
 30
0.0
 11
1799.8
 21
836.2
 31
0.0
  0
LINE
  5
183
  8
1
  6
________________
 62
     7
 10
1810.8
 20
770.1999999999999
 30
0.0
 11
1810.8
 21
750.3000000000001
 31
0.0
  0
LINE
  5
184
  8
1
  6
________________
 62
     7
 10
1800.8
 20
771.1999999999999
 30
0.0
 11
1809.8
 21
771.1999999999999
 31
0.0
  0
LINE
  5
185
  8
1
  6
________________
 62
     7
 10
1813.8
 20
827.7
 30
0.0
 11
1796.8
 21
827.7
 31
0.0
  0
LINE
  5
186
  8
1
  6
________________
 62
     7
 10
1814.3
 20
835.7
 30
0.0
 11
1814.3
 21
828.2
 31
0.0
  0
LINE
  5
187
  8
1
  6
________________
 62
     7
 10
1810.8
 20
836.2
 30
0.0
 11
1813.8
 21
836.2
 31
0.0
  0
LINE
  5
188
  8
1
  6
________________
 62
     7
 10
1810.8
 20
838.5
 30
0.0
 11
1810.8
 21
836.2
 31
0.0
  0
LINE
  5
189
  8
1
  6
________________
 62
     7
 10
1817.8
 20
838.5
 30
0.0
 11
1810.8
 21
838.5
 31
0.0
  0
LINE
  5
18A
  8
1
  6
________________
 62
     7
 10
1783.8
 20
738.5
 30
0.0
 11
1783.8
 21
738.8
 31
0.0
  0
LINE
  5
18B
  8
1
  6
________________
 62
     7
 10
1828.8
 20
738.8
 30
0.0
 11
1828.8
 21
738.5
 31
0.0
  0
LINE
  5
18C
  8
1
  6
________________
 62
     7
 10
1822.8
 20
738.8
 30
0.0
 11
1822.8
 21
738.5
 31
0.0
  0
LINE
  5
18D
  8
1
  6
________________
 62
     7
 10
1787.8
 20
838.5
 30
0.0
 11
1790.8
 21
838.5
 31
0.0
  0
LINE
  5
18E
  8
1
  6
________________
 62
     7
 10
1787.8
 20
738.5
 30
0.0
 11
1783.8
 21
738.5
 31
0.0
  0
LINE
  5
18F
  8
1
  6
________________
 62
     7
 10
1781.8
 20
738.5
 30
0.0
 11
1777.8
 21
738.5
 31
0.0
  0
LINE
  5
190
  8
1
  6
________________
 62
     7
 10
1775.8
 20
738.5
 30
0.0
 11
1771.8
 21
738.5
 31
0.0
  0
LINE
  5
191
  8
1
  6
________________
 62
     7
 10
1796.8
 20
740.8
 30
0.0
 11
1799.3
 21
740.8
 31
0.0
  0
LINE
  5
192
  8
1
  6
________________
 62
     7
 10
1799.3
 20
738.5
 30
0.0
 11
1789.8
 21
738.5
 31
0.0
  0
LINE
  5
193
  8
1
  6
________________
 62
     7
 10
1811.3
 20
740.8
 30
0.0
 11
1811.3
 21
738.5
 31
0.0
  0
ARC
  5
194
  8
1
  6
________________
 62
     7
 10
-1851.295495404093
 20
774.5000000000001
 30
0.0
 40
1.000000000000001
 50
270.0
 51
359.4838148235702
210
0.0
220
0.0
230
-1.0
  0
LINE
  5
195
  8
1
  6
________________
 62
     7
 10
1840.8
 20
738.8
 30
0.0
 11
1840.8
 21
738.5
 31
0.0
  0
LINE
  5
196
  8
1
  6
________________
 62
     7
 10
1838.8
 20
738.5
 30
0.0
 11
1838.8
 21
738.8
 31
0.0
  0
LINE
  5
197
  8
1
  6
________________
 62
     7
 10
1834.8
 20
738.8
 30
0.0
 11
1834.8
 21
738.5
 31
0.0
  0
LINE
  5
198
  8
1
  6
________________
 62
     7
 10
1832.8
 20
738.5
 30
0.0
 11
1832.8
 21
738.8
 31
0.0
  0
LINE
  5
199
  8
1
  6
________________
 62
     7
 10
1826.8
 20
738.5
 30
0.0
 11
1826.8
 21
738.8
 31
0.0
  0
ARC
  5
19A
  8
1
  6
________________
 62
     7
 10
-1817.6
 20
835.2
 30
0.0
 40
0.9999999999998899
 50
0.0
 51
90.0
210
0.0
220
0.0
230
-1.0
  0
ARC
  5
19B
  8
1
  6
________________
 62
     7
 10
-1807.2
 20
824.4
 30
0.0
 40
1.000000000000112
 50
0.0
 51
90.0
210
0.0
220
0.0
230
-1.0
  0
ARC
  5
19C
  8
1
  6
________________
 62
     7
 10
-1807.2
 20
774.5000000000001
 30
0.0
 40
1.000000000000001
 50
270.0
 51
0.0
210
0.0
220
0.0
230
-1.0
  0
ARC
  5
19D
  8
1
  6
________________
 62
     7
 10
-1809.8
 20
770.1999999999999
 30
0.0
 40
1.000000000000001
 50
90.0
 51
180.0
210
0.0
220
0.0
230
-1.0
  0
ARC
  5
19E
  8
1
  6
________________
 62
     7
 10
-1817.6
 20
741.8
 30
0.0
 40
1.000000000000001
 50
270.0
 51
0.0
210
0.0
220
0.0
230
-1.0
  0
ARC
  5
19F
  8
1
  6
________________
 62
     7
 10
1845.531950710243
 20
745.5
 30
0.0
 40
7.000000000000006
 50
270.0
 51
348.7082937051387
  0
LINE
  5
1A0
  8
1
  6
________________
 62
     7
 10
1807.2
 20
773.5000000000001
 30
0.0
 11
1846.995313861481
 21
773.5000000000001
 31
0.0
  0
LINE
  5
1A1
  8
1
  6
________________
 62
     7
 10
1806.2
 20
824.4
 30
0.0
 11
1806.2
 21
774.5000000000001
 31
0.0
  0
LINE
  5
1A2
  8
1
  6
________________
 62
     7
 10
1816.6
 20
835.2
 30
0.0
 11
1816.6
 21
826.9000000000001
 31
0.0
  0
LINE
  5
1A3
  8
1
  6
________________
 62
     7
 10
1826.833230611136
 20
836.2
 30
0.0
 11
1817.6
 21
836.2
 31
0.0
  0
ARC
  5
1A4
  8
1
  6
________________
 62
     7
 10
1705.3
 20
773.5000000000001
 30
0.0
 40
147.7
 50
348.8070571575545
 51
358.5106122821271
  0
LINE
  5
1A5
  8
1
  6
________________
 62
     7
 10
1817.6
 20
740.8
 30
0.0
 11
1845.285713556777
 21
740.8
 31
0.0
  0
LINE
  5
1A6
  8
1
  6
________________
 62
     7
 10
1816.6
 20
751.1
 30
0.0
 11
1816.6
 21
741.8
 31
0.0
  0
LINE
  5
1A7
  8
1
  6
________________
 62
     7
 10
1814.1
 20
752.6
 30
0.0
 11
1815.1
 21
752.6
 31
0.0
  0
LINE
  5
1A8
  8
1
  6
________________
 62
     7
 10
1813.1
 20
770.1999999999999
 30
0.0
 11
1813.1
 21
753.6
 31
0.0
  0
LINE
  5
1A9
  8
1
  6
________________
 62
     7
 10
1851.450607251561
 20
771.2
 30
0.0
 11
1814.1
 21
771.2
 31
0.0
  0
LINE
  5
1AA
  8
1
  6
________________
 62
     7
 10
1831.631319929146
 20
836.2
 30
0.0
 11
1835.3
 21
836.2
 31
0.0
  0
ARC
  5
1AB
  8
1
  6
________________
 62
     7
 10
1740.3
 20
773.5000000000001
 30
0.0
 40
109.9999999999999
 50
0.5161851764299518
 51
34.25630797325463
  0
LINE
  5
1AC
  8
1
  6
________________
 62
     7
 10
1852.269384566991
 20
773.5000000000001
 30
0.0
 11
1851.295495404093
 21
773.5000000000001
 31
0.0
  0
LINE
  5
1AD
  8
1
  6
________________
 62
     7
 10
1814.3
 20
749.8
 30
0.0
 11
1814.3
 21
741.3000000000001
 31
0.0
  0
LINE
  5
1AE
  8
1
  6
________________
 62
     7
 10
1810.8
 20
750.3000000000001
 30
0.0
 11
1813.8
 21
750.3000000000001
 31
0.0
  0
LINE
  5
1AF
  8
1
  6
________________
 62
     7
 10
1818.744318181818
 20
638.475
 30
0.0
 11
1818.744318181818
 21
638.5
 31
0.0
  0
LINE
  5
1B0
  8
1
  6
________________
 62
     7
 10
1816.89106509694
 20
638.5
 30
0.0
 11
1816.89106509694
 21
638.475
 31
0.0
  0
LINE
  5
1B1
  8
1
  6
________________
 62
     7
 10
1818.307954545455
 20
638.475
 30
0.0
 11
1818.307954545455
 21
638.5
 31
0.0
  0
LINE
  5
1B2
  8
1
  6
________________
 62
     7
 10
1813.153409090909
 20
638.5
 30
0.0
 11
1813.153409090909
 21
638.475
 31
0.0
  0
LINE
  5
1B3
  8
1
  6
________________
 62
     7
 10
1813.589772727273
 20
638.475
 30
0.0
 11
1813.589772727273
 21
638.5
 31
0.0
  0
ENDBLK
  8
0
  0
BLOCK
  8
0
  2
_4484
 70
     0
 10
0.0
 20
0.0
 30
0.0
  0
LINE
  5
1B8
  8
1
  6
________________
 62
     7
 10
1840.8
 20
167.8500000000004
 30
0.0
 11
1844.8
 21
167.8500000000004
 31
0.0
  0
LINE
  5
1B9
  8
1
  6
________________
 62
     7
 10
1840.8
 20
567.8499999999997
 30
0.0
 11
1844.8
 21
567.8499999999997
 31
0.0
  0
LINE
  5
1BA
  8
1
  6
________________
 62
     7
 10
1852.8
 20
167.8500000000002
 30
0.0
 11
1858.267024840268
 21
167.85
 31
0.0
  0
LINE
  5
1BB
  8
1
  6
________________
 62
     7
 10
1852.8
 20
567.85
 30
0.0
 11
1858.267024840268
 21
567.85
 31
0.0
  0
LINE
  5
1BC
  8
1
  6
________________
 62
     7
 10
1846.8
 20
167.8500000000002
 30
0.0
 11
1850.8
 21
167.8500000000004
 31
0.0
  0
LINE
  5
1BD
  8
1
  6
________________
 62
     7
 10
1846.8
 20
567.85
 30
0.0
 11
1850.8
 21
567.8499999999997
 31
0.0
  0
LINE
  5
1BE
  8
1
  6
________________
 62
     7
 10
1834.8
 20
167.8500000000004
 30
0.0
 11
1838.8
 21
167.8500000000004
 31
0.0
  0
LINE
  5
1BF
  8
1
  6
________________
 62
     7
 10
1834.8
 20
567.8499999999997
 30
0.0
 11
1838.8
 21
567.8499999999997
 31
0.0
  0
LINE
  5
1C0
  8
1
  6
________________
 62
     7
 10
1828.8
 20
167.8500000000004
 30
0.0
 11
1832.8
 21
167.8500000000004
 31
0.0
  0
LINE
  5
1C1
  8
1
  6
________________
 62
     7
 10
1828.8
 20
567.8499999999997
 30
0.0
 11
1832.8
 21
567.8499999999997
 31
0.0
  0
LINE
  5
1C2
  8
1
  6
________________
 62
     7
 10
1822.8
 20
167.8500000000004
 30
0.0
 11
1826.8
 21
167.8500000000004
 31
0.0
  0
LINE
  5
1C3
  8
1
  6
________________
 62
     7
 10
1822.8
 20
567.8499999999997
 30
0.0
 11
1826.8
 21
567.8499999999997
 31
0.0
  0
LINE
  5
1C4
  8
1
  6
________________
 62
     7
 10
1787.8
 20
167.8500000000004
 30
0.0
 11
1783.8
 21
167.8500000000004
 31
0.0
  0
LINE
  5
1C5
  8
1
  6
________________
 62
     7
 10
1787.8
 20
567.8499999999997
 30
0.0
 11
1783.8
 21
567.8499999999997
 31
0.0
  0
LINE
  5
1C6
  8
1
  6
________________
 62
     7
 10
1775.8
 20
167.8500000000004
 30
0.0
 11
1771.8
 21
167.8500000000004
 31
0.0
  0
LINE
  5
1C7
  8
1
  6
________________
 62
     7
 10
1775.8
 20
567.8499999999997
 30
0.0
 11
1771.8
 21
567.8499999999997
 31
0.0
  0
LINE
  5
1C8
  8
1
  6
________________
 62
     7
 10
1769.8
 20
167.8500000000004
 30
0.0
 11
1765.8
 21
167.8500000000004
 31
0.0
  0
LINE
  5
1C9
  8
1
  6
________________
 62
     7
 10
1769.8
 20
567.8499999999997
 30
0.0
 11
1765.8
 21
567.8499999999997
 31
0.0
  0
LINE
  5
1CA
  8
1
  6
________________
 62
     7
 10
1757.8
 20
167.8500000000002
 30
0.0
 11
1752.332975159731
 21
167.85
 31
0.0
  0
LINE
  5
1CB
  8
1
  6
________________
 62
     7
 10
1757.8
 20
567.85
 30
0.0
 11
1752.332975159731
 21
567.85
 31
0.0
  0
LINE
  5
1CC
  8
1
  6
________________
 62
     7
 10
1781.8
 20
167.8500000000004
 30
0.0
 11
1777.8
 21
167.8500000000004
 31
0.0
  0
LINE
  5
1CD
  8
1
  6
________________
 62
     7
 10
1781.8
 20
567.8499999999997
 30
0.0
 11
1777.8
 21
567.8499999999997
 31
0.0
  0
LINE
  5
1CE
  8
1
  6
________________
 62
     7
 10
1763.8
 20
167.8500000000002
 30
0.0
 11
1759.8
 21
167.8500000000004
 31
0.0
  0
LINE
  5
1CF
  8
1
  6
________________
 62
     7
 10
1763.8
 20
567.85
 30
0.0
 11
1759.8
 21
567.8499999999997
 31
0.0
  0
LINE
  5
1D0
  8
1
  6
________________
 62
     7
 10
1799.3
 20
167.85
 30
0.0
 11
1799.3
 21
567.8499999999999
 31
0.0
  0
LINE
  5
1D1
  8
1
  6
________________
 62
     7
 10
1799.3
 20
167.85
 30
0.0
 11
1789.8
 21
167.8500000000004
 31
0.0
  0
LINE
  5
1D2
  8
1
  6
________________
 62
     7
 10
1799.3
 20
567.85
 30
0.0
 11
1789.8
 21
567.85
 31
0.0
  0
LINE
  5
1D3
  8
1
  6
________________
 62
     7
 10
1811.3
 20
167.85
 30
0.0
 11
1820.8
 21
167.8500000000004
 31
0.0
  0
LINE
  5
1D4
  8
1
  6
________________
 62
     7
 10
1811.3
 20
167.85
 30
0.0
 11
1811.3
 21
567.8499999999999
 31
0.0
  0
LINE
  5
1D5
  8
1
  6
________________
 62
     7
 10
1811.3
 20
567.85
 30
0.0
 11
1820.8
 21
567.85
 31
0.0
  0
LINE
  5
1D6
  8
1
  6
________________
 62
     7
 10
1745.332975159731
 20
567.85
 30
0.0
 11
1752.332975159731
 21
567.85
 31
0.0
  0
LINE
  5
1D7
  8
1
  6
________________
 62
     7
 10
1752.332975159731
 20
167.85
 30
0.0
 11
1745.332975159731
 21
167.85
 31
0.0
  0
LINE
  5
1D8
  8
1
  6
________________
 62
     7
 10
1865.267024840268
 20
167.85
 30
0.0
 11
1858.267024840268
 21
167.85
 31
0.0
  0
LINE
  5
1D9
  8
1
  6
________________
 62
     7
 10
1858.267024840268
 20
567.85
 30
0.0
 11
1865.267024840268
 21
567.85
 31
0.0
  0
LINE
  5
1DA
  8
1
  6
________________
 62
     7
 10
1844.8
 20
167.8500000000002
 30
0.0
 11
1846.8
 21
167.8500000000002
 31
0.0
  0
LINE
  5
1DB
  8
1
  6
________________
 62
     7
 10
1846.8
 20
567.8499999999997
 30
0.0
 11
1844.8
 21
567.8499999999997
 31
0.0
  0
LINE
  5
1DC
  8
1
  6
________________
 62
     7
 10
1820.8
 20
167.8500000000002
 30
0.0
 11
1822.8
 21
167.8500000000002
 31
0.0
  0
LINE
  5
1DD
  8
1
  6
________________
 62
     7
 10
1822.8
 20
567.8499999999997
 30
0.0
 11
1820.8
 21
567.8499999999997
 31
0.0
  0
LINE
  5
1DE
  8
1
  6
________________
 62
     7
 10
1783.8
 20
167.8500000000002
 30
0.0
 11
1781.8
 21
167.8500000000002
 31
0.0
  0
LINE
  5
1DF
  8
1
  6
________________
 62
     7
 10
1781.8
 20
567.8499999999997
 30
0.0
 11
1783.8
 21
567.8499999999997
 31
0.0
  0
LINE
  5
1E0
  8
1
  6
________________
 62
     7
 10
1826.8
 20
167.8500000000002
 30
0.0
 11
1828.8
 21
167.8500000000002
 31
0.0
  0
LINE
  5
1E1
  8
1
  6
________________
 62
     7
 10
1828.8
 20
567.8499999999997
 30
0.0
 11
1826.8
 21
567.8499999999997
 31
0.0
  0
LINE
  5
1E2
  8
1
  6
________________
 62
     7
 10
1850.8
 20
167.8500000000002
 30
0.0
 11
1852.8
 21
167.8500000000002
 31
0.0
  0
LINE
  5
1E3
  8
1
  6
________________
 62
     7
 10
1852.8
 20
567.8499999999997
 30
0.0
 11
1850.8
 21
567.8499999999997
 31
0.0
  0
LINE
  5
1E4
  8
1
  6
________________
 62
     7
 10
1777.8
 20
167.8500000000002
 30
0.0
 11
1775.8
 21
167.8500000000002
 31
0.0
  0
LINE
  5
1E5
  8
1
  6
________________
 62
     7
 10
1775.8
 20
567.8499999999997
 30
0.0
 11
1777.8
 21
567.8499999999997
 31
0.0
  0
LINE
  5
1E6
  8
1
  6
________________
 62
     7
 10
1765.8
 20
167.8500000000002
 30
0.0
 11
1763.8
 21
167.8500000000002
 31
0.0
  0
LINE
  5
1E7
  8
1
  6
________________
 62
     7
 10
1763.8
 20
567.8499999999997
 30
0.0
 11
1765.8
 21
567.8499999999997
 31
0.0
  0
LINE
  5
1E8
  8
1
  6
________________
 62
     7
 10
1832.8
 20
167.8500000000002
 30
0.0
 11
1834.8
 21
167.8500000000002
 31
0.0
  0
LINE
  5
1E9
  8
1
  6
________________
 62
     7
 10
1834.8
 20
567.8499999999997
 30
0.0
 11
1832.8
 21
567.8499999999997
 31
0.0
  0
LINE
  5
1EA
  8
1
  6
________________
 62
     7
 10
1759.8
 20
167.8500000000002
 30
0.0
 11
1757.8
 21
167.8500000000002
 31
0.0
  0
LINE
  5
1EB
  8
1
  6
________________
 62
     7
 10
1757.8
 20
567.8499999999997
 30
0.0
 11
1759.8
 21
567.8499999999997
 31
0.0
  0
LINE
  5
1EC
  8
1
  6
________________
 62
     7
 10
1838.8
 20
167.8500000000002
 30
0.0
 11
1840.8
 21
167.8500000000002
 31
0.0
  0
LINE
  5
1ED
  8
1
  6
________________
 62
     7
 10
1840.8
 20
567.8499999999997
 30
0.0
 11
1838.8
 21
567.8499999999997
 31
0.0
  0
LINE
  5
1EE
  8
1
  6
________________
 62
     7
 10
1771.8
 20
167.8500000000002
 30
0.0
 11
1769.8
 21
167.8500000000002
 31
0.0
  0
LINE
  5
1EF
  8
1
  6
________________
 62
     7
 10
1769.8
 20
567.8499999999997
 30
0.0
 11
1771.8
 21
567.8499999999997
 31
0.0
  0
LINE
  5
1F0
  8
1
  6
________________
 62
     7
 10
1789.8
 20
167.8500000000002
 30
0.0
 11
1787.8
 21
167.8500000000002
 31
0.0
  0
LINE
  5
1F1
  8
1
  6
________________
 62
     7
 10
1787.8
 20
567.8499999999997
 30
0.0
 11
1789.8
 21
567.8499999999997
 31
0.0
  0
LINE
  5
1F2
  8
1
  6
________________
 62
     7
 10
1799.3
 20
167.85
 30
0.0
 11
1811.3
 21
167.85
 31
0.0
  0
LINE
  5
1F3
  8
1
  6
________________
 62
     7
 10
1799.3
 20
567.85
 30
0.0
 11
1811.3
 21
567.85
 31
0.0
  0
LINE
  5
1F4
  8
1
  6
________________
 62
     7
 10
1745.332975159731
 20
567.85
 30
0.0
 11
1745.332975159731
 21
167.8500000000001
 31
0.0
  0
LINE
  5
1F5
  8
1
  6
________________
 62
     7
 10
1865.267024840268
 20
167.85
 30
0.0
 11
1865.267024840268
 21
567.8499999999999
 31
0.0
  0
ENDBLK
  8
0
  0
BLOCK
  8
0
  2
_4512
 70
     0
 10
0.0
 20
0.0
 30
0.0
  0
LINE
  5
1FA
  8
1
  6
________________
 62
     7
 10
1946.9
 20
638.5
 30
0.0
 11
1946.9
 21
645.5659488559893
 31
0.0
  0
LINE
  5
1FB
  8
1
  6
________________
 62
     7
 10
2346.9
 20
645.5659488559893
 30
0.0
 11
2346.9
 21
638.5
 31
0.0
  0
LINE
  5
1FC
  8
1
  6
________________
 62
     7
 10
2346.9
 20
638.5
 30
0.0
 11
1946.9
 21
638.5
 31
0.0
  0
LINE
  5
1FD
  8
1
  6
________________
 62
     7
 10
2346.9
 20
645.5659488559893
 30
0.0
 11
2346.9
 21
757.658878504673
 31
0.0
  0
LINE
  5
1FE
  8
1
  6
________________
 62
     7
 10
1946.9
 20
645.5659488559893
 30
0.0
 11
1946.9
 21
757.658878504673
 31
0.0
  0
LINE
  5
1FF
  8
1
  6
________________
 62
     7
 10
1946.9
 20
758.5
 30
0.0
 11
2346.9
 21
758.5
 31
0.0
  0
LINE
  5
200
  8
1
  6
________________
 62
     7
 10
2346.9
 20
758.5
 30
0.0
 11
2346.9
 21
757.6588785046729
 31
0.0
  0
LINE
  5
201
  8
1
  6
________________
 62
     7
 10
1946.9
 20
757.6588785046729
 30
0.0
 11
1946.9
 21
758.5
 31
0.0
  0
LINE
  5
202
  8
1
  6
________________
 62
     7
 10
1946.9
 20
773.5000000000001
 30
0.0
 11
2346.9
 21
773.5000000000001
 31
0.0
  0
LINE
  5
203
  8
1
  6
________________
 62
     7
 10
2346.9
 20
773.5000000000001
 30
0.0
 11
2346.9
 21
770.4387755102041
 31
0.0
  0
LINE
  5
204
  8
1
  6
________________
 62
     7
 10
1946.9
 20
770.4387755102041
 30
0.0
 11
1946.9
 21
773.5000000000001
 31
0.0
  0
LINE
  5
205
  8
1
  6
________________
 62
     7
 10
2346.9
 20
758.5
 30
0.0
 11
2346.9
 21
770.4387755102041
 31
0.0
  0
LINE
  5
206
  8
1
  6
________________
 62
     7
 10
1946.9
 20
758.5
 30
0.0
 11
1946.9
 21
770.4387755102041
 31
0.0
  0
LINE
  5
207
  8
1
  6
________________
 62
     7
 10
2346.9
 20
773.5000000000001
 30
0.0
 11
2346.9
 21
774.490990990991
 31
0.0
  0
LINE
  5
208
  8
1
  6
________________
 62
     7
 10
1946.9
 20
774.490990990991
 30
0.0
 11
1946.9
 21
773.5000000000001
 31
0.0
  0
LINE
  5
209
  8
1
  6
________________
 62
     7
 10
2346.9
 20
774.490990990991
 30
0.0
 11
2346.9
 21
835.4185520361992
 31
0.0
  0
LINE
  5
20A
  8
1
  6
________________
 62
     7
 10
1946.9
 20
774.490990990991
 30
0.0
 11
1946.9
 21
835.4185520361992
 31
0.0
  0
LINE
  5
20B
  8
1
  6
________________
 62
     7
 10
1946.9
 20
838.5
 30
0.0
 11
2346.9
 21
838.5
 31
0.0
  0
LINE
  5
20C
  8
1
  6
________________
 62
     7
 10
2346.9
 20
838.5
 30
0.0
 11
2346.9
 21
837.35
 31
0.0
  0
LINE
  5
20D
  8
1
  6
________________
 62
     7
 10
1946.9
 20
837.35
 30
0.0
 11
1946.9
 21
838.5
 31
0.0
  0
LINE
  5
20E
  8
1
  6
________________
 62
     7
 10
2346.9
 20
836.2
 30
0.0
 11
1946.9
 21
836.2
 31
0.0
  0
LINE
  5
20F
  8
1
  6
________________
 62
     7
 10
2346.9
 20
837.35
 30
0.0
 11
2346.9
 21
836.2
 31
0.0
  0
LINE
  5
210
  8
1
  6
________________
 62
     7
 10
1946.9
 20
836.2
 30
0.0
 11
1946.9
 21
837.35
 31
0.0
  0
LINE
  5
211
  8
1
  6
________________
 62
     7
 10
2346.9
 20
835.4185520361992
 30
0.0
 11
2346.9
 21
836.2
 31
0.0
  0
LINE
  5
212
  8
1
  6
________________
 62
     7
 10
1946.9
 20
836.2
 30
0.0
 11
1946.9
 21
835.4185520361992
 31
0.0
  0
LINE
  5
213
  8
1
  6
________________
 62
     7
 10
2116.881818181818
 20
638.475
 30
0.0
 11
2116.881818181818
 21
638.5
 31
0.0
  0
ENDBLK
  8
0
  0
ENDSEC
  0
SECTION
  2
ENTITIES
  0
INSERT
  5
1B4
  8
1
  6
________________
 62
     7
  2
_3912
 10
0.0
 20
0.0
 30
0.0
  0
INSERT
  5
1F6
  8
1
  6
________________
 62
     7
  2
_4484
 10
0.0
 20
0.0
 30
0.0
  0
INSERT
  5
214
  8
1
  6
________________
 62
     7
  2
_4512
 10
0.0
 20
0.0
 30
0.0
  0
TEXT
  5
215
  8
1
 62
     7
 10
2158.697
 20
547.0295454545454
 30
0.0
 40
3.0
  1
GKB20-400
  7
EXPLODED0
  0
LINE
  5
216
  8
1
  6
________________0
 62
     1
 10
1805.3
 20
858.5
 30
0.0
 11
1805.3
 21
623.5
 31
0.0
  0
LINE
  5
218
  8
1
  6
________________0
 62
     1
 10
1805.3
 20
592.85
 30
0.0
 11
1805.3
 21
107.85
 31
0.0
  0
POINT
  5
219
  8
1
 62
     7
 10
1835.3
 20
858.5
 30
0.0
  0
POINT
  5
21A
  8
1
 62
     7
 10
1835.3
 20
623.5
 30
0.0
  0
POINT
  5
21B
  8
1
 62
     7
 10
1815.3
 20
592.85
 30
0.0
  0
POINT
  5
21C
  8
1
 62
     7
 10
1860.3
 20
107.85
 30
0.0
  0
ENDSEC
  0
EOF
