  0
SECTION
  2
HEADER
  9
$ACADVER
  1
AC1006
  9
$DWGCODEPAGE
  3
ansi_932
  9
$INSBASE
 10
0.0
 20
0.0
 30
0.0
  9
$EXTMIN
 10
301.5
 20
66.49999999999999
  9
$EXTMAX
 10
527.0000000000001
 20
284.9999999999999
  9
$LIMMIN
 10
0.0
 20
0.0
  9
$LIMMAX
 10
12.0
 20
9.0
  9
$ORTHOMODE
 70
     0
  9
$REGENMODE
 70
     1
  9
$FILLMODE
 70
     1
  9
$QTEXTMODE
 70
     0
  9
$MIRRTEXT
 70
     1
  9
$DRAGMODE
 70
     2
  9
$LTSCALE
 40
1.0
  9
$OSMODE
 70
    37
  9
$ATTMODE
 70
     1
  9
$TEXTSIZE
 40
0.2
  9
$TRACEWID
 40
0.05
  9
$TEXTSTYLE
  7
STANDARD
  9
$CLAYER
  8
0
  9
$CELTYPE
  6
BYLAYER
  9
$CECOLOR
 62
   256
  9
$DIMSCALE
 40
1.0
  9
$DIMASZ
 40
3.0
  9
$DIMEXO
 40
0.0625
  9
$DIMDLI
 40
0.38
  9
$DIMRND
 40
0.0
  9
$DIMDLE
 40
0.0
  9
$DIMEXE
 40
1.5
  9
$DIMTP
 40
0.0
  9
$DIMTM
 40
0.0
  9
$DIMTXT
 40
3.0
  9
$DIMCEN
 40
0.09
  9
$DIMTSZ
 40
0.0
  9
$DIMTOL
 70
     0
  9
$DIMLIM
 70
     0
  9
$DIMTIH
 70
     1
  9
$DIMTOH
 70
     1
  9
$DIMSE1
 70
     0
  9
$DIMSE2
 70
     0
  9
$DIMTAD
 70
     1
  9
$DIMZIN
 70
     0
  9
$DIMBLK
  1

  9
$DIMASO
 70
     1
  9
$DIMSHO
 70
     1
  9
$DIMPOST
  1

  9
$DIMAPOST
  1

  9
$DIMALT
 70
     0
  9
$DIMALTD
 70
     2
  9
$DIMALTF
 40
25.4
  9
$DIMLFAC
 40
1.0
  9
$DIMTOFL
 70
     0
  9
$DIMTVP
 40
0.0
  9
$DIMTIX
 70
     0
  9
$DIMSOXD
 70
     0
  9
$DIMSAH
 70
     0
  9
$DIMBLK1
  1

  9
$DIMBLK2
  1

  9
$LUNITS
 70
     2
  9
$LUPREC
 70
     4
  9
$SKETCHINC
 40
0.1
  9
$FILLETRAD
 40
0.5
  9
$AUNITS
 70
     0
  9
$AUPREC
 70
     0
  9
$MENU
  1
.
  9
$ELEVATION
 40
0.0
  9
$THICKNESS
 40
0.0
  9
$LIMCHECK
 70
     0
  9
$CHAMFERA
 40
0.0
  9
$CHAMFERB
 40
0.0
  9
$SKPOLY
 70
     0
  9
$TDCREATE
 40
2459089.531420857
  9
$TDUPDATE
 40
2459089.531421146
  9
$TDINDWG
 40
0.0000000116
  9
$TDUSRTIMER
 40
0.0000000116
  9
$USRTIMER
 70
     1
  9
$ANGBASE
 50
0.0
  9
$ANGDIR
 70
     0
  9
$PDMODE
 70
     0
  9
$PDSIZE
 40
0.0
  9
$PLINEWID
 40
0.0
  9
$COORDS
 70
     1
  9
$SPLFRAME
 70
     0
  9
$SPLINETYPE
 70
     6
  9
$SPLINESEGS
 70
     8
  9
$ATTDIA
 70
     0
  9
$ATTREQ
 70
     1
  9
$HANDLING
 70
     1
  9
$HANDSEED
  5
17E
  9
$SURFTAB1
 70
     6
  9
$SURFTAB2
 70
     6
  9
$SURFTYPE
 70
     6
  9
$SURFU
 70
     6
  9
$SURFV
 70
     6
  9
$UCSNAME
  2

  9
$UCSORG
 10
0.0
 20
0.0
 30
0.0
  9
$UCSXDIR
 10
1.0
 20
0.0
 30
0.0
  9
$UCSYDIR
 10
0.0
 20
1.0
 30
0.0
  9
$USERI1
 70
     0
  9
$USERI2
 70
     0
  9
$USERI3
 70
     0
  9
$USERI4
 70
     0
  9
$USERI5
 70
     0
  9
$USERR1
 40
0.0
  9
$USERR2
 40
0.0
  9
$USERR3
 40
0.0
  9
$USERR4
 40
0.0
  9
$USERR5
 40
0.0
  9
$WORLDVIEW
 70
     1
  0
ENDSEC
  0
SECTION
  2
TABLES
  0
TABLE
  2
VPORT
 70
     1
  0
VPORT
  2
*ACTIVE
 70
     0
 10
0.0
 20
0.0
 11
1.0
 21
1.0
 12
414.2500000000001
 22
175.75
 13
0.0
 23
0.0
 14
0.5
 24
0.5
 15
0.5
 25
0.5
 16
0.0
 26
0.0
 36
1.0
 17
0.0
 27
0.0
 37
0.0
 40
218.4999999999999
 41
1.6
 42
50.0
 43
0.0
 44
0.0
 50
0.0
 51
0.0
 71
     0
 72
   100
 73
     1
 74
     3
 75
     0
 76
     0
 77
     0
 78
     0
  0
ENDTAB
  0
TABLE
  2
LTYPE
 70
     2
  0
LTYPE
  2
CONTINUOUS
 70
     0
  3
Solid line
 72
    65
 73
     0
 40
0.0
  0
LTYPE
  2
CENTER
 70
     0
  3

 72
    65
 73
     0
 40
0.0
  0
ENDTAB
  0
TABLE
  2
LAYER
 70
     2
  0
LAYER
  2
0
 70
     0
 62
     7
  6
CONTINUOUS
  0
LAYER
  2
1
 70
     0
 62
     7
  6
CONTINUOUS
  0
ENDTAB
  0
TABLE
  2
STYLE
 70
     2
  0
STYLE
  2
STANDARD
 70
     0
 40
0.0
 41
1.0
 50
0.0
 71
     0
 42
0.2
  3
txt
  4

  0
STYLE
  2
ＭＳ_ゴシック
 70
     0
 40
0.0
 41
1.0
 50
0.0
 71
     0
 42
0.2
  3
ＭＳ ゴシック.shx
  4

  0
ENDTAB
  0
TABLE
  2
VIEW
 70
     0
  0
ENDTAB
  0
TABLE
  2
UCS
 70
     0
  0
ENDTAB
  0
ENDSEC
  0
SECTION
  2
BLOCKS
  0
BLOCK
  8
0
  2
D_FRAME_VIEW_3998
 70
     0
 10
0.0
 20
0.0
 30
0.0
  0
CIRCLE
  5
76
  8
1
  6
CONTINUOUS
 62
     9
 10
351.5
 20
230.0
 30
0.0
 40
4.762500000000003
  0
CIRCLE
  5
77
  8
1
  6
CONTINUOUS
 62
     7
 10
351.5
 20
230.0
 30
0.0
 40
3.968749999999965
  0
ARC
  5
78
  8
1
  6
CONTINUOUS
 62
     9
 10
91.50000000000003
 20
230.0
 30
0.0
 40
290.5825156464546
 50
355.2908570054429
 51
4.709142994557112
  0
ARC
  5
79
  8
1
  6
CONTINUOUS
 62
     9
 10
371.2133766560137
 20
206.9549599599969
 30
0.0
 40
9.921427144470169
 50
273.9633638990815
 51
355.3108670105805
  0
ARC
  5
7A
  8
1
  6
CONTINUOUS
 62
     9
 10
351.5
 20
490.0
 30
0.0
 40
293.6521296690274
 50
266.0166260957811
 51
273.9833739042189
  0
ARC
  5
7B
  8
1
  6
CONTINUOUS
 62
     9
 10
331.7866233439819
 20
206.9549599599924
 30
0.0
 40
9.921427144465257
 50
184.6891329893955
 51
266.0366361009425
  0
ARC
  5
7C
  8
1
  6
CONTINUOUS
 62
     7
 10
351.5
 20
230.0
 30
0.0
 40
5.49999999999999
 50
39.52119635864219
 51
140.4788036413578
  0
LINE
  5
7D
  8
1
  6
CONTINUOUS
 62
     7
 10
343.15
 20
233.5
 30
0.0
 11
347.2573593128807
 21
233.5
 31
0.0
  0
LINE
  5
7E
  8
1
  6
CONTINUOUS
 62
     7
 10
343.15
 20
226.5
 30
0.0
 11
343.15
 21
233.5
 31
0.0
  0
LINE
  5
7F
  8
1
  6
CONTINUOUS
 62
     7
 10
359.85
 20
226.5
 30
0.0
 11
355.7426406871193
 21
226.5
 31
0.0
  0
LINE
  5
80
  8
1
  6
CONTINUOUS
 62
     7
 10
359.85
 20
233.5
 30
0.0
 11
359.85
 21
226.5
 31
0.0
  0
LINE
  5
81
  8
1
  6
CONTINUOUS
 62
     7
 10
359.85
 20
233.5
 30
0.0
 11
355.7426406871193
 21
233.5
 31
0.0
  0
ARC
  5
82
  8
1
  6
CONTINUOUS
 62
     7
 10
351.5
 20
230.0
 30
0.0
 40
5.49999999999999
 50
219.5211963586422
 51
320.4788036413578
  0
LINE
  5
83
  8
1
  6
CONTINUOUS
 62
     7
 10
343.15
 20
226.5
 30
0.0
 11
347.2573593128807
 21
226.5
 31
0.0
  0
LINE
  5
84
  8
1
  6
CONTINUOUS
 62
     9
 10
325.0
 20
215.2671504320407
 30
0.0
 11
378.0
 21
215.2671504320407
 31
0.0
  0
ARC
  5
85
  8
1
  6
CONTINUOUS
 62
     9
 10
351.5
 20
-30.00000000000002
 30
0.0
 40
293.6521296690274
 50
86.01662609578108
 51
93.98337390421898
  0
ARC
  5
86
  8
1
  6
CONTINUOUS
 62
     7
 10
378.0000000000001
 20
216.5
 30
0.0
 40
1.232849567959327
 50
269.9999999999995
 51
90.00000000000216
  0
ARC
  5
87
  8
1
  6
CONTINUOUS
 62
     9
 10
331.7866233439864
 20
253.045040040003
 30
0.0
 40
9.921427144470169
 50
93.96336389908153
 51
175.3108670105806
  0
LINE
  5
88
  8
1
  6
CONTINUOUS
 62
     9
 10
325.0
 20
242.2671504320407
 30
0.0
 11
378.0000000000001
 21
242.2671504320407
 31
0.0
  0
ARC
  5
89
  8
1
  6
CONTINUOUS
 62
     9
 10
325.0
 20
243.5
 30
0.0
 40
1.232849567959327
 50
89.99999999999952
 51
270.0000000000021
  0
ARC
  5
8A
  8
1
  6
CONTINUOUS
 62
     7
 10
378.0
 20
243.5
 30
0.0
 40
1.232849567959299
 50
270.0000000000002
 51
89.9999999999975
  0
LINE
  5
8B
  8
1
  6
CONTINUOUS
 62
     9
 10
378.0000000000001
 20
244.7328495679592
 30
0.0
 11
325.0000000000001
 21
244.7328495679592
 31
0.0
  0
ARC
  5
8C
  8
1
  6
CONTINUOUS
 62
     9
 10
325.0000000000001
 20
216.5
 30
0.0
 40
1.232849567959299
 50
90.00000000000016
 51
269.9999999999976
  0
LINE
  5
8D
  8
1
  6
CONTINUOUS
 62
     9
 10
378.0000000000001
 20
217.7328495679593
 30
0.0
 11
325.0
 21
217.7328495679593
 31
0.0
  0
ARC
  5
8E
  8
1
  6
CONTINUOUS
 62
     9
 10
371.2133766560179
 20
253.0450400400073
 30
0.0
 40
9.921427144465605
 50
4.689132989396739
 51
86.03663610094134
  0
ARC
  5
8F
  8
1
  6
CONTINUOUS
 62
     9
 10
611.5
 20
230.0
 30
0.0
 40
290.5825156464546
 50
175.290857005443
 51
184.7091429945571
  0
LINE
  5
90
  8
1
  6
CONTINUOUS
 62
     9
 10
319.1516200035753
 20
202.9382364609815
 30
0.0
 11
319.7645118040382
 21
202.9777336932176
 31
0.0
  0
ARC
  5
91
  8
1
  6
CONTINUOUS
 62
     9
 10
611.5
 20
230.0
 30
0.0
 40
293.5982192254846
 50
185.2886178067635
 51
186.4481459855446
  0
ARC
  5
92
  8
1
  6
CONTINUOUS
 62
     9
 10
611.5
 20
230.0
 30
0.0
 40
293.5982192254846
 50
173.5518540144553
 51
174.7113821932364
  0
ARC
  5
93
  8
1
  6
CONTINUOUS
 62
     9
 10
91.50000000000003
 20
230.0
 30
0.0
 40
293.5982192254846
 50
5.288617806763455
 51
6.44814598554467
  0
ARC
  5
94
  8
1
  6
CONTINUOUS
 62
     9
 10
91.50000000000003
 20
230.0
 30
0.0
 40
293.5982192254846
 50
353.5518540144553
 51
354.7113821932364
  0
LINE
  5
95
  8
1
  6
CONTINUOUS
 62
     7
 10
350.0
 20
215.5292810388515
 30
0.0
 11
353.0000000000001
 21
215.5292810388515
 31
0.0
  0
LINE
  5
96
  8
1
  6
CONTINUOUS
 62
     7
 10
353.0000000000001
 20
217.4707189611485
 30
0.0
 11
350.0
 21
217.4707189611485
 31
0.0
  0
LINE
  5
97
  8
1
  6
CONTINUOUS
 62
     7
 10
350.0
 20
242.5292810388515
 30
0.0
 11
353.0000000000001
 21
242.5292810388515
 31
0.0
  0
LINE
  5
98
  8
1
  6
CONTINUOUS
 62
     7
 10
353.0000000000001
 20
244.4707189611485
 30
0.0
 11
350.0
 21
244.4707189611485
 31
0.0
  0
ARC
  5
99
  8
1
  6
CONTINUOUS
 62
     7
 10
373.7973571098921
 20
256.0751440545186
 30
0.0
 40
10.05723575966583
 50
22.86449018760635
 51
85.6529950256088
  0
ARC
  5
9A
  8
1
  6
CONTINUOUS
 62
     7
 10
373.0392232980137
 20
255.7264332288479
 30
0.0
 40
10.89132570296498
 50
7.042464901792695
 51
23.00514104156435
  0
ARC
  5
9B
  8
1
  6
CONTINUOUS
 62
     7
 10
329.2026428901079
 20
203.9248559454813
 30
0.0
 40
10.05723575966577
 50
202.8644901876056
 51
265.652995025609
  0
ARC
  5
9C
  8
1
  6
CONTINUOUS
 62
     7
 10
329.9728854952943
 20
204.2768167047926
 30
0.0
 40
10.90374173902652
 50
187.0516123541977
 51
202.9959935891566
  0
ARC
  5
9D
  8
1
  6
CONTINUOUS
 62
     7
 10
329.9474345145724
 20
255.730014198695
 30
0.0
 40
10.87764529948033
 50
156.984755571327
 51
172.9676384853117
  0
ARC
  5
9E
  8
1
  6
CONTINUOUS
 62
     7
 10
329.2023427833074
 20
256.0755610633425
 30
0.0
 40
10.05679720688784
 50
94.3454801959519
 51
157.1370345908269
  0
ARC
  5
9F
  8
1
  6
CONTINUOUS
 62
     7
 10
373.0375797794126
 20
204.2740078825211
 30
0.0
 40
10.89301090712546
 50
336.9961017592528
 51
352.9562922973822
  0
ARC
  5
A0
  8
1
  6
CONTINUOUS
 62
     7
 10
373.7976572166928
 20
203.9244389366572
 30
0.0
 40
10.05679720688761
 50
274.345480195951
 51
337.1370345908275
  0
ARC
  5
A1
  8
1
  6
CONTINUOUS
 62
     7
 10
351.5
 20
490.0
 30
0.0
 40
297.0
 50
270.4533551745764
 51
274.4530385246377
  0
LINE
  5
A2
  8
1
  6
CONTINUOUS
 62
     7
 10
353.35
 20
193.0284538650707
 30
0.0
 11
353.85
 21
193.0232617726754
 31
0.0
  0
ARC
  5
A3
  8
1
  6
CONTINUOUS
 62
     7
 10
351.5
 20
490.0
 30
0.0
 40
296.9773084155933
 50
269.6430775191947
 51
270.3569224808054
  0
LINE
  5
A4
  8
1
  6
CONTINUOUS
 62
     7
 10
349.15
 20
193.0232617726754
 30
0.0
 11
349.65
 21
193.0284538650707
 31
0.0
  0
ARC
  5
A5
  8
1
  6
CONTINUOUS
 62
     7
 10
351.5
 20
490.0
 30
0.0
 40
296.9999999999999
 50
265.5469614753623
 51
269.5466448254236
  0
ARC
  5
A6
  8
1
  6
CONTINUOUS
 62
     7
 10
351.5
 20
-30.00000000000002
 30
0.0
 40
297.0
 50
90.45335517457647
 51
94.45303852463766
  0
LINE
  5
A7
  8
1
  6
CONTINUOUS
 62
     7
 10
349.65
 20
266.9715461349292
 30
0.0
 11
349.15
 21
266.9767382273245
 31
0.0
  0
ARC
  5
A8
  8
1
  6
CONTINUOUS
 62
     7
 10
351.5
 20
-30.00000000000002
 30
0.0
 40
296.9773084155933
 50
89.64307751919463
 51
90.35692248080535
  0
LINE
  5
A9
  8
1
  6
CONTINUOUS
 62
     7
 10
353.85
 20
266.9767382273245
 30
0.0
 11
353.35
 21
266.9715461349292
 31
0.0
  0
ARC
  5
AA
  8
1
  6
CONTINUOUS
 62
     7
 10
351.5
 20
-30.00000000000002
 30
0.0
 40
296.9999999999999
 50
85.54696147536228
 51
89.54664482542354
  0
LINE
  5
AB
  8
1
  6
CONTINUOUS
 62
     7
 10
349.65
 20
188.4304942916103
 30
0.0
 11
349.15
 21
188.3691020111588
 31
0.0
  0
LINE
  5
AC
  8
1
  6
CONTINUOUS
 62
     7
 10
353.85
 20
188.3691020111588
 30
0.0
 11
353.35
 21
188.4304942916103
 31
0.0
  0
LINE
  5
AD
  8
1
  6
CONTINUOUS
 62
     9
 10
376.3944143266637
 20
274.8526501036786
 30
0.0
 11
379.0298098894247
 21
274.8526501036787
 31
0.0
  0
LINE
  5
AE
  8
1
  6
CONTINUOUS
 62
     9
 10
353.85
 20
271.7830360811062
 30
0.0
 11
373.3782155632545
 21
271.7830360811062
 31
0.0
  0
LINE
  5
AF
  8
1
  6
CONTINUOUS
 62
     7
 10
353.35
 20
271.5695057083897
 30
0.0
 11
353.85
 21
271.6308979888411
 31
0.0
  0
LINE
  5
B0
  8
1
  6
CONTINUOUS
 62
     7
 10
353.35
 20
271.5695057083897
 30
0.0
 11
349.65
 21
271.5695057083897
 31
0.0
  0
LINE
  5
B1
  8
1
  6
CONTINUOUS
 62
     7
 10
349.15
 20
271.6308979888411
 30
0.0
 11
349.65
 21
271.5695057083897
 31
0.0
  0
LINE
  5
B2
  8
1
  6
CONTINUOUS
 62
     9
 10
329.6217844367456
 20
271.7830360811062
 30
0.0
 11
349.15
 21
271.7830360811062
 31
0.0
  0
LINE
  5
B3
  8
1
  6
CONTINUOUS
 62
     9
 10
323.9701901105753
 20
274.8526501036787
 30
0.0
 11
326.6055856733364
 21
274.8526501036787
 31
0.0
  0
LINE
  5
B4
  8
1
  6
CONTINUOUS
 62
     9
 10
379.0740068673893
 20
277.3921791129145
 30
0.0
 11
323.9259931326108
 21
277.3921791129146
 31
0.0
  0
LINE
  5
B5
  8
1
  6
CONTINUOUS
 62
     9
 10
326.6055856733364
 20
185.1473498963213
 30
0.0
 11
323.9701901105753
 21
185.1473498963213
 31
0.0
  0
LINE
  5
B6
  8
1
  6
CONTINUOUS
 62
     9
 10
349.15
 20
188.2169639188938
 30
0.0
 11
329.6217844367456
 21
188.2169639188938
 31
0.0
  0
LINE
  5
B7
  8
1
  6
CONTINUOUS
 62
     7
 10
349.65
 20
188.4304942916103
 30
0.0
 11
353.35
 21
188.4304942916103
 31
0.0
  0
LINE
  5
B8
  8
1
  6
CONTINUOUS
 62
     9
 10
373.3782155632545
 20
188.2169639188938
 30
0.0
 11
353.85
 21
188.2169639188938
 31
0.0
  0
LINE
  5
B9
  8
1
  6
CONTINUOUS
 62
     9
 10
379.0298098894247
 20
185.1473498963212
 30
0.0
 11
376.3944143266637
 21
185.1473498963212
 31
0.0
  0
LINE
  5
BA
  8
1
  6
CONTINUOUS
 62
     9
 10
323.9259931326108
 20
182.6078208870854
 30
0.0
 11
379.0740068673893
 21
182.6078208870854
 31
0.0
  0
ARC
  5
BB
  8
1
  6
CONTINUOUS
 62
     9
 10
329.6082509707902
 20
198.1272762723921
 30
0.0
 40
9.910321594105922
 50
186.3699032448758
 51
270.0782427406691
  0
ARC
  5
BC
  8
1
  6
CONTINUOUS
 62
     9
 10
373.3917490292099
 20
261.8727237276079
 30
0.0
 40
9.910321594105866
 50
6.369903244875331
 51
90.0782427406691
  0
ARC
  5
BD
  8
1
  6
CONTINUOUS
 62
     9
 10
373.391749005667
 20
198.1272762987456
 30
0.0
 40
9.91032162042725
 50
269.9217573956503
 51
353.6300966188053
  0
ARC
  5
BE
  8
1
  6
CONTINUOUS
 62
     9
 10
329.6082509943331
 20
261.8727237012542
 30
0.0
 40
9.91032162042737
 50
89.92175739565063
 51
173.6300966188049
  0
ARC
  5
BF
  8
1
  6
CONTINUOUS
 62
     7
 10
376.335611434156
 20
195.2404595291709
 30
0.0
 40
10.05133187616107
 50
287.393572165772
 51
353.1664098034901
  0
LINE
  5
C0
  8
1
  6
CONTINUOUS
 62
     7
 10
379.0298098894247
 20
185.5568274078172
 30
0.0
 11
379.3402936351089
 21
185.6487361513828
 31
0.0
  0
ARC
  5
C1
  8
1
  6
CONTINUOUS
 62
     7
 10
376.0652313612155
 20
195.9514062964799
 30
0.0
 40
10.8090700859302
 50
271.7451742965113
 51
285.9183771751487
  0
ARC
  5
C2
  8
1
  6
CONTINUOUS
 62
     7
 10
326.6643885658439
 20
264.7595404708292
 30
0.0
 40
10.05133187616083
 50
107.3935721657712
 51
173.1664098034909
  0
LINE
  5
C3
  8
1
  6
CONTINUOUS
 62
     7
 10
323.9701901105753
 20
274.4431725921828
 30
0.0
 11
323.6597063648912
 21
274.3512638486172
 31
0.0
  0
ARC
  5
C4
  8
1
  6
CONTINUOUS
 62
     7
 10
326.9347686387841
 20
264.0485937035218
 30
0.0
 40
10.80907008592847
 50
91.74517429650956
 51
105.9183771751492
  0
ARC
  5
C5
  8
1
  6
CONTINUOUS
 62
     7
 10
326.9284700014353
 20
195.9108682926724
 30
0.0
 40
10.76836025390679
 50
254.054693654242
 51
268.2817548741037
  0
LINE
  5
C6
  8
1
  6
CONTINUOUS
 62
     7
 10
323.6597063648747
 20
185.6487361513879
 30
0.0
 11
323.9701901105754
 21
185.5568274078171
 31
0.0
  0
ARC
  5
C7
  8
1
  6
CONTINUOUS
 62
     7
 10
326.6641636785562
 20
195.2402726914414
 30
0.0
 40
10.05108635665401
 50
186.8326852378718
 51
252.607332792767
  0
ARC
  5
C8
  8
1
  6
CONTINUOUS
 62
     7
 10
376.0715299985648
 20
264.0891317073276
 30
0.0
 40
10.76836025390682
 50
74.05469365424203
 51
88.28175487410383
  0
LINE
  5
C9
  8
1
  6
CONTINUOUS
 62
     7
 10
379.3402936351254
 20
274.3512638486121
 30
0.0
 11
379.0298098894247
 21
274.4431725921828
 31
0.0
  0
ARC
  5
CA
  8
1
  6
CONTINUOUS
 62
     7
 10
376.335836321444
 20
264.7597273085586
 30
0.0
 40
10.0510863566539
 50
6.832685237871488
 51
72.60733279276741
  0
ARC
  5
CB
  8
1
  6
CONTINUOUS
 62
     7
 10
138.8
 20
230.0
 30
0.0
 40
250.0
 50
355.6413179117621
 51
4.35868208823797
  0
ARC
  5
CC
  8
1
  6
CONTINUOUS
 62
     7
 10
611.5
 20
230.0
 30
0.0
 40
297.0
 50
173.0465839535553
 51
176.3321086847976
  0
ARC
  5
CD
  8
1
  6
CONTINUOUS
 62
     7
 10
91.50000000000003
 20
230.0
 30
0.0
 40
297.0
 50
353.0465839535553
 51
356.3321086847976
  0
ARC
  5
CE
  8
1
  6
CONTINUOUS
 62
     7
 10
611.5
 20
230.0
 30
0.0
 40
297.0
 50
183.6678913152022
 51
186.9534160464444
  0
ARC
  5
CF
  8
1
  6
CONTINUOUS
 62
     7
 10
564.2
 20
230.0
 30
0.0
 40
250.0
 50
175.641317911762
 51
184.3586820882379
  0
ARC
  5
D0
  8
1
  6
CONTINUOUS
 62
     7
 10
91.50000000000003
 20
230.0
 30
0.0
 40
297.0
 50
3.667891315202213
 51
6.953416046444449
  0
ARC
  5
D1
  8
1
  6
CONTINUOUS
 62
     9
 10
323.9978665555334
 20
264.8326148803112
 30
0.0
 40
10.02007344599487
 50
90.15825687435337
 51
173.2696044672143
  0
ARC
  5
D2
  8
1
  6
CONTINUOUS
 62
     9
 10
323.9620189289978
 20
267.3648506899519
 30
0.0
 40
10.02739313879536
 50
90.2058491672333
 51
172.8516083714586
  0
ARC
  5
D3
  8
1
  6
CONTINUOUS
 62
     9
 10
379.0022641413835
 20
195.1672385004731
 30
0.0
 40
10.01992646718765
 50
270.1575118439661
 51
353.2703494976016
  0
ARC
  5
D4
  8
1
  6
CONTINUOUS
 62
     9
 10
379.0379810710023
 20
192.6351493100481
 30
0.0
 40
10.02739313879542
 50
270.2058491672333
 51
352.8516083714584
  0
ARC
  5
D5
  8
1
  6
CONTINUOUS
 62
     9
 10
379.002313157378
 20
264.83281648695
 30
0.0
 40
10.01987134534171
 50
6.729371083856676
 51
89.8427675745761
  0
ARC
  5
D6
  8
1
  6
CONTINUOUS
 62
     9
 10
323.9975430055569
 20
195.1670221528726
 30
0.0
 40
10.01970959207749
 50
186.7285511145109
 51
269.8435875439219
  0
ARC
  5
D7
  8
1
  6
CONTINUOUS
 62
     9
 10
323.9622788587048
 20
192.6354428104658
 30
0.0
 40
10.02768757451972
 50
187.1498707693977
 51
269.792671691911
  0
ARC
  5
D8
  8
1
  6
CONTINUOUS
 62
     9
 10
379.0377211412953
 20
267.3645571895341
 30
0.0
 40
10.02768757451972
 50
7.149870769397673
 51
89.79267169191091
  0
ARC
  5
D9
  8
1
  6
CONTINUOUS
 62
     9
 10
611.5
 20
230.0
 30
0.0
 40
299.6245637875995
 50
173.0978820370744
 51
186.9021179629254
  0
ARC
  5
DA
  8
1
  6
CONTINUOUS
 62
     9
 10
91.50000000000003
 20
230.0
 30
0.0
 40
299.6245637875995
 50
353.0978820370745
 51
6.902117962925446
  0
ARC
  5
DB
  8
1
  6
CONTINUOUS
 62
     7
 10
91.50000000000003
 20
230.0
 30
0.0
 40
299.9828495679593
 50
352.6045867879211
 51
7.395413212078892
  0
ARC
  5
DC
  8
1
  6
CONTINUOUS
 62
     9
 10
611.5
 20
230.0
 30
0.0
 40
299.9828495679593
 50
172.6045867879211
 51
187.3954132120789
  0
ARC
  5
DD
  8
1
  6
CONTINUOUS
 62
     7
 10
311.5
 20
190.0
 30
0.0
 40
9.99999999999998
 50
180.0
 51
270.0
  0
ARC
  5
DE
  8
1
  6
CONTINUOUS
 62
     7
 10
391.5000000000001
 20
190.0
 30
0.0
 40
9.999999999999954
 50
270.0
 51
0.0
  0
ARC
  5
DF
  8
1
  6
CONTINUOUS
 62
     7
 10
311.5000000000001
 20
270.0
 30
0.0
 40
10.00000000000001
 50
90.0
 51
180.0
  0
LINE
  5
E0
  8
1
  6
CONTINUOUS
 62
     7
 10
301.5000000000001
 20
190.0
 30
0.0
 11
301.5000000000001
 21
270.0
 31
0.0
  0
ARC
  5
E1
  8
1
  6
CONTINUOUS
 62
     7
 10
391.5000000000001
 20
269.9999999999999
 30
0.0
 40
10.00000000000001
 50
0.0
 51
90.0
  0
LINE
  5
E2
  8
1
  6
CONTINUOUS
 62
     7
 10
311.5000000000001
 20
279.9999999999999
 30
0.0
 11
391.5000000000001
 21
279.9999999999999
 31
0.0
  0
LINE
  5
E3
  8
1
  6
CONTINUOUS
 62
     7
 10
391.5000000000001
 20
180.0
 30
0.0
 11
311.5
 21
180.0
 31
0.0
  0
LINE
  5
E4
  8
1
  6
CONTINUOUS
 62
     7
 10
401.5000000000001
 20
269.9999999999999
 30
0.0
 11
401.5
 21
190.0
 31
0.0
  0
ENDBLK
  8
0
  0
BLOCK
  8
0
  2
D_FRAME_VIEW_4704
 70
     0
 10
0.0
 20
0.0
 30
0.0
  0
ARC
  5
F0
  8
1
  6
CONTINUOUS
 62
     7
 10
520.0000000000001
 20
279.4999999999999
 30
0.0
 40
0.500000000000056
 50
90.0
 51
180.0
  0
LINE
  5
F1
  8
1
  6
CONTINUOUS
 62
     7
 10
520.0000000000001
 20
279.9999999999999
 30
0.0
 11
522.5000000000001
 21
279.9999999999999
 31
0.0
  0
LINE
  5
F2
  8
1
  6
CONTINUOUS
 62
     7
 10
522.5000000000001
 20
227.5
 30
0.0
 11
521.0000000000001
 21
227.5
 31
0.0
  0
LINE
  5
F3
  8
1
  6
CONTINUOUS
 62
     7
 10
521.0000000000001
 20
227.5
 30
0.0
 11
521.0000000000001
 21
232.5
 31
0.0
  0
LINE
  5
F4
  8
1
  6
CONTINUOUS
 62
     7
 10
521.0000000000001
 20
232.5
 30
0.0
 11
522.5000000000001
 21
232.5
 31
0.0
  0
LINE
  5
F5
  8
1
  6
CONTINUOUS
 62
     7
 10
522.5000000000001
 20
180.0
 30
0.0
 11
520.0000000000001
 21
180.0
 31
0.0
  0
ARC
  5
F6
  8
1
  6
CONTINUOUS
 62
     7
 10
520.0000000000001
 20
180.5
 30
0.0
 40
0.5000000000000004
 50
180.0000000000008
 51
270.0
  0
ARC
  5
F7
  8
1
  6
CONTINUOUS
 62
     7
 10
518.5000000000001
 20
181.615274735444
 30
0.0
 40
1.000000000000001
 50
0.0000000000003976
 51
82.99999999999996
  0
ARC
  5
F8
  8
1
  6
CONTINUOUS
 62
     7
 10
518.5000000000001
 20
278.3847252645559
 30
0.0
 40
1.000000000000006
 50
276.9999999999665
 51
0.0
  0
ARC
  5
F9
  8
1
  6
CONTINUOUS
 62
     7
 10
498.0000000000001
 20
185.6436229721419
 30
0.0
 40
0.4999999999999902
 50
189.9966809245461
 51
263.0000000000044
  0
ARC
  5
FA
  8
1
  6
CONTINUOUS
 62
     7
 10
498.0000000000001
 20
274.3563770278581
 30
0.0
 40
0.5000000000000218
 50
97.00000000006199
 51
170.0033190754522
  0
ARC
  5
FB
  8
1
  6
CONTINUOUS
 62
     7
 10
493.2036573956841
 20
186.3088895292273
 30
0.0
 40
0.6605645778181249
 50
176.2973440904446
 51
227.9946164050374
  0
POLYLINE
  5
FC
  8
1
  6
CONTINUOUS
 62
     7
 66
     1
 10
0.0
 20
0.0
 30
0.0
  0
VERTEX
  5
174
  8
1
  6
CONTINUOUS
 62
     7
 10
492.5444716632929
 20
186.3515478423668
 30
0.0
  0
VERTEX
  5
175
  8
1
  6
CONTINUOUS
 62
     7
 10
492.5068051993341
 20
186.9259307239484
 30
0.0
  0
VERTEX
  5
176
  8
1
  6
CONTINUOUS
 62
     7
 10
492.5000000000001
 20
187.5015070841502
 30
0.0
  0
SEQEND
  5
17C
  8
1
  6
CONTINUOUS
 62
     7
  0
ARC
  5
FD
  8
1
  6
CONTINUOUS
 62
     7
 10
493.0000000000001
 20
186.2575457766564
 30
0.0
 40
0.4999999999999956
 50
241.5243384351392
 51
263.0000000000261
  0
ARC
  5
FE
  8
1
  6
CONTINUOUS
 62
     7
 10
493.0000000000001
 20
273.7424542233436
 30
0.0
 40
0.5000000000000072
 50
97.00000000010057
 51
118.4756615649676
  0
ARC
  5
FF
  8
1
  6
CONTINUOUS
 62
     7
 10
494.2789103469061
 20
273.084116756655
 30
0.0
 40
1.872826021087678
 50
144.1123142285778
 51
198.2217353591593
  0
ARC
  5
100
  8
1
  6
CONTINUOUS
 62
     7
 10
487.2500563904579
 20
260.7063584387543
 30
0.0
 40
14.76778714514855
 50
182.8079346166467
 51
194.2878529062335
  0
ARC
  5
101
  8
1
  6
CONTINUOUS
 62
     7
 10
487.6928158400876
 20
199.2270922999575
 30
0.0
 40
15.2133410251677
 50
165.8807935138068
 51
177.0234189633176
  0
ARC
  5
102
  8
1
  6
CONTINUOUS
 62
     7
 10
498.3806289873802
 20
261.0231287242874
 30
0.0
 40
30.88395125354805
 50
179.1595878815557
 51
187.4534736392709
  0
ARC
  5
103
  8
1
  6
CONTINUOUS
 62
     7
 10
473.0000000000001
 20
271.2867630052855
 30
0.0
 40
0.5000000000000004
 50
97.00000000000006
 51
180.0
  0
ARC
  5
104
  8
1
  6
CONTINUOUS
 62
     7
 10
473.0000000000001
 20
188.7132369947145
 30
0.0
 40
0.5000000000000161
 50
185.5000000000007
 51
263.0
  0
ARC
  5
105
  8
1
  6
CONTINUOUS
 62
     7
 10
498.0393907854527
 20
198.9965859716548
 30
0.0
 40
30.54304892513615
 50
172.5001584307896
 51
180.8867800483837
  0
LINE
  5
106
  8
1
  6
CONTINUOUS
 62
     7
 10
467.9390653282975
 20
256.173726607433
 30
0.0
 11
467.7576308543628
 21
257.0168298866137
 31
0.0
  0
LINE
  5
107
  8
1
  6
CONTINUOUS
 62
     7
 10
467.7576308543628
 20
202.9831701133861
 30
0.0
 11
467.9390653282975
 21
203.8262733925669
 31
0.0
  0
LINE
  5
108
  8
1
  6
CONTINUOUS
 62
     7
 10
471.2
 20
188.4304942916103
 30
0.0
 11
471.2
 21
193.0284538650707
 31
0.0
  0
LINE
  5
109
  8
1
  6
CONTINUOUS
 62
     7
 10
471.2
 20
266.9715461349292
 30
0.0
 11
471.2
 21
271.5695057083897
 31
0.0
  0
LINE
  5
10A
  8
1
  6
CONTINUOUS
 62
     7
 10
467.5000000000001
 20
265.9999999999999
 30
0.0
 11
448.3781306565949
 21
263.6521296690272
 31
0.0
  0
LINE
  5
10B
  8
1
  6
CONTINUOUS
 62
     7
 10
448.3781306565949
 20
196.3478703309727
 30
0.0
 11
467.5000000000001
 21
194.0
 31
0.0
  0
ARC
  5
10C
  8
1
  6
CONTINUOUS
 62
     7
 10
468.0000000000001
 20
193.578623956199
 30
0.0
 40
0.5000000000000004
 50
180.0
 51
268.9999999997929
  0
ARC
  5
10D
  8
1
  6
CONTINUOUS
 62
     7
 10
468.0000000000001
 20
266.421376043801
 30
0.0
 40
0.5000000000000235
 50
91.00000000020701
 51
180.0
  0
ARC
  5
10E
  8
1
  6
CONTINUOUS
 62
     7
 10
448.5000000000001
 20
262.659583517386
 30
0.0
 40
1.000000000000025
 50
96.99999999999764
 51
179.9999999999936
  0
ARC
  5
10F
  8
1
  6
CONTINUOUS
 62
     7
 10
448.5000000000001
 20
197.340416482614
 30
0.0
 40
1.000000000000001
 50
180.0000000000064
 51
263.0000000000024
  0
ENDBLK
  8
0
  0
BLOCK
  8
0
  2
D_FRAME_VIEW_4551
 70
     0
 10
0.0
 20
0.0
 30
0.0
  0
ARC
  5
114
  8
1
  6
CONTINUOUS
 62
     7
 10
302.0000000000001
 20
73.49999999999997
 30
0.0
 40
0.5000000000000004
 50
90.0
 51
180.0
  0
LINE
  5
115
  8
1
  6
CONTINUOUS
 62
     7
 10
401.5
 20
73.49999999999997
 30
0.0
 11
401.5
 21
70.99999999999996
 31
0.0
  0
ARC
  5
116
  8
1
  6
CONTINUOUS
 62
     7
 10
401.0
 20
73.49999999999997
 30
0.0
 40
0.5000000000000004
 50
0.0
 51
90.0
  0
LINE
  5
117
  8
1
  6
CONTINUOUS
 62
     7
 10
301.5000000000001
 20
70.99999999999996
 30
0.0
 11
301.5000000000001
 21
73.49999999999997
 31
0.0
  0
LINE
  5
118
  8
1
  6
CONTINUOUS
 62
     7
 10
349.0
 20
72.49999999999997
 30
0.0
 11
354.0000000000001
 21
72.49999999999997
 31
0.0
  0
LINE
  5
119
  8
1
  6
CONTINUOUS
 62
     7
 10
354.0000000000001
 20
72.49999999999997
 30
0.0
 11
354.0000000000001
 21
70.99999999999996
 31
0.0
  0
LINE
  5
11A
  8
1
  6
CONTINUOUS
 62
     7
 10
349.0
 20
70.99999999999996
 30
0.0
 11
349.0
 21
72.49999999999997
 31
0.0
  0
LINE
  5
11B
  8
1
  6
CONTINUOUS
 62
     7
 10
349.15
 20
120.5609346717025
 30
0.0
 11
349.15
 21
121.8
 31
0.0
  0
ARC
  5
11C
  8
1
  6
CONTINUOUS
 62
     7
 10
349.6500000000001
 20
121.7999999999999
 30
0.0
 40
0.5000000000000837
 50
90.00000000000638
 51
179.9999999999905
  0
LINE
  5
11D
  8
1
  6
CONTINUOUS
 62
     7
 10
349.65
 20
122.3
 30
0.0
 11
353.35
 21
122.3
 31
0.0
  0
ARC
  5
11E
  8
1
  6
CONTINUOUS
 62
     7
 10
353.35
 20
121.8
 30
0.0
 40
0.5000000000000004
 50
0.0
 51
90.0
  0
LINE
  5
11F
  8
1
  6
CONTINUOUS
 62
     7
 10
353.85
 20
121.8
 30
0.0
 11
353.85
 21
120.5609346717025
 31
0.0
  0
ARC
  5
120
  8
1
  6
CONTINUOUS
 62
     7
 10
322.5029991463246
 20
78.76688795520744
 30
0.0
 40
17.28789233329137
 50
76.2721823377509
 51
85.13155855689592
  0
ARC
  5
121
  8
1
  6
CONTINUOUS
 62
     7
 10
380.3611433719686
 20
79.59669000733894
 30
0.0
 40
16.44968227725163
 50
94.64223626019606
 51
103.9540228452038
  0
ARC
  5
122
  8
1
  6
CONTINUOUS
 62
     7
 10
380.5515590640069
 20
68.12934331980003
 30
0.0
 40
32.87465303245219
 50
89.10660540299244
 51
97.28814311869098
  0
ARC
  5
123
  8
1
  6
CONTINUOUS
 62
     7
 10
322.433307479795
 20
67.85843887380932
 30
0.0
 40
33.14529423631407
 50
82.74531540428482
 51
90.85993607407698
  0
LINE
  5
124
  8
1
  6
CONTINUOUS
 62
     7
 10
375.5635300012432
 20
100.5609346717025
 30
0.0
 11
376.381102223622
 21
100.738392704083
 31
0.0
  0
LINE
  5
125
  8
1
  6
CONTINUOUS
 62
     7
 10
326.6188977763784
 20
100.7383927040838
 30
0.0
 11
327.4364699987568
 21
100.5609346717025
 31
0.0
  0
ARC
  5
126
  8
1
  6
CONTINUOUS
 62
     7
 10
319.9325542845231
 20
120.0859820421612
 30
0.0
 40
0.9140231679052794
 50
89.80654459519536
 51
148.6926542822378
  0
ARC
  5
127
  8
1
  6
CONTINUOUS
 62
     7
 10
383.0698148814161
 20
120.0902125617218
 30
0.0
 40
0.9098037937563168
 50
31.15724631394471
 51
90.34355480865554
  0
ARC
  5
128
  8
1
  6
CONTINUOUS
 62
     7
 10
320.3711835835971
 20
125.0084655628283
 30
0.0
 40
0.9159126982930358
 50
95.32220188943404
 51
126.7473818153015
  0
POLYLINE
  5
129
  8
1
  6
CONTINUOUS
 62
     7
 66
     1
 10
0.0
 20
0.0
 30
0.0
  0
VERTEX
  5
179
  8
1
  6
CONTINUOUS
 62
     7
 10
320.2862268007532
 20
125.9204296059481
 30
0.0
  0
VERTEX
  5
17A
  8
1
  6
CONTINUOUS
 62
     7
 10
321.0890886259762
 20
125.9891173046061
 30
0.0
  0
VERTEX
  5
17B
  8
1
  6
CONTINUOUS
 62
     7
 10
321.8948098415889
 20
126.0
 30
0.0
  0
SEQEND
  5
17D
  8
1
  6
CONTINUOUS
 62
     7
  0
ARC
  5
12A
  8
1
  6
CONTINUOUS
 62
     7
 10
381.8069047841053
 20
123.1847857020647
 30
0.0
 40
2.901350540560842
 50
61.82563627364306
 51
103.9962226658412
  0
LINE
  5
12B
  8
1
  6
CONTINUOUS
 62
     7
 10
387.8916328103747
 20
95.99999999999997
 30
0.0
 11
387.8127711206292
 21
100.5087262032186
 31
0.0
  0
LINE
  5
12C
  8
1
  6
CONTINUOUS
 62
     7
 10
315.1872288793708
 20
100.5087262032186
 30
0.0
 11
315.1083671896253
 21
95.99999999999996
 31
0.0
  0
LINE
  5
12D
  8
1
  6
CONTINUOUS
 62
     7
 10
319.6871593216464
 20
125.5609346717025
 30
0.0
 11
319.8232040200778
 21
125.7423691456372
 31
0.0
  0
LINE
  5
12E
  8
1
  6
CONTINUOUS
 62
     7
 10
383.1767959799222
 20
125.7423691456372
 30
0.0
 11
383.3128406783537
 21
125.5609346717025
 31
0.0
  0
ARC
  5
12F
  8
1
  6
CONTINUOUS
 62
     7
 10
315.6877150603614
 20
100.4994276646178
 30
0.0
 40
0.5005725523664316
 50
89.9466519865838
 51
178.9356234991601
  0
ARC
  5
130
  8
1
  6
CONTINUOUS
 62
     7
 10
387.3123503085349
 20
100.4994943213309
 30
0.0
 40
0.5005059608239881
 50
1.056886247881209
 51
90.06083826637882
  0
ARC
  5
131
  8
1
  6
CONTINUOUS
 62
     7
 10
315.5025999783416
 20
100.4992856268927
 30
0.0
 40
0.5007149375313327
 50
89.91397094691105
 51
178.9196702732171
  0
LINE
  5
132
  8
1
  6
CONTINUOUS
 62
     7
 10
387.9980259540528
 20
100.5087262032186
 30
0.0
 11
388.07695441015
 21
95.99999999999997
 31
0.0
  0
LINE
  5
133
  8
1
  6
CONTINUOUS
 62
     7
 10
315.0019740459473
 20
100.5087262032186
 30
0.0
 11
314.9230455898501
 21
95.99999999999997
 31
0.0
  0
ARC
  5
134
  8
1
  6
CONTINUOUS
 62
     7
 10
387.4972989636601
 20
100.4991824904497
 30
0.0
 40
0.5008179323477842
 50
1.091908910868751
 51
90.07444986900393
  0
ARC
  5
135
  8
1
  6
CONTINUOUS
 62
     7
 10
392.4826972631157
 20
74.99999999999997
 30
0.0
 40
1.000000000000001
 50
181.0
 51
270.0
  0
ARC
  5
136
  8
1
  6
CONTINUOUS
 62
     7
 10
310.5173027368844
 20
74.99999999999997
 30
0.0
 40
0.9999999999999839
 50
270.0
 51
358.9999999999999
  0
LINE
  5
137
  8
1
  6
CONTINUOUS
 62
     7
 10
311.8754362124005
 20
95.50872620321927
 30
0.0
 11
311.5171504320408
 21
74.98254759356269
 31
0.0
  0
LINE
  5
138
  8
1
  6
CONTINUOUS
 62
     7
 10
391.4828495679593
 20
74.98254759356269
 30
0.0
 11
391.1245637875996
 21
95.50872620321927
 31
0.0
  0
ARC
  5
139
  8
1
  6
CONTINUOUS
 62
     7
 10
312.3753600599787
 20
95.49999999999997
 30
0.0
 40
0.5000000000000004
 50
90.0
 51
178.9999999999234
  0
ARC
  5
13A
  8
1
  6
CONTINUOUS
 62
     7
 10
390.6246399400214
 20
95.49999999999997
 30
0.0
 40
0.5000000000000034
 50
1.000000000076594
 51
90.0
  0
LINE
  5
13B
  8
1
  6
CONTINUOUS
 62
     7
 10
320.9174843535454
 20
145.1218693434055
 30
0.0
 11
315.5000000000001
 21
101.0
 31
0.0
  0
LINE
  5
13C
  8
1
  6
CONTINUOUS
 62
     7
 10
387.5
 20
101.0
 30
0.0
 11
382.0825156464546
 21
145.1218693434055
 31
0.0
  0
ARC
  5
13D
  8
1
  6
CONTINUOUS
 62
     7
 10
321.9100305051866
 20
145.0
 30
0.0
 40
1.000000000000001
 50
89.99999999999682
 51
172.9999999999751
  0
ARC
  5
13E
  8
1
  6
CONTINUOUS
 62
     7
 10
381.0899694948134
 20
145.0
 30
0.0
 40
1.000000000000024
 50
7.00000000002487
 51
90.00000000000318
  0
ARC
  5
13F
  8
1
  6
CONTINUOUS
 62
     7
 10
314.778623956199
 20
100.5
 30
0.0
 40
0.5000000000000004
 50
90.0
 51
178.9999999998339
  0
LINE
  5
140
  8
1
  6
CONTINUOUS
 62
     7
 10
388.8
 20
95.99999999999997
 30
0.0
 11
388.7212998913793
 21
100.50872620322
 31
0.0
  0
ARC
  5
141
  8
1
  6
CONTINUOUS
 62
     7
 10
388.2213760438011
 20
100.5
 30
0.0
 40
0.5000000000000172
 50
1.000000000166047
 51
90.00000000000001
  0
LINE
  5
142
  8
1
  6
CONTINUOUS
 62
     7
 10
314.2787001086208
 20
100.50872620322
 30
0.0
 11
314.2
 21
95.99999999999997
 31
0.0
  0
ENDBLK
  8
0
  0
ENDSEC
  0
SECTION
  2
ENTITIES
  0
TEXT
  5
70
  8
1
  6
CONTINUOUS
 62
     7
 10
495.3585407027635
 20
74.21403338752033
 30
0.0
 40
5.0
  1
GKBB-75
  0
CIRCLE
  5
71
  8
1
  6
CONTINUOUS
 62
     7
 10
396.5
 20
195.0
 30
0.0
 40
2.134910129856449
  0
CIRCLE
  5
72
  8
1
  6
CONTINUOUS
 62
     7
 10
306.5000000000001
 20
195.0
 30
0.0
 40
2.134910129856449
  0
CIRCLE
  5
73
  8
1
  6
CONTINUOUS
 62
     7
 10
396.5
 20
265.0
 30
0.0
 40
2.134910129856449
  0
CIRCLE
  5
74
  8
1
  6
CONTINUOUS
 62
     7
 10
306.5000000000001
 20
265.0
 30
0.0
 40
2.134910129856393
  0
INSERT
  5
E5
  8
1
  6
CONTINUOUS
 62
     7
  2
D_FRAME_VIEW_3998
 10
0.0
 20
0.0
 30
0.0
  0
LINE
  5
E6
  8
1
  6
CENTER
 62
     1
 10
527.0000000000001
 20
230.0
 30
0.0
 11
445.4363830807965
 21
230.0
 31
0.0
  0
LINE
  5
E8
  8
1
  6
CENTER
 62
     1
 10
351.5
 20
148.2513625556752
 30
0.0
 11
351.5
 21
66.49999999999999
 31
0.0
  0
POINT
  5
E9
  8
1
 62
     7
 10
381.9746947593693
 20
146.0
 30
0.0
  0
POINT
  5
EA
  8
1
 62
     7
 10
447.5000000000001
 20
263.5443087819418
 30
0.0
  0
POINT
  5
EB
  8
1
 62
     7
 10
447.5000000000001
 20
196.4556912180581
 30
0.0
  0
POINT
  5
EC
  8
1
 62
     7
 10
321.0253052406308
 20
146.0
 30
0.0
  0
INSERT
  5
110
  8
1
  6
CONTINUOUS
 62
     7
  2
D_FRAME_VIEW_4704
 10
0.0
 20
0.0
 30
0.0
  0
INSERT
  5
143
  8
1
  6
CONTINUOUS
 62
     7
  2
D_FRAME_VIEW_4551
 10
0.0
 20
0.0
 30
0.0
  0
LINE
  5
144
  8
1
  6
CONTINUOUS
 62
     7
 10
492.5000000000001
 20
187.5015070841502
 30
0.0
 11
492.5000000000001
 21
272.4984929158377
 31
0.0
  0
LINE
  5
145
  8
1
  6
CONTINUOUS
 62
     7
 10
497.5000000000001
 20
185.5568274078172
 30
0.0
 11
497.5000000000001
 21
274.4431725921828
 31
0.0
  0
LINE
  5
146
  8
1
  6
CONTINUOUS
 62
     7
 10
497.5000000000001
 20
211.0
 30
0.0
 11
492.5000000000001
 21
211.0
 31
0.0
  0
LINE
  5
147
  8
1
  6
CONTINUOUS
 62
     7
 10
471.2
 20
188.4304942916102
 30
0.0
 11
518.6218693434053
 21
182.6078208870863
 31
0.0
  0
LINE
  5
148
  8
1
  6
CONTINUOUS
 62
     7
 10
492.5000000000001
 20
249.0
 30
0.0
 11
497.5000000000001
 21
249.0
 31
0.0
  0
LINE
  5
149
  8
1
  6
CONTINUOUS
 62
     7
 10
518.6218693434026
 20
277.3921791129134
 30
0.0
 11
471.2
 21
271.5695057083897
 31
0.0
  0
LINE
  5
14A
  8
1
  6
CONTINUOUS
 62
     7
 10
312.3753600599787
 20
95.99999999999997
 30
0.0
 11
323.9701901105754
 21
95.99999999999997
 31
0.0
  0
LINE
  5
14B
  8
1
  6
CONTINUOUS
 62
     7
 10
381.0641421465853
 20
101.0
 30
0.0
 11
388.2213760438013
 21
101.0
 31
0.0
  0
LINE
  5
14C
  8
1
  6
CONTINUOUS
 62
     7
 10
353.85
 20
193.0232617726754
 30
0.0
 11
353.85
 21
188.2169639188938
 31
0.0
  0
LINE
  5
14D
  8
1
  6
CONTINUOUS
 62
     7
 10
314.9230455898501
 20
249.0
 30
0.0
 11
315.5033517966452
 21
249.0
 31
0.0
  0
LINE
  5
14E
  8
1
  6
CONTINUOUS
 62
     7
 10
387.4966482033548
 20
211.0
 30
0.0
 11
388.07695441015
 21
211.0
 31
0.0
  0
LINE
  5
14F
  8
1
  6
CONTINUOUS
 62
     7
 10
379.0298098894247
 20
95.99999999999997
 30
0.0
 11
390.6246399400213
 21
95.99999999999997
 31
0.0
  0
LINE
  5
150
  8
1
  6
CONTINUOUS
 62
     7
 10
388.07695441015
 20
249.0
 30
0.0
 11
387.4966482033548
 21
249.0
 31
0.0
  0
LINE
  5
151
  8
1
  6
CONTINUOUS
 62
     7
 10
349.15
 20
266.9767382273245
 30
0.0
 11
349.15
 21
271.7830360811062
 31
0.0
  0
LINE
  5
152
  8
1
  6
CONTINUOUS
 62
     7
 10
315.5033517966452
 20
211.0
 30
0.0
 11
314.9230455898501
 21
211.0
 31
0.0
  0
LINE
  5
153
  8
1
  6
CONTINUOUS
 62
     7
 10
353.85
 20
271.7830360811062
 30
0.0
 11
353.85
 21
266.9767382273245
 31
0.0
  0
LINE
  5
154
  8
1
  6
CONTINUOUS
 62
     7
 10
314.778623956199
 20
101.0
 30
0.0
 11
321.9358578533967
 21
101.0
 31
0.0
  0
LINE
  5
155
  8
1
  6
CONTINUOUS
 62
     7
 10
349.15
 20
188.2169639188938
 30
0.0
 11
349.15
 21
193.0232617726754
 31
0.0
  0
LINE
  5
156
  8
1
  6
CONTINUOUS
 62
     7
 10
447.5000000000001
 20
197.3404164826139
 30
0.0
 11
447.5000000000001
 21
262.6595835173861
 31
0.0
  0
LINE
  5
157
  8
1
  6
CONTINUOUS
 62
     7
 10
472.4998377647415
 20
266.999997168173
 30
0.0
 11
467.9912737967796
 21
266.9212998913792
 31
0.0
  0
LINE
  5
158
  8
1
  6
CONTINUOUS
 62
     7
 10
472.5000000000001
 20
188.7132369947145
 30
0.0
 11
472.5000000000001
 21
200.0170872348999
 31
0.0
  0
LINE
  5
159
  8
1
  6
CONTINUOUS
 62
     7
 10
467.5000000000001
 20
261.4761169971044
 30
0.0
 11
467.5000000000001
 21
266.4213760438009
 31
0.0
  0
LINE
  5
15A
  8
1
  6
CONTINUOUS
 62
     7
 10
472.5000000000001
 20
259.9829127650991
 30
0.0
 11
472.5000000000001
 21
271.2867630052855
 31
0.0
  0
LINE
  5
15B
  8
1
  6
CONTINUOUS
 62
     7
 10
467.9912737967796
 20
193.0787001086208
 30
0.0
 11
472.4998377647415
 21
193.000002831827
 31
0.0
  0
LINE
  5
15C
  8
1
  6
CONTINUOUS
 62
     7
 10
467.5000000000001
 20
193.5786239561992
 30
0.0
 11
467.5000000000001
 21
198.5238830028954
 31
0.0
  0
LINE
  5
15D
  8
1
  6
CONTINUOUS
 62
     7
 10
522.5000000000001
 20
227.5
 30
0.0
 11
522.5000000000001
 21
180.0
 31
0.0
  0
LINE
  5
15E
  8
1
  6
CONTINUOUS
 62
     7
 10
353.0000000000001
 20
242.4857956929747
 30
0.0
 11
353.0000000000001
 21
244.5142043070252
 31
0.0
  0
LINE
  5
15F
  8
1
  6
CONTINUOUS
 62
     7
 10
319.9356404173503
 20
121.0
 30
0.0
 11
349.15
 21
121.0
 31
0.0
  0
LINE
  5
160
  8
1
  6
CONTINUOUS
 62
     7
 10
302.0000000000001
 20
73.99999999999997
 30
0.0
 11
401.0
 21
73.99999999999997
 31
0.0
  0
LINE
  5
161
  8
1
  6
CONTINUOUS
 62
     7
 10
321.9100305051866
 20
146.0
 30
0.0
 11
381.0899694948131
 21
146.0
 31
0.0
  0
LINE
  5
162
  8
1
  6
CONTINUOUS
 62
     7
 10
353.85
 20
121.0
 30
0.0
 11
383.0643595826501
 21
121.0
 31
0.0
  0
LINE
  5
163
  8
1
  6
CONTINUOUS
 62
     7
 10
350.0
 20
244.5142043070252
 30
0.0
 11
350.0
 21
242.4857956929747
 31
0.0
  0
LINE
  5
164
  8
1
  6
CONTINUOUS
 62
     7
 10
350.0
 20
217.5142043070253
 30
0.0
 11
350.0
 21
215.4857956929747
 31
0.0
  0
LINE
  5
165
  8
1
  6
CONTINUOUS
 62
     7
 10
522.5000000000001
 20
279.9999999999999
 30
0.0
 11
522.5000000000001
 21
232.5
 31
0.0
  0
LINE
  5
166
  8
1
  6
CONTINUOUS
 62
     7
 10
401.5
 20
70.99999999999996
 30
0.0
 11
354.0000000000001
 21
70.99999999999996
 31
0.0
  0
LINE
  5
167
  8
1
  6
CONTINUOUS
 62
     7
 10
349.0
 20
70.99999999999996
 30
0.0
 11
301.5000000000001
 21
70.99999999999996
 31
0.0
  0
LINE
  5
168
  8
1
  6
CONTINUOUS
 62
     7
 10
353.0000000000001
 20
215.4857956929747
 30
0.0
 11
353.0000000000001
 21
217.5142043070253
 31
0.0
  0
LINE
  5
169
  8
1
  6
CONTINUOUS
 62
     7
 10
519.5000000000001
 20
180.5
 30
0.0
 11
519.5000000000001
 21
279.4999999999999
 31
0.0
  0
LINE
  5
16A
  8
1
  6
CONTINUOUS
 62
     7
 10
321.8948098415888
 20
126.0
 30
0.0
 11
381.1051901584109
 21
126.0
 31
0.0
  0
LINE
  5
16B
  8
1
  6
CENTER
 62
     1
 10
306.5
 20
230.0
 30
0.0
 11
396.5000000000001
 21
230.0
 31
0.0
  0
LINE
  5
16C
  8
1
  6
CENTER
 62
     1
 10
351.5
 20
175.0
 30
0.0
 11
351.5
 21
284.9999999999999
 31
0.0
  0
ENDSEC
  0
EOF
