  0
SECTION
  2
HEADER
  9
$ACADVER
  1
AC1004
  9
$INSBASE
 10
0.0
 20
0.0
  9
$EXTMIN
 10
48.99999999999999
 20
111.5185694635488
  9
$EXTMAX
 10
120.25
 20
196.75
  9
$LIMMIN
 10
0.0
 20
0.0
  9
$LIMMAX
 10
12.0
 20
9.0
  9
$ORTHOMODE
 70
     0
  9
$REGENMODE
 70
     1
  9
$FILLMODE
 70
     1
  9
$QTEXTMODE
 70
     0
  9
$DRAGMODE
 70
     2
  9
$LTSCALE
 40
1.0
  9
$OSMODE
 70
    37
  9
$ATTMODE
 70
     1
  9
$TEXTSIZE
 40
0.2
  9
$TRACEWID
 40
0.05
  9
$TEXTSTYLE
  7
STANDARD
  9
$CLAYER
  8
0
  9
$CELTYPE
  6
BYLAYER
  9
$CECOLOR
 62
   256
  9
$DIMSCALE
 40
1.0
  9
$DIMASZ
 40
3.0
  9
$DIMEXO
 40
0.0625
  9
$DIMDLI
 40
0.38
  9
$DIMRND
 40
0.0
  9
$DIMDLE
 40
0.0
  9
$DIMEXE
 40
1.5
  9
$DIMTP
 40
0.0
  9
$DIMTM
 40
0.0
  9
$DIMTXT
 40
3.0
  9
$DIMCEN
 40
0.09
  9
$DIMTSZ
 40
0.0
  9
$DIMTOL
 70
     0
  9
$DIMLIM
 70
     0
  9
$DIMTIH
 70
     1
  9
$DIMTOH
 70
     1
  9
$DIMSE1
 70
     0
  9
$DIMSE2
 70
     0
  9
$DIMTAD
 70
     1
  9
$DIMZIN
 70
     0
  9
$DIMBLK
  1

  9
$DIMASO
 70
     1
  9
$DIMSHO
 70
     1
  9
$DIMPOST
  1

  9
$DIMAPOST
  1

  9
$DIMALT
 70
     0
  9
$DIMALTD
 70
     2
  9
$DIMALTF
 40
25.4
  9
$DIMLFAC
 40
1.0
  9
$DIMTOFL
 70
     0
  9
$DIMTVP
 40
0.0
  9
$DIMTIX
 70
     0
  9
$DIMSOXD
 70
     0
  9
$DIMSAH
 70
     0
  9
$DIMBLK1
  1

  9
$DIMBLK2
  1

  9
$LUNITS
 70
     2
  9
$LUPREC
 70
     4
  9
$SKETCHINC
 40
0.1
  9
$FILLETRAD
 40
0.5
  9
$AUNITS
 70
     0
  9
$AUPREC
 70
     0
  9
$MENU
  1
.
  9
$ELEVATION
 40
0.0
  9
$THICKNESS
 40
0.0
  9
$LIMCHECK
 70
     0
  9
$CHAMFERA
 40
0.0
  9
$CHAMFERB
 40
0.0
  9
$SKPOLY
 70
     0
  9
$TDCREATE
 40
2459332.381694236
  9
$TDUPDATE
 40
2459332.38169463
  9
$TDINDWG
 40
0.0000000116
  9
$TDUSRTIMER
 40
0.0000000116
  9
$USRTIMER
 70
     1
  9
$ANGBASE
 50
0.0
  9
$ANGDIR
 70
     0
  9
$PDMODE
 70
     0
  9
$PDSIZE
 40
0.0
  9
$PLINEWID
 40
0.0
  9
$COORDS
 70
     1
  9
$SPLFRAME
 70
     0
  9
$SPLINETYPE
 70
     6
  9
$SPLINESEGS
 70
     8
  9
$ATTDIA
 70
     0
  9
$ATTREQ
 70
     1
  9
$SURFTAB1
 70
     6
  9
$SURFTAB2
 70
     6
  9
$SURFTYPE
 70
     6
  9
$SURFU
 70
     6
  9
$SURFV
 70
     6
  9
$UCSNAME
  2

  9
$UCSORG
 10
0.0
 20
0.0
 30
0.0
  9
$UCSXDIR
 10
1.0
 20
0.0
 30
0.0
  9
$UCSYDIR
 10
0.0
 20
1.0
 30
0.0
  9
$USERI1
 70
     0
  9
$USERI2
 70
     0
  9
$USERI3
 70
     0
  9
$USERI4
 70
     0
  9
$USERI5
 70
     0
  9
$USERR1
 40
0.0
  9
$USERR2
 40
0.0
  9
$USERR3
 40
0.0
  9
$USERR4
 40
0.0
  9
$USERR5
 40
0.0
  9
$WORLDVIEW
 70
     1
  0
ENDSEC
  0
SECTION
  2
TABLES
  0
TABLE
  2
LTYPE
 70
     1
  0
LTYPE
  2
CONTINUOUS
 70
     0
  3
Solid line
 72
    65
 73
     0
 40
0.0
  0
ENDTAB
  0
TABLE
  2
LAYER
 70
     1
  0
LAYER
  2
0
 70
     0
 62
     7
  6
CONTINUOUS
  0
ENDTAB
  0
TABLE
  2
STYLE
 70
     2
  0
STYLE
  2
STANDARD
 70
     0
 40
0.0
 41
1.0
 50
0.0
 71
     0
 42
0.2
  3
txt
  4

  0
STYLE
  2
ＭＳ_ゴシック
 70
     0
 40
0.0
 41
1.0
 50
0.0
 71
     0
 42
0.2
  3
ＭＳ ゴシック.shx
  4

  0
ENDTAB
  0
TABLE
  2
VIEW
 70
     0
  0
ENDTAB
  0
ENDSEC
  0
SECTION
  2
BLOCKS
  0
ENDSEC
  0
SECTION
  2
ENTITIES
  0
TEXT
  8
0
  6
CONTINUOUS
 62
     7
 10
98.3238245592097
 20
110.9485119419783
 40
5.0
  1
GKBJ-1
  0
ARC
  8
0
  6
CONTINUOUS
 62
     7
 10
50.5
 20
151.5
 40
1.500000000000001
 50
90.0
 51
180.0
  0
ARC
  8
0
  6
CONTINUOUS
 62
     7
 10
54.93889288627182
 20
182.75
 40
0.5000000000000004
 50
0.5
 51
90.0
  0
LINE
  8
0
  6
CONTINUOUS
 62
     7
 10
64.5
 20
175.75
 11
64.5611261521961
 21
182.7543632677492
  0
LINE
  8
0
  6
CONTINUOUS
 62
     7
 10
50.5
 20
173.45
 11
50.0
 21
173.45
  0
ARC
  8
0
  6
CONTINUOUS
 62
     7
 10
97.95
 20
128.0
 40
1.000000000000001
 50
180.0
 51
270.0
  0
LINE
  8
0
  6
CONTINUOUS
 62
     7
 10
96.95
 20
128.0
 11
96.95
 21
128.5
  0
LINE
  8
0
  6
CONTINUOUS
 62
     7
 10
54.0
 20
175.75
 11
54.06112615219609
 21
182.7543632677492
  0
LINE
  8
0
  6
CONTINUOUS
 62
     7
 10
49.0
 20
174.45
 11
49.0
 21
175.75
  0
LINE
  8
0
  6
CONTINUOUS
 62
     7
 10
97.95
 20
153.0
 11
99.25
 21
153.0
  0
LINE
  8
0
  6
CONTINUOUS
 62
     7
 10
119.25
 20
137.1298070388873
 11
119.25
 21
132.6701929611127
  0
LINE
  8
0
  6
CONTINUOUS
 62
     7
 10
99.25
 20
127.0
 11
97.95
 21
127.0
  0
ARC
  8
0
  6
CONTINUOUS
 62
     7
 10
50.0
 20
174.45
 40
1.000000000000001
 50
180.0
 51
270.0
  0
ARC
  8
0
  6
CONTINUOUS
 62
     7
 10
54.56110711372818
 20
182.75
 40
0.5000000000000004
 50
90.0
 51
179.5
  0
CIRCLE
  8
0
  6
CONTINUOUS
 62
     7
 10
60.0
 20
140.0
 40
2.904044648600695
  0
LINE
  8
0
  6
CONTINUOUS
 62
     7
 10
106.75
 20
132.0654515084307
 11
106.75
 21
130.0611071137282
  0
LINE
  8
0
  6
CONTINUOUS
 62
     7
 10
65.9388738478039
 20
182.7543632677492
 11
66.0
 21
175.75
  0
LINE
  8
0
  6
CONTINUOUS
 62
     7
 10
71.0
 20
175.75
 11
71.0
 21
174.45
  0
LINE
  8
0
  6
CONTINUOUS
 62
     7
 10
99.25
 20
128.5
 11
99.25
 21
151.5
  0
LINE
  8
0
  6
CONTINUOUS
 62
     7
 10
51.67019296111266
 20
195.75
 11
53.0
 21
195.75
  0
LINE
  8
0
  6
CONTINUOUS
 62
     7
 10
50.5
 20
153.0
 11
69.5
 21
153.0
  0
LINE
  8
0
  6
CONTINUOUS
 62
     7
 10
54.56110711372818
 20
183.25
 11
54.93889288627182
 21
183.25
  0
LINE
  8
0
  6
CONTINUOUS
 62
     7
 10
50.99999999999999
 20
175.75
 11
51.17021199958058
 21
195.2543632677492
  0
LINE
  8
0
  6
CONTINUOUS
 62
     7
 10
99.25
 20
128.5
 11
99.25
 21
127.0
  0
LINE
  8
0
  6
CONTINUOUS
 62
     7
 10
119.25
 20
147.3298070388873
 11
119.25
 21
142.8701929611127
  0
LINE
  8
0
  6
CONTINUOUS
 62
     7
 10
96.95
 20
128.5
 11
96.95
 21
151.5
  0
LINE
  8
0
  6
CONTINUOUS
 62
     7
 10
99.25
 20
153.0
 11
99.25
 21
151.5
  0
LINE
  8
0
  6
CONTINUOUS
 62
     7
 10
69.5
 20
175.75
 11
50.5
 21
175.75
  0
LINE
  8
0
  6
CONTINUOUS
 62
     7
 10
70.0
 20
173.45
 11
69.5
 21
173.45
  0
LINE
  8
0
  6
CONTINUOUS
 62
     7
 10
55.4388738478039
 20
182.7543632677492
 11
55.5
 21
175.75
  0
LINE
  8
0
  6
CONTINUOUS
 62
     7
 10
71.0
 20
151.5
 11
70.99999999999999
 21
128.5
  0
LINE
  8
0
  6
CONTINUOUS
 62
     7
 10
118.7543632677492
 20
132.1702119995806
 11
99.25
 21
132.0
  0
LINE
  8
0
  6
CONTINUOUS
 62
     7
 10
69.5
 20
175.75
 11
71.0
 21
175.75
  0
LINE
  8
0
  6
CONTINUOUS
 62
     7
 10
106.75
 20
149.9388928862718
 11
106.75
 21
147.9345484915693
  0
ARC
  8
0
  6
CONTINUOUS
 62
     7
 10
65.06110711372817
 20
182.75
 40
0.5000000000000004
 50
90.0
 51
179.5
  0
LINE
  8
0
  6
CONTINUOUS
 62
     7
 10
68.82978800041941
 20
195.2543632677492
 11
69.0
 21
175.75
  0
ARC
  8
0
  6
CONTINUOUS
 62
     7
 10
69.5
 20
151.5
 40
1.500000000000001
 50
359.9999999999998
 51
90.0
  0
CIRCLE
  8
0
  6
CONTINUOUS
 62
     7
 10
60.0
 20
140.0
 40
3.750000000000003
  0
LINE
  8
0
  6
CONTINUOUS
 62
     7
 10
69.5
 20
173.45
 11
50.5
 21
173.45
  0
LINE
  8
0
  6
CONTINUOUS
 62
     7
 10
99.25
 20
137.8
 11
118.7543632677492
 21
137.6297880004194
  0
LINE
  8
0
  6
CONTINUOUS
 62
     7
 10
69.49999999999999
 20
127.0
 11
50.49999999999999
 21
127.0
  0
ARC
  8
0
  6
CONTINUOUS
 62
     7
 10
118.75
 20
142.8701929611127
 40
0.5000000000000016
 50
270.5000000000001
 51
0.0
  0
LINE
  8
0
  6
CONTINUOUS
 62
     7
 10
99.25
 20
148.0
 11
118.7543632677492
 21
147.8297880004194
  0
ARC
  8
0
  6
CONTINUOUS
 62
     7
 10
118.75
 20
132.6701929611127
 40
0.5000000000000016
 50
270.5000000000001
 51
359.9999999999998
  0
LINE
  8
0
  6
CONTINUOUS
 62
     7
 10
106.2543632677492
 20
129.5611261521961
 11
99.25
 21
129.5
  0
ARC
  8
0
  6
CONTINUOUS
 62
     7
 10
97.95
 20
152.0
 40
1.000000000000001
 50
90.00000000000001
 51
180.0
  0
ARC
  8
0
  6
CONTINUOUS
 62
     7
 10
106.25
 20
149.9388928862718
 40
0.5000000000000004
 50
0.0000000000000035
 51
89.50000000000003
  0
LINE
  8
0
  6
CONTINUOUS
 62
     7
 10
65.06110711372817
 20
183.25
 11
65.43889288627182
 21
183.25
  0
ARC
  8
0
  6
CONTINUOUS
 62
     7
 10
114.85
 20
132.4
 40
5.399999999999997
 50
347.1604115930957
 51
12.83958840690406
  0
LINE
  8
0
  6
CONTINUOUS
 62
     7
 10
119.2374821936961
 20
130.5
 11
107.25
 21
130.5
  0
ARC
  8
0
  6
CONTINUOUS
 62
     7
 10
119.2374821936961
 20
133.4
 40
0.500000000000004
 50
12.83958840690395
 51
88.56541517145527
  0
LINE
  8
0
  6
CONTINUOUS
 62
     7
 10
53.0
 20
195.7374821936961
 11
53.0
 21
183.75
  0
ARC
  8
0
  6
CONTINUOUS
 62
     7
 10
114.85
 20
147.6
 40
5.399999999999997
 50
347.1604115930959
 51
12.8395884069044
  0
ARC
  8
0
  6
CONTINUOUS
 62
     7
 10
119.2374821936961
 20
146.6
 40
0.500000000000004
 50
271.4345848285446
 51
347.1604115930961
  0
LINE
  8
0
  6
CONTINUOUS
 62
     7
 10
107.25
 20
149.1
 11
119.237482193696
 21
149.1
  0
LINE
  8
0
  6
CONTINUOUS
 62
     7
 10
67.0
 20
196.75
 11
53.00000000000001
 21
196.75
  0
LINE
  8
0
  6
CONTINUOUS
 62
     7
 10
119.2374821936961
 20
149.5
 11
107.25
 21
149.5
  0
LINE
  8
0
  6
CONTINUOUS
 62
     7
 10
62.5
 20
191.95
 11
62.5
 21
187.8571796769724
  0
CIRCLE
  8
0
  6
CONTINUOUS
 62
     7
 10
60.0
 20
140.0
 40
3.449999999999995
  0
LINE
  8
0
  6
CONTINUOUS
 62
     7
 10
53.0
 20
196.6149786324353
 11
53.0
 21
195.7374821936961
  0
ARC
  8
0
  6
CONTINUOUS
 62
     7
 10
119.2374821936961
 20
131.4
 40
0.5000000000000004
 50
269.9999999999984
 51
347.160411593096
  0
ARC
  8
0
  6
CONTINUOUS
 62
     7
 10
112.7552367893351
 20
146.3
 40
12.00000000000001
 50
209.5198371154063
 51
211.6682432535416
  0
ARC
  8
0
  6
CONTINUOUS
 62
     7
 10
119.2374821936961
 20
146.6
 40
0.9000000000000119
 50
269.9999999999989
 51
347.1604115930961
  0
ARC
  8
0
  6
CONTINUOUS
 62
     7
 10
118.75
 20
147.3298070388873
 40
0.5000000000000016
 50
0.0
 51
89.49999999999989
  0
LINE
  8
0
  6
CONTINUOUS
 62
     7
 10
111.25
 20
149.1
 11
113.3686648501018
 21
147.8767882784711
  0
ARC
  8
0
  6
CONTINUOUS
 62
     7
 10
65.43889288627182
 20
182.75
 40
0.5000000000000016
 50
0.4999999999999834
 51
90.0
  0
ARC
  8
0
  6
CONTINUOUS
 62
     7
 10
119.2374821936961
 20
131.4
 40
0.9000000000000059
 50
269.9999999999998
 51
347.1604115930957
  0
ARC
  8
0
  6
CONTINUOUS
 62
     7
 10
70.0
 20
174.45
 40
1.000000000000001
 50
270.0
 51
0.0
  0
ARC
  8
0
  6
CONTINUOUS
 62
     7
 10
112.7552367893351
 20
133.7
 40
12.4
 50
147.3641015106986
 51
147.9080436669809
  0
ARC
  8
0
  6
CONTINUOUS
 62
     7
 10
112.7552367893351
 20
146.3
 40
12.4
 50
212.6358984893014
 51
223.524198652318
  0
LINE
  8
0
  6
CONTINUOUS
 62
     7
 10
57.5
 20
187.8571796769724
 11
62.5
 21
187.8571796769724
  0
LINE
  8
0
  6
CONTINUOUS
 62
     7
 10
114.1809427377431
 20
147.8696996367364
 11
112.05
 21
149.1
  0
LINE
  8
0
  6
CONTINUOUS
 62
     7
 10
53.0
 20
196.75
 11
53.0
 21
183.75
  0
LINE
  8
0
  6
CONTINUOUS
 62
     7
 10
48.99999999999999
 20
128.5
 11
49.0
 21
151.5
  0
LINE
  8
0
  6
CONTINUOUS
 62
     7
 10
57.5
 20
191.95
 11
62.5
 21
191.95
  0
LINE
  8
0
  6
CONTINUOUS
 62
     7
 10
102.25
 20
140.5
 11
102.25
 21
139.5
  0
ARC
  8
0
  6
CONTINUOUS
 62
     7
 10
51.67019296111266
 20
195.25
 40
0.5000000000000016
 50
90.0
 51
179.4999999999999
  0
ARC
  8
0
  6
CONTINUOUS
 62
     7
 10
112.7552367893351
 20
133.7
 40
12.00000000000001
 50
134.5998991355631
 51
148.3317567464584
  0
LINE
  8
0
  6
CONTINUOUS
 62
     7
 10
102.25
 20
139.7121323631998
 11
102.25
 21
140.2878676368002
  0
LINE
  8
0
  6
CONTINUOUS
 62
     7
 10
118.7543632677492
 20
142.3702119995806
 11
99.25
 21
142.2
  0
ARC
  8
0
  6
CONTINUOUS
 62
     7
 10
119.2374821936961
 20
133.4
 40
0.9000000000000119
 50
12.83958840690389
 51
90.00000000000114
  0
ARC
  8
0
  6
CONTINUOUS
 62
     7
 10
112.7552367893351
 20
146.3
 40
12.00000000000001
 50
211.6682432535416
 51
225.4001008644369
  0
LINE
  8
0
  6
CONTINUOUS
 62
     7
 10
107.25
 20
130.9
 11
119.237482193696
 21
130.9
  0
LINE
  8
0
  6
CONTINUOUS
 62
     7
 10
107.25
 20
149.5
 11
107.25
 21
149.1
  0
ARC
  8
0
  6
CONTINUOUS
 62
     7
 10
50.49999999999999
 20
128.5
 40
1.500000000000001
 50
180.0
 51
270.0
  0
ARC
  8
0
  6
CONTINUOUS
 62
     7
 10
118.75
 20
137.1298070388873
 40
0.5000000000000004
 50
0.0000000000000035
 51
89.49999999999991
  0
ARC
  8
0
  6
CONTINUOUS
 62
     7
 10
112.7552367893351
 20
146.3
 40
12.00000000000001
 50
208.9033345398472
 51
209.5198371154063
  0
LINE
  8
0
  6
CONTINUOUS
 62
     7
 10
107.25
 20
130.5
 11
107.25
 21
130.9
  0
LINE
  8
0
  6
CONTINUOUS
 62
     7
 10
53.0
 20
196.75
 11
53.0
 21
196.6149786324353
  0
LINE
  8
0
  6
CONTINUOUS
 62
     7
 10
49.0
 20
175.75
 11
50.5
 21
175.75
  0
LINE
  8
0
  6
CONTINUOUS
 62
     7
 10
67.0
 20
195.75
 11
68.32980703888732
 21
195.75
  0
ARC
  8
0
  6
CONTINUOUS
 62
     7
 10
114.85
 20
132.4
 40
5.000000000000001
 50
347.1604115930957
 51
12.839588406904
  0
LINE
  8
0
  6
CONTINUOUS
 62
     7
 10
99.25
 20
150.5
 11
106.2543632677492
 21
150.4388738478039
  0
ARC
  8
0
  6
CONTINUOUS
 62
     7
 10
69.49999999999999
 20
128.5
 40
1.500000000000001
 50
270.0
 51
0.0
  0
LINE
  8
0
  6
CONTINUOUS
 62
     7
 10
114.1809427377431
 20
132.1303003632637
 11
112.05
 21
130.9
  0
LINE
  8
0
  6
CONTINUOUS
 62
     7
 10
102.25
 20
140.5
 11
102.25
 21
140.2878676368002
  0
LINE
  8
0
  6
CONTINUOUS
 62
     7
 10
102.25
 20
139.5
 11
102.25
 21
139.7121323631998
  0
ARC
  8
0
  6
CONTINUOUS
 62
     7
 10
119.2374821936961
 20
148.6
 40
0.9000000000000059
 50
12.83958840690438
 51
90.00000000000016
  0
ARC
  8
0
  6
CONTINUOUS
 62
     7
 10
112.7552367893351
 20
133.7
 40
12.4
 50
136.475801347682
 51
147.3641015106985
  0
LINE
  8
0
  6
CONTINUOUS
 62
     7
 10
96.95
 20
151.5
 11
96.95
 21
152.0
  0
ARC
  8
0
  6
CONTINUOUS
 62
     7
 10
112.7552367893351
 20
146.3
 40
12.4
 50
212.0919563330193
 51
212.6358984893014
  0
LINE
  8
0
  6
CONTINUOUS
 62
     7
 10
67.0
 20
195.7374821936961
 11
67.0
 21
183.75
  0
LINE
  8
0
  6
CONTINUOUS
 62
     7
 10
67.0
 20
196.6149786324353
 11
67.0
 21
195.7374821936961
  0
LINE
  8
0
  6
CONTINUOUS
 62
     7
 10
102.25
 20
140.2878676368002
 11
102.25
 21
139.7121323631998
  0
LINE
  8
0
  6
CONTINUOUS
 62
     7
 10
67.0
 20
196.75
 11
67.0
 21
183.75
  0
ARC
  8
0
  6
CONTINUOUS
 62
     7
 10
106.25
 20
130.0611071137282
 40
0.5000000000000004
 50
270.5000000000001
 51
0.0
  0
LINE
  8
0
  6
CONTINUOUS
 62
     7
 10
111.25
 20
130.9
 11
113.3686648501018
 21
132.1232117215289
  0
LINE
  8
0
  6
CONTINUOUS
 62
     7
 10
67.0
 20
196.75
 11
67.0
 21
196.6149786324352
  0
ARC
  8
0
  6
CONTINUOUS
 62
     7
 10
112.7552367893351
 20
133.7
 40
12.00000000000001
 50
134.5998991355631
 51
151.0966654601527
  0
ARC
  8
0
  6
CONTINUOUS
 62
     7
 10
114.85
 20
147.6
 40
5.000000000000001
 50
347.160411593096
 51
12.83958840690434
  0
ARC
  8
0
  6
CONTINUOUS
 62
     7
 10
112.7552367893351
 20
146.3
 40
12.00000000000001
 50
208.9033345398472
 51
225.4001008644368
  0
LINE
  8
0
  6
CONTINUOUS
 62
     7
 10
67.0
 20
183.75
 11
53.00000000000001
 21
183.75
  0
ARC
  8
0
  6
CONTINUOUS
 62
     7
 10
119.2374821936961
 20
148.6
 40
0.5000000000000004
 50
12.839588406904
 51
90.00000000000159
  0
LINE
  8
0
  6
CONTINUOUS
 62
     7
 10
96.95
 20
128.0
 11
96.95
 21
152.0
  0
LINE
  8
0
  6
CONTINUOUS
 62
     7
 10
70.0
 20
173.45
 11
50.0
 21
173.45
  0
ARC
  8
0
  6
CONTINUOUS
 62
     7
 10
112.7552367893351
 20
146.3
 40
12.4
 50
212.0919563330191
 51
223.524198652318
  0
LINE
  8
0
  6
CONTINUOUS
 62
     7
 10
57.5
 20
191.95
 11
57.5
 21
187.8571796769724
  0
ARC
  8
0
  6
CONTINUOUS
 62
     7
 10
112.7552367893351
 20
133.7
 40
12.00000000000001
 50
150.4801628845937
 51
151.0966654601527
  0
ARC
  8
0
  6
CONTINUOUS
 62
     7
 10
112.7552367893351
 20
133.7
 40
12.4
 50
136.475801347682
 51
147.9080436669809
  0
ARC
  8
0
  6
CONTINUOUS
 62
     7
 10
112.7552367893351
 20
133.7
 40
12.00000000000001
 50
148.3317567464583
 51
150.4801628845937
  0
ARC
  8
0
  6
CONTINUOUS
 62
     7
 10
68.32980703888732
 20
195.25
 40
0.5000000000000016
 50
0.5000000000000828
 51
90.0
  0
LINE
  8
0
  6
CONTINUOUS
 62
     7
 10
99.25
 20
153.0
 11
99.25
 21
127.0
  0
LINE
  8
0
  6
CONTINUOUS
 62
     7
 10
49.0
 20
175.75
 11
71.0
 21
175.75
  0
ENDSEC
  0
EOF
