  0
SECTION
  2
HEADER
  9
$ACADVER
  1
AC1006
  9
$DWGCODEPAGE
  3
ansi_932
  9
$INSBASE
 10
0.0
 20
0.0
 30
0.0
  9
$EXTMIN
 10
405.5
 20
-76.32954545454545
  9
$EXTMAX
 10
775.0
 20
14.50000000000001
  9
$LIMMIN
 10
0.0
 20
0.0
  9
$LIMMAX
 10
12.0
 20
9.0
  9
$ORTHOMODE
 70
     0
  9
$REGENMODE
 70
     1
  9
$FILLMODE
 70
     1
  9
$QTEXTMODE
 70
     0
  9
$MIRRTEXT
 70
     1
  9
$DRAGMODE
 70
     2
  9
$LTSCALE
 40
1.0
  9
$OSMODE
 70
    37
  9
$ATTMODE
 70
     1
  9
$TEXTSIZE
 40
0.2
  9
$TRACEWID
 40
0.05
  9
$TEXTSTYLE
  7
STANDARD
  9
$CLAYER
  8
0
  9
$CELTYPE
  6
BYLAYER
  9
$CECOLOR
 62
   256
  9
$DIMSCALE
 40
1.0
  9
$DIMASZ
 40
3.0
  9
$DIMEXO
 40
0.0625
  9
$DIMDLI
 40
0.38
  9
$DIMRND
 40
0.0
  9
$DIMDLE
 40
0.0
  9
$DIMEXE
 40
1.5
  9
$DIMTP
 40
0.0
  9
$DIMTM
 40
0.0
  9
$DIMTXT
 40
3.0
  9
$DIMCEN
 40
0.09
  9
$DIMTSZ
 40
0.0
  9
$DIMTOL
 70
     0
  9
$DIMLIM
 70
     0
  9
$DIMTIH
 70
     1
  9
$DIMTOH
 70
     1
  9
$DIMSE1
 70
     0
  9
$DIMSE2
 70
     0
  9
$DIMTAD
 70
     1
  9
$DIMZIN
 70
     0
  9
$DIMBLK
  1

  9
$DIMASO
 70
     1
  9
$DIMSHO
 70
     1
  9
$DIMPOST
  1

  9
$DIMAPOST
  1

  9
$DIMALT
 70
     0
  9
$DIMALTD
 70
     2
  9
$DIMALTF
 40
25.4
  9
$DIMLFAC
 40
1.0
  9
$DIMTOFL
 70
     0
  9
$DIMTVP
 40
0.0
  9
$DIMTIX
 70
     0
  9
$DIMSOXD
 70
     0
  9
$DIMSAH
 70
     0
  9
$DIMBLK1
  1

  9
$DIMBLK2
  1

  9
$LUNITS
 70
     2
  9
$LUPREC
 70
     4
  9
$SKETCHINC
 40
0.1
  9
$FILLETRAD
 40
0.5
  9
$AUNITS
 70
     0
  9
$AUPREC
 70
     0
  9
$MENU
  1
.
  9
$ELEVATION
 40
0.0
  9
$THICKNESS
 40
0.0
  9
$LIMCHECK
 70
     0
  9
$CHAMFERA
 40
0.0
  9
$CHAMFERB
 40
0.0
  9
$SKPOLY
 70
     0
  9
$TDCREATE
 40
2460745.389886979
  9
$TDUPDATE
 40
2460745.389887129
  9
$TDINDWG
 40
0.0000000116
  9
$TDUSRTIMER
 40
0.0000000116
  9
$USRTIMER
 70
     1
  9
$ANGBASE
 50
0.0
  9
$ANGDIR
 70
     0
  9
$PDMODE
 70
     0
  9
$PDSIZE
 40
0.0
  9
$PLINEWID
 40
0.0
  9
$COORDS
 70
     1
  9
$SPLFRAME
 70
     0
  9
$SPLINETYPE
 70
     6
  9
$SPLINESEGS
 70
     8
  9
$ATTDIA
 70
     0
  9
$ATTREQ
 70
     1
  9
$HANDLING
 70
     1
  9
$HANDSEED
  5
2D9
  9
$SURFTAB1
 70
     6
  9
$SURFTAB2
 70
     6
  9
$SURFTYPE
 70
     6
  9
$SURFU
 70
     6
  9
$SURFV
 70
     6
  9
$UCSNAME
  2

  9
$UCSORG
 10
0.0
 20
0.0
 30
0.0
  9
$UCSXDIR
 10
1.0
 20
0.0
 30
0.0
  9
$UCSYDIR
 10
0.0
 20
1.0
 30
0.0
  9
$USERI1
 70
     0
  9
$USERI2
 70
     0
  9
$USERI3
 70
     0
  9
$USERI4
 70
     0
  9
$USERI5
 70
     0
  9
$USERR1
 40
0.0
  9
$USERR2
 40
0.0
  9
$USERR3
 40
0.0
  9
$USERR4
 40
0.0
  9
$USERR5
 40
0.0
  9
$WORLDVIEW
 70
     1
  0
ENDSEC
  0
SECTION
  2
TABLES
  0
TABLE
  2
VPORT
 70
     1
  0
VPORT
  2
*ACTIVE
 70
     0
 10
0.0
 20
0.0
 11
1.0
 21
1.0
 12
590.25
 22
-30.91477272727272
 13
0.0
 23
0.0
 14
0.5
 24
0.5
 15
0.5
 25
0.5
 16
0.0
 26
0.0
 36
1.0
 17
0.0
 27
0.0
 37
0.0
 40
90.82954545454547
 41
1.6
 42
50.0
 43
0.0
 44
0.0
 50
0.0
 51
0.0
 71
     0
 72
   100
 73
     1
 74
     3
 75
     0
 76
     0
 77
     0
 78
     0
  0
ENDTAB
  0
TABLE
  2
LTYPE
 70
     2
  0
LTYPE
  2
CONTINUOUS
 70
     0
  3
Solid line
 72
    65
 73
     0
 40
0.0
  0
LTYPE
  2
CENTER
 70
     0
  3

 72
    65
 73
     0
 40
0.0
  0
ENDTAB
  0
TABLE
  2
LAYER
 70
     2
  0
LAYER
  2
0
 70
     0
 62
     7
  6
CONTINUOUS
  0
LAYER
  2
1
 70
     0
 62
     7
  6
CONTINUOUS
  0
ENDTAB
  0
TABLE
  2
STYLE
 70
     2
  0
STYLE
  2
STANDARD
 70
     0
 40
0.0
 41
1.0
 50
0.0
 71
     0
 42
0.2
  3
txt
  4

  0
STYLE
  2
ＭＳ_ゴシック
 70
     0
 40
0.0
 41
1.0
 50
0.0
 71
     0
 42
0.2
  3
ＭＳ ゴシック.shx
  4

  0
ENDTAB
  0
TABLE
  2
VIEW
 70
     0
  0
ENDTAB
  0
TABLE
  2
UCS
 70
     0
  0
ENDTAB
  0
ENDSEC
  0
SECTION
  2
BLOCKS
  0
BLOCK
  8
0
  2
D_FRAME_VIEW_3810
 70
     0
 10
0.0
 20
0.0
 30
0.0
  0
ENDBLK
  8
0
  0
BLOCK
  8
0
  2
D_FRAME_VIEW_4509
 70
     0
 10
0.0
 20
0.0
 30
0.0
  0
ENDBLK
  8
0
  0
ENDSEC
  0
SECTION
  2
ENTITIES
  0
INSERT
  5
71
  8
1
  6
CONTINUOUS
 62
     7
  2
D_FRAME_VIEW_3810
 10
0.0
 20
0.0
 30
0.0
  0
INSERT
  5
75
  8
1
  6
CONTINUOUS
 62
     7
  2
D_FRAME_VIEW_4509
 10
0.0
 20
0.0
 30
0.0
  0
LINE
  5
76
  8
1
  6
CONTINUOUS
 62
     7
 10
630.1000000000001
 20
-61.18694526141639
 30
0.0
 11
630.5
 21
-60.03310654702999
 31
0.0
  0
LINE
  5
77
  8
1
  6
CONTINUOUS
 62
     7
 10
750.1
 20
2.186945261416422
 30
0.0
 11
751.1000000000001
 21
2.186945261416415
 31
0.0
  0
LINE
  5
78
  8
1
  6
CONTINUOUS
 62
     7
 10
751.1000000000001
 20
-61.18694526141639
 30
0.0
 11
750.1
 21
-61.18694526141639
 31
0.0
  0
LINE
  5
79
  8
1
  6
CONTINUOUS
 62
     7
 10
761.1000000000001
 20
2.186945261416422
 30
0.0
 11
761.1000000000001
 21
-27.49999999999999
 31
0.0
  0
LINE
  5
7A
  8
1
  6
CONTINUOUS
 62
     7
 10
640.5
 20
-31.49999999999999
 30
0.0
 11
640.5
 21
-60.05109370652496
 31
0.0
  0
LINE
  5
7B
  8
1
  6
CONTINUOUS
 62
     7
 10
630.5
 20
1.033106547030014
 30
0.0
 11
630.5
 21
-27.49999999999999
 31
0.0
  0
LINE
  5
7C
  8
1
  6
CONTINUOUS
 62
     7
 10
770.6
 20
2.249999999999964
 30
0.0
 11
770.6
 21
-61.24999999999994
 31
0.0
  0
LINE
  5
7D
  8
1
  6
CONTINUOUS
 62
     7
 10
760.1
 20
2.186945261416409
 30
0.0
 11
760.1
 21
-27.49999999999999
 31
0.0
  0
LINE
  5
7E
  8
1
  6
CONTINUOUS
 62
     7
 10
660.5000000000001
 20
-31.49999999999999
 30
0.0
 11
660.5000000000001
 21
-60.0870678900232
 31
0.0
  0
LINE
  5
7F
  8
1
  6
CONTINUOUS
 62
     7
 10
660.5000000000001
 20
1.087067890023254
 30
0.0
 11
660.5000000000001
 21
-27.5
 31
0.0
  0
LINE
  5
80
  8
1
  6
CONTINUOUS
 62
     7
 10
741.1
 20
2.186945261416422
 30
0.0
 11
741.1
 21
-27.49999999999999
 31
0.0
  0
LINE
  5
81
  8
1
  6
CONTINUOUS
 62
     7
 10
660.5000000000001
 20
1.087067890023285
 30
0.0
 11
660.1
 21
2.186945261416422
 31
0.0
  0
LINE
  5
82
  8
1
  6
CONTINUOUS
 62
     7
 10
650.1000000000001
 20
-61.18694526141639
 30
0.0
 11
650.5000000000001
 21
-60.06908082082948
 31
0.0
  0
LINE
  5
83
  8
1
  6
CONTINUOUS
 62
     7
 10
740.0999999999999
 20
2.186945261416409
 30
0.0
 11
740.0999999999999
 21
-27.49999999999999
 31
0.0
  0
LINE
  5
84
  8
1
  6
CONTINUOUS
 62
     7
 10
661.1
 20
2.186945261416415
 30
0.0
 11
660.7
 21
1.087427630947577
 31
0.0
  0
LINE
  5
85
  8
1
  6
CONTINUOUS
 62
     7
 10
631.1
 20
2.186945261416415
 30
0.0
 11
630.7
 21
1.033466290663299
 31
0.0
  0
LINE
  5
86
  8
1
  6
CONTINUOUS
 62
     7
 10
650.7
 20
1.069440562655181
 30
0.0
 11
650.7
 21
-27.49999999999999
 31
0.0
  0
LINE
  5
87
  8
1
  6
CONTINUOUS
 62
     7
 10
760.1
 20
-31.49999999999999
 30
0.0
 11
761.1000000000001
 21
-31.49999999999999
 31
0.0
  0
LINE
  5
88
  8
1
  6
CONTINUOUS
 62
     7
 10
751.1000000000001
 20
2.186945261416422
 30
0.0
 11
751.1000000000001
 21
-27.49999999999999
 31
0.0
  0
LINE
  5
89
  8
1
  6
CONTINUOUS
 62
     7
 10
741.1
 20
-31.49999999999999
 30
0.0
 11
741.1
 21
-61.18694526141639
 31
0.0
  0
LINE
  5
8A
  8
1
  6
CONTINUOUS
 62
     7
 10
740.0999999999999
 20
2.186945261416422
 30
0.0
 11
741.1
 21
2.186945261416415
 31
0.0
  0
LINE
  5
8B
  8
1
  6
CONTINUOUS
 62
     7
 10
730.0999999999999
 20
-31.49999999999999
 30
0.0
 11
731.1
 21
-31.49999999999999
 31
0.0
  0
LINE
  5
8C
  8
1
  6
CONTINUOUS
 62
     7
 10
760.1
 20
2.186945261416422
 30
0.0
 11
761.1000000000001
 21
2.186945261416415
 31
0.0
  0
LINE
  5
8D
  8
1
  6
CONTINUOUS
 62
     7
 10
670.1
 20
-61.18694526141639
 30
0.0
 11
670.5000000000001
 21
-60.10505491418585
 31
0.0
  0
LINE
  5
8E
  8
1
  6
CONTINUOUS
 62
     7
 10
640.5
 20
1.051093706524984
 30
0.0
 11
640.1000000000001
 21
2.186945261416422
 31
0.0
  0
LINE
  5
8F
  8
1
  6
CONTINUOUS
 62
     7
 10
750.1
 20
-31.49999999999999
 30
0.0
 11
751.1000000000001
 21
-31.49999999999999
 31
0.0
  0
LINE
  5
90
  8
1
  6
CONTINUOUS
 62
     7
 10
741.1
 20
-61.18694526141639
 30
0.0
 11
740.0999999999999
 21
-61.18694526141639
 31
0.0
  0
LINE
  5
91
  8
1
  6
CONTINUOUS
 62
     7
 10
640.5
 20
1.051093706524984
 30
0.0
 11
640.5
 21
-27.49999999999999
 31
0.0
  0
LINE
  5
92
  8
1
  6
CONTINUOUS
 62
     7
 10
630.5
 20
-31.49999999999999
 30
0.0
 11
630.5
 21
-60.03310654702997
 31
0.0
  0
LINE
  5
93
  8
1
  6
CONTINUOUS
 62
     7
 10
621.1
 20
2.186945261416415
 30
0.0
 11
620.7
 21
1.01547908680415
 31
0.0
  0
LINE
  5
94
  8
1
  6
CONTINUOUS
 62
     7
 10
750.1
 20
2.186945261416409
 30
0.0
 11
750.1
 21
-27.49999999999999
 31
0.0
  0
LINE
  5
95
  8
1
  6
CONTINUOUS
 62
     7
 10
640.1000000000001
 20
-61.18694526141639
 30
0.0
 11
640.5
 21
-60.05109370652496
 31
0.0
  0
LINE
  5
96
  8
1
  6
CONTINUOUS
 62
     7
 10
630.7
 20
1.033466290663299
 30
0.0
 11
630.7
 21
-27.49999999999999
 31
0.0
  0
LINE
  5
97
  8
1
  6
CONTINUOUS
 62
     7
 10
651.1
 20
2.186945261416415
 30
0.0
 11
650.7
 21
1.069440562655195
 31
0.0
  0
LINE
  5
98
  8
1
  6
CONTINUOUS
 62
     7
 10
650.5000000000001
 20
-31.49999999999999
 30
0.0
 11
650.5000000000001
 21
-60.06908082082948
 31
0.0
  0
LINE
  5
99
  8
1
  6
CONTINUOUS
 62
     7
 10
670.5000000000001
 20
-31.49999999999999
 30
0.0
 11
670.5000000000001
 21
-60.10505491418583
 31
0.0
  0
LINE
  5
9A
  8
1
  6
CONTINUOUS
 62
     7
 10
620.5
 20
-31.49999999999999
 30
0.0
 11
620.5
 21
-60.01511934226465
 31
0.0
  0
LINE
  5
9B
  8
1
  6
CONTINUOUS
 62
     7
 10
620.1000000000001
 20
-61.18694526141639
 30
0.0
 11
620.5
 21
-60.01511934226465
 31
0.0
  0
LINE
  5
9C
  8
1
  6
CONTINUOUS
 62
     7
 10
620.5
 20
1.015119342264677
 30
0.0
 11
620.1000000000001
 21
2.186945261416422
 31
0.0
  0
LINE
  5
9D
  8
1
  6
CONTINUOUS
 62
     7
 10
630.5
 20
1.033106547030017
 30
0.0
 11
630.1000000000001
 21
2.186945261416422
 31
0.0
  0
LINE
  5
9E
  8
1
  6
CONTINUOUS
 62
     7
 10
670.5000000000001
 20
1.10505491418586
 30
0.0
 11
670.5000000000001
 21
-27.5
 31
0.0
  0
LINE
  5
9F
  8
1
  6
CONTINUOUS
 62
     7
 10
751.1000000000001
 20
-27.49999999999999
 30
0.0
 11
750.1
 21
-27.49999999999999
 31
0.0
  0
LINE
  5
A0
  8
1
  6
CONTINUOUS
 62
     7
 10
660.1
 20
-61.18694526141639
 30
0.0
 11
660.5000000000001
 21
-60.08706789002326
 31
0.0
  0
LINE
  5
A1
  8
1
  6
CONTINUOUS
 62
     7
 10
731.1
 20
-61.18694526141639
 30
0.0
 11
730.0999999999999
 21
-61.18694526141639
 31
0.0
  0
LINE
  5
A2
  8
1
  6
CONTINUOUS
 62
     7
 10
650.5000000000001
 20
1.069080820829502
 30
0.0
 11
650.5000000000001
 21
-27.49999999999999
 31
0.0
  0
LINE
  5
A3
  8
1
  6
CONTINUOUS
 62
     7
 10
670.5000000000001
 20
1.105054914185874
 30
0.0
 11
670.1
 21
2.186945261416422
 31
0.0
  0
LINE
  5
A4
  8
1
  6
CONTINUOUS
 62
     7
 10
750.1
 20
-31.49999999999999
 30
0.0
 11
750.1
 21
-61.18694526141638
 31
0.0
  0
LINE
  5
A5
  8
1
  6
CONTINUOUS
 62
     7
 10
741.1
 20
-27.49999999999999
 30
0.0
 11
740.0999999999999
 21
-27.49999999999999
 31
0.0
  0
LINE
  5
A6
  8
1
  6
CONTINUOUS
 62
     7
 10
761.1000000000001
 20
-31.49999999999999
 30
0.0
 11
761.1000000000001
 21
-61.18694526141639
 31
0.0
  0
LINE
  5
A7
  8
1
  6
CONTINUOUS
 62
     7
 10
760.1
 20
-31.49999999999999
 30
0.0
 11
760.1
 21
-61.18694526141638
 31
0.0
  0
LINE
  5
A8
  8
1
  6
CONTINUOUS
 62
     7
 10
640.7
 20
1.051453449253659
 30
0.0
 11
640.7
 21
-27.49999999999999
 31
0.0
  0
LINE
  5
A9
  8
1
  6
CONTINUOUS
 62
     7
 10
740.0999999999999
 20
-31.49999999999999
 30
0.0
 11
741.1
 21
-31.49999999999999
 31
0.0
  0
LINE
  5
AA
  8
1
  6
CONTINUOUS
 62
     7
 10
761.1000000000001
 20
-27.49999999999999
 30
0.0
 11
760.1
 21
-27.49999999999999
 31
0.0
  0
LINE
  5
AB
  8
1
  6
CONTINUOUS
 62
     7
 10
650.5000000000001
 20
1.069080820829502
 30
0.0
 11
650.1000000000001
 21
2.186945261416422
 31
0.0
  0
LINE
  5
AC
  8
1
  6
CONTINUOUS
 62
     7
 10
761.1000000000001
 20
-61.18694526141639
 30
0.0
 11
760.1
 21
-61.18694526141639
 31
0.0
  0
LINE
  5
AD
  8
1
  6
CONTINUOUS
 62
     7
 10
730.0999999999999
 20
-31.49999999999999
 30
0.0
 11
730.0999999999999
 21
-61.18694526141638
 31
0.0
  0
LINE
  5
AE
  8
1
  6
CONTINUOUS
 62
     7
 10
731.1
 20
-31.49999999999999
 30
0.0
 11
731.1
 21
-61.18694526141639
 31
0.0
  0
LINE
  5
AF
  8
1
  6
CONTINUOUS
 62
     7
 10
620.5
 20
1.015119342264677
 30
0.0
 11
620.5
 21
-27.5
 31
0.0
  0
LINE
  5
B0
  8
1
  6
CONTINUOUS
 62
     7
 10
660.7
 20
1.087427630947546
 30
0.0
 11
660.7
 21
-27.5
 31
0.0
  0
LINE
  5
B1
  8
1
  6
CONTINUOUS
 62
     7
 10
620.7
 20
1.01547908680415
 30
0.0
 11
620.7
 21
-27.5
 31
0.0
  0
LINE
  5
B2
  8
1
  6
CONTINUOUS
 62
     7
 10
670.7
 20
1.105414654210338
 30
0.0
 11
670.7
 21
-27.49999999999999
 31
0.0
  0
LINE
  5
B3
  8
1
  6
CONTINUOUS
 62
     7
 10
671.1
 20
2.186945261416415
 30
0.0
 11
670.7
 21
1.105414654210355
 31
0.0
  0
LINE
  5
B4
  8
1
  6
CONTINUOUS
 62
     7
 10
751.1000000000001
 20
-31.49999999999999
 30
0.0
 11
751.1000000000001
 21
-61.18694526141639
 31
0.0
  0
LINE
  5
B5
  8
1
  6
CONTINUOUS
 62
     7
 10
740.0999999999999
 20
-31.49999999999999
 30
0.0
 11
740.0999999999999
 21
-61.18694526141638
 31
0.0
  0
LINE
  5
B6
  8
1
  6
CONTINUOUS
 62
     7
 10
700.7
 20
1.159375454613573
 30
0.0
 11
700.7
 21
-27.49999999999999
 31
0.0
  0
LINE
  5
B7
  8
1
  6
CONTINUOUS
 62
     7
 10
660.7
 20
-31.49999999999999
 30
0.0
 11
660.7
 21
-60.08742763094752
 31
0.0
  0
LINE
  5
B8
  8
1
  6
CONTINUOUS
 62
     7
 10
720.5
 20
1.19498936230163
 30
0.0
 11
720.0999999999999
 21
2.186945261416422
 31
0.0
  0
LINE
  5
B9
  8
1
  6
CONTINUOUS
 62
     7
 10
700.1
 20
-61.18694526141639
 30
0.0
 11
700.5000000000001
 21
-60.15901571727902
 31
0.0
  0
LINE
  5
BA
  8
1
  6
CONTINUOUS
 62
     7
 10
730.5
 20
-31.49999999999999
 30
0.0
 11
730.5
 21
-60.21297611793687
 31
0.0
  0
LINE
  5
BB
  8
1
  6
CONTINUOUS
 62
     7
 10
760.5
 20
-31.49999999999999
 30
0.0
 11
760.5
 21
-60.26693611827682
 31
0.0
  0
LINE
  5
BC
  8
1
  6
CONTINUOUS
 62
     7
 10
681.1
 20
2.186945261416415
 30
0.0
 11
680.7
 21
1.12340163252287
 31
0.0
  0
LINE
  5
BD
  8
1
  6
CONTINUOUS
 62
     7
 10
750.7
 20
1.249309228729283
 30
0.0
 11
750.7
 21
-27.49999999999999
 31
0.0
  0
LINE
  5
BE
  8
1
  6
CONTINUOUS
 62
     7
 10
761.1000000000001
 20
2.186945261416415
 30
0.0
 11
760.7
 21
1.267295850273884
 31
0.0
  0
LINE
  5
BF
  8
1
  6
CONTINUOUS
 62
     7
 10
740.0999999999999
 20
-61.18694526141639
 30
0.0
 11
740.5
 21
-60.23096282909248
 31
0.0
  0
LINE
  5
C0
  8
1
  6
CONTINUOUS
 62
     7
 10
760.7
 20
1.267295850273884
 30
0.0
 11
760.7
 21
-27.5
 31
0.0
  0
LINE
  5
C1
  8
1
  6
CONTINUOUS
 62
     7
 10
690.7
 20
-31.49999999999999
 30
0.0
 11
690.7
 21
-60.14138856596419
 31
0.0
  0
LINE
  5
C2
  8
1
  6
CONTINUOUS
 62
     7
 10
680.7
 20
-60.12340163252284
 30
0.0
 11
681.1
 21
-61.18694526141639
 31
0.0
  0
LINE
  5
C3
  8
1
  6
CONTINUOUS
 62
     7
 10
640.7
 20
-31.49999999999999
 30
0.0
 11
640.7
 21
-60.05145344925363
 31
0.0
  0
LINE
  5
C4
  8
1
  6
CONTINUOUS
 62
     7
 10
690.5
 20
1.141028827734682
 30
0.0
 11
690.1
 21
2.186945261416422
 31
0.0
  0
LINE
  5
C5
  8
1
  6
CONTINUOUS
 62
     7
 10
640.7
 20
-60.05145344925365
 30
0.0
 11
641.1
 21
-61.18694526141639
 31
0.0
  0
LINE
  5
C6
  8
1
  6
CONTINUOUS
 62
     7
 10
730.7
 20
1.213335852595674
 30
0.0
 11
730.7
 21
-27.49999999999999
 31
0.0
  0
LINE
  5
C7
  8
1
  6
CONTINUOUS
 62
     7
 10
680.5000000000001
 20
-31.49999999999999
 30
0.0
 11
680.5000000000001
 21
-60.12304189339662
 31
0.0
  0
LINE
  5
C8
  8
1
  6
CONTINUOUS
 62
     7
 10
680.5000000000001
 20
1.12304189339665
 30
0.0
 11
680.5000000000001
 21
-27.49999999999999
 31
0.0
  0
LINE
  5
C9
  8
1
  6
CONTINUOUS
 62
     7
 10
690.7
 20
1.141388565964237
 30
0.0
 11
690.7
 21
-27.49999999999999
 31
0.0
  0
LINE
  5
CA
  8
1
  6
CONTINUOUS
 62
     7
 10
670.7
 20
-31.49999999999999
 30
0.0
 11
670.7
 21
-60.10541465421031
 31
0.0
  0
LINE
  5
CB
  8
1
  6
CONTINUOUS
 62
     7
 10
700.5000000000001
 20
1.159015717279072
 30
0.0
 11
700.5000000000001
 21
-27.5
 31
0.0
  0
LINE
  5
CC
  8
1
  6
CONTINUOUS
 62
     7
 10
620.7
 20
-60.01547908680413
 30
0.0
 11
621.1
 21
-61.18694526141639
 31
0.0
  0
LINE
  5
CD
  8
1
  6
CONTINUOUS
 62
     7
 10
710.5000000000001
 20
-31.49999999999999
 30
0.0
 11
710.5000000000001
 21
-60.17700256210841
 31
0.0
  0
LINE
  5
CE
  8
1
  6
CONTINUOUS
 62
     7
 10
630.7
 20
-60.03346629066328
 30
0.0
 11
631.1
 21
-61.18694526141639
 31
0.0
  0
LINE
  5
CF
  8
1
  6
CONTINUOUS
 62
     7
 10
680.5000000000001
 20
1.123041893396619
 30
0.0
 11
680.1
 21
2.186945261416422
 31
0.0
  0
LINE
  5
D0
  8
1
  6
CONTINUOUS
 62
     7
 10
660.7
 20
-60.08742763094756
 30
0.0
 11
661.1
 21
-61.18694526141639
 31
0.0
  0
LINE
  5
D1
  8
1
  6
CONTINUOUS
 62
     7
 10
690.5
 20
1.141028827734709
 30
0.0
 11
690.5
 21
-27.49999999999999
 31
0.0
  0
LINE
  5
D2
  8
1
  6
CONTINUOUS
 62
     7
 10
720.7
 20
1.195349097850726
 30
0.0
 11
720.7
 21
-27.49999999999999
 31
0.0
  0
LINE
  5
D3
  8
1
  6
CONTINUOUS
 62
     7
 10
650.7
 20
-31.49999999999999
 30
0.0
 11
650.7
 21
-60.06944056265515
 31
0.0
  0
LINE
  5
D4
  8
1
  6
CONTINUOUS
 62
     7
 10
710.5000000000001
 20
1.177002562108488
 30
0.0
 11
710.1
 21
2.186945261416422
 31
0.0
  0
LINE
  5
D5
  8
1
  6
CONTINUOUS
 62
     7
 10
680.7
 20
1.123401632522853
 30
0.0
 11
680.7
 21
-27.5
 31
0.0
  0
LINE
  5
D6
  8
1
  6
CONTINUOUS
 62
     7
 10
711.1
 20
2.186945261416415
 30
0.0
 11
710.7
 21
1.177362298549527
 31
0.0
  0
LINE
  5
D7
  8
1
  6
CONTINUOUS
 62
     7
 10
720.0999999999999
 20
-61.18694526141639
 30
0.0
 11
720.5
 21
-60.19498936230161
 31
0.0
  0
LINE
  5
D8
  8
1
  6
CONTINUOUS
 62
     7
 10
751.1000000000001
 20
2.186945261416415
 30
0.0
 11
750.7
 21
1.249309228729251
 31
0.0
  0
LINE
  5
D9
  8
1
  6
CONTINUOUS
 62
     7
 10
680.7
 20
-31.49999999999999
 30
0.0
 11
680.7
 21
-60.12340163252281
 31
0.0
  0
LINE
  5
DA
  8
1
  6
CONTINUOUS
 62
     7
 10
680.1
 20
-61.18694526141639
 30
0.0
 11
680.5000000000001
 21
-60.1230418933966
 31
0.0
  0
LINE
  5
DB
  8
1
  6
CONTINUOUS
 62
     7
 10
690.5
 20
-31.49999999999999
 30
0.0
 11
690.5
 21
-60.1410288277347
 31
0.0
  0
LINE
  5
DC
  8
1
  6
CONTINUOUS
 62
     7
 10
710.5000000000001
 20
1.177002562108443
 30
0.0
 11
710.5000000000001
 21
-27.5
 31
0.0
  0
LINE
  5
DD
  8
1
  6
CONTINUOUS
 62
     7
 10
670.7
 20
-60.10541465421034
 30
0.0
 11
671.1
 21
-61.18694526141639
 31
0.0
  0
LINE
  5
DE
  8
1
  6
CONTINUOUS
 62
     7
 10
710.7
 20
1.177362298549527
 30
0.0
 11
710.7
 21
-27.5
 31
0.0
  0
LINE
  5
DF
  8
1
  6
CONTINUOUS
 62
     7
 10
730.0999999999999
 20
-61.18694526141639
 30
0.0
 11
730.5
 21
-60.21297611793687
 31
0.0
  0
LINE
  5
E0
  8
1
  6
CONTINUOUS
 62
     7
 10
690.1
 20
-61.18694526141639
 30
0.0
 11
690.5
 21
-60.14102882773466
 31
0.0
  0
LINE
  5
E1
  8
1
  6
CONTINUOUS
 62
     7
 10
630.7
 20
-31.49999999999999
 30
0.0
 11
630.7
 21
-60.03346629066328
 31
0.0
  0
LINE
  5
E2
  8
1
  6
CONTINUOUS
 62
     7
 10
750.1
 20
-61.18694526141639
 30
0.0
 11
750.5
 21
-60.24894949584651
 31
0.0
  0
LINE
  5
E3
  8
1
  6
CONTINUOUS
 62
     7
 10
731.1
 20
2.186945261416415
 30
0.0
 11
730.7
 21
1.213335852595643
 31
0.0
  0
LINE
  5
E4
  8
1
  6
CONTINUOUS
 62
     7
 10
691.1
 20
2.186945261416415
 30
0.0
 11
690.7
 21
1.141388565964282
 31
0.0
  0
LINE
  5
E5
  8
1
  6
CONTINUOUS
 62
     7
 10
710.1
 20
-61.18694526141639
 30
0.0
 11
710.5000000000001
 21
-60.17700256210846
 31
0.0
  0
LINE
  5
E6
  8
1
  6
CONTINUOUS
 62
     7
 10
760.1
 20
-61.18694526141639
 30
0.0
 11
760.5
 21
-60.26693611827682
 31
0.0
  0
LINE
  5
E7
  8
1
  6
CONTINUOUS
 62
     7
 10
760.5
 20
1.266936118276846
 30
0.0
 11
760.5
 21
-27.49999999999999
 31
0.0
  0
LINE
  5
E8
  8
1
  6
CONTINUOUS
 62
     7
 10
720.5
 20
-31.49999999999999
 30
0.0
 11
720.5
 21
-60.19498936230161
 31
0.0
  0
LINE
  5
E9
  8
1
  6
CONTINUOUS
 62
     7
 10
740.5
 20
-31.49999999999999
 30
0.0
 11
740.5
 21
-60.23096282909246
 31
0.0
  0
LINE
  5
EA
  8
1
  6
CONTINUOUS
 62
     7
 10
720.5
 20
1.19498936230163
 30
0.0
 11
720.5
 21
-27.49999999999999
 31
0.0
  0
LINE
  5
EB
  8
1
  6
CONTINUOUS
 62
     7
 10
690.7
 20
-60.14138856596426
 30
0.0
 11
691.1
 21
-61.18694526141639
 31
0.0
  0
LINE
  5
EC
  8
1
  6
CONTINUOUS
 62
     7
 10
700.7
 20
-60.15937545461355
 30
0.0
 11
701.1
 21
-61.18694526141639
 31
0.0
  0
LINE
  5
ED
  8
1
  6
CONTINUOUS
 62
     7
 10
620.7
 20
-31.49999999999999
 30
0.0
 11
620.7
 21
-60.01547908680413
 31
0.0
  0
LINE
  5
EE
  8
1
  6
CONTINUOUS
 62
     7
 10
721.1
 20
2.186945261416415
 30
0.0
 11
720.7
 21
1.195349097850743
 31
0.0
  0
LINE
  5
EF
  8
1
  6
CONTINUOUS
 62
     7
 10
650.7
 20
-60.06944056265517
 30
0.0
 11
651.1
 21
-61.18694526141639
 31
0.0
  0
LINE
  5
F0
  8
1
  6
CONTINUOUS
 62
     7
 10
700.5000000000001
 20
-31.49999999999999
 30
0.0
 11
700.5000000000001
 21
-60.15901571727905
 31
0.0
  0
LINE
  5
F1
  8
1
  6
CONTINUOUS
 62
     7
 10
760.5
 20
1.266936118276846
 30
0.0
 11
760.1
 21
2.186945261416422
 31
0.0
  0
LINE
  5
F2
  8
1
  6
CONTINUOUS
 62
     7
 10
701.1
 20
2.186945261416415
 30
0.0
 11
700.7
 21
1.159375454613577
 31
0.0
  0
LINE
  5
F3
  8
1
  6
CONTINUOUS
 62
     7
 10
700.5000000000001
 20
1.159015717279041
 30
0.0
 11
700.1
 21
2.186945261416422
 31
0.0
  0
LINE
  5
F4
  8
1
  6
CONTINUOUS
 62
     7
 10
641.1
 20
2.186945261416415
 30
0.0
 11
640.7
 21
1.051453449253677
 31
0.0
  0
LINE
  5
F5
  8
1
  6
CONTINUOUS
 62
     7
 10
750.5
 20
-31.49999999999999
 30
0.0
 11
750.5
 21
-60.24894949584651
 31
0.0
  0
LINE
  5
F6
  8
1
  6
CONTINUOUS
 62
     7
 10
750.5
 20
1.248949495846533
 30
0.0
 11
750.1
 21
2.186945261416422
 31
0.0
  0
LINE
  5
F7
  8
1
  6
CONTINUOUS
 62
     7
 10
750.7
 20
-31.49999999999999
 30
0.0
 11
750.7
 21
-60.24930922872926
 31
0.0
  0
LINE
  5
F8
  8
1
  6
CONTINUOUS
 62
     7
 10
620.7
 20
1.01547908680415
 30
0.0
 11
620.5
 21
1.015119342264677
 31
0.0
  0
LINE
  5
F9
  8
1
  6
CONTINUOUS
 62
     7
 10
520.6
 20
12.49999999999997
 30
0.0
 11
520.6
 21
3.999999999999972
 31
0.0
  0
LINE
  5
FA
  8
1
  6
CONTINUOUS
 62
     7
 10
660.7
 20
1.087427630947577
 30
0.0
 11
660.5000000000001
 21
1.087067890023285
 31
0.0
  0
LINE
  5
FB
  8
1
  6
CONTINUOUS
 62
     7
 10
740.7
 20
1.231322562862462
 30
0.0
 11
740.5
 21
1.230962829092505
 31
0.0
  0
LINE
  5
FC
  8
1
  6
CONTINUOUS
 62
     7
 10
630.7
 20
1.033466290663299
 30
0.0
 11
630.5
 21
1.033106547030017
 31
0.0
  0
LINE
  5
FD
  8
1
  6
CONTINUOUS
 62
     7
 10
630.5
 20
-60.03310654702999
 30
0.0
 11
630.7
 21
-60.03346629066328
 31
0.0
  0
LINE
  5
FE
  8
1
  6
CONTINUOUS
 62
     7
 10
710.7
 20
-31.49999999999999
 30
0.0
 11
710.7
 21
-60.1773622985495
 31
0.0
  0
LINE
  5
FF
  8
1
  6
CONTINUOUS
 62
     7
 10
640.5
 20
-60.05109370652496
 30
0.0
 11
640.7
 21
-60.05145344925365
 31
0.0
  0
LINE
  5
100
  8
1
  6
CONTINUOUS
 62
     7
 10
730.5
 20
1.212976117936891
 30
0.0
 11
730.5
 21
-27.49999999999999
 31
0.0
  0
LINE
  5
101
  8
1
  6
CONTINUOUS
 62
     7
 10
730.7
 20
1.213335852595643
 30
0.0
 11
730.5
 21
1.212976117936891
 31
0.0
  0
LINE
  5
102
  8
1
  6
CONTINUOUS
 62
     7
 10
750.5
 20
-60.24894949584651
 30
0.0
 11
750.7
 21
-60.24930922872923
 31
0.0
  0
LINE
  5
103
  8
1
  6
CONTINUOUS
 62
     7
 10
750.7
 20
-60.24930922872923
 30
0.0
 11
751.1000000000001
 21
-61.18694526141639
 31
0.0
  0
LINE
  5
104
  8
1
  6
CONTINUOUS
 62
     7
 10
700.7
 20
-31.49999999999999
 30
0.0
 11
700.7
 21
-60.15937545461355
 31
0.0
  0
LINE
  5
105
  8
1
  6
CONTINUOUS
 62
     7
 10
760.7
 20
1.267295850273884
 30
0.0
 11
760.5
 21
1.266936118276846
 31
0.0
  0
LINE
  5
106
  8
1
  6
CONTINUOUS
 62
     7
 10
680.7
 20
1.12340163252287
 30
0.0
 11
680.5000000000001
 21
1.123041893396619
 31
0.0
  0
LINE
  5
107
  8
1
  6
CONTINUOUS
 62
     7
 10
741.1
 20
2.186945261416415
 30
0.0
 11
740.7
 21
1.231322562862462
 31
0.0
  0
LINE
  5
108
  8
1
  6
CONTINUOUS
 62
     7
 10
720.7
 20
-31.49999999999999
 30
0.0
 11
720.7
 21
-60.19534909785069
 31
0.0
  0
LINE
  5
109
  8
1
  6
CONTINUOUS
 62
     7
 10
700.7
 20
1.159375454613577
 30
0.0
 11
700.5000000000001
 21
1.159015717279041
 31
0.0
  0
LINE
  5
10A
  8
1
  6
CONTINUOUS
 62
     7
 10
670.5000000000001
 20
-60.10505491418585
 30
0.0
 11
670.7
 21
-60.10541465421034
 31
0.0
  0
LINE
  5
10B
  8
1
  6
CONTINUOUS
 62
     7
 10
670.7
 20
1.105414654210355
 30
0.0
 11
670.5000000000001
 21
1.105054914185874
 31
0.0
  0
LINE
  5
10C
  8
1
  6
CONTINUOUS
 62
     7
 10
650.5000000000001
 20
-60.06908082082948
 30
0.0
 11
650.7
 21
-60.06944056265517
 31
0.0
  0
LINE
  5
10D
  8
1
  6
CONTINUOUS
 62
     7
 10
740.5
 20
1.230962829092505
 30
0.0
 11
740.5
 21
-27.49999999999999
 31
0.0
  0
LINE
  5
10E
  8
1
  6
CONTINUOUS
 62
     7
 10
730.7
 20
-60.21333585259562
 30
0.0
 11
731.1
 21
-61.18694526141639
 31
0.0
  0
LINE
  5
10F
  8
1
  6
CONTINUOUS
 62
     7
 10
720.7
 20
1.195349097850743
 30
0.0
 11
720.5
 21
1.19498936230163
 31
0.0
  0
LINE
  5
110
  8
1
  6
CONTINUOUS
 62
     7
 10
710.7
 20
1.177362298549527
 30
0.0
 11
710.5000000000001
 21
1.177002562108488
 31
0.0
  0
LINE
  5
111
  8
1
  6
CONTINUOUS
 62
     7
 10
690.7
 20
1.141388565964282
 30
0.0
 11
690.5
 21
1.141028827734682
 31
0.0
  0
LINE
  5
112
  8
1
  6
CONTINUOUS
 62
     7
 10
710.7
 20
-60.1773622985495
 30
0.0
 11
711.1
 21
-61.18694526141639
 31
0.0
  0
LINE
  5
113
  8
1
  6
CONTINUOUS
 62
     7
 10
740.7
 20
-60.23132256286244
 30
0.0
 11
741.1
 21
-61.18694526141639
 31
0.0
  0
LINE
  5
114
  8
1
  6
CONTINUOUS
 62
     7
 10
740.7
 20
1.231322562862462
 30
0.0
 11
740.7
 21
-27.49999999999999
 31
0.0
  0
LINE
  5
115
  8
1
  6
CONTINUOUS
 62
     7
 10
740.5
 20
1.230962829092505
 30
0.0
 11
740.0999999999999
 21
2.186945261416422
 31
0.0
  0
LINE
  5
116
  8
1
  6
CONTINUOUS
 62
     7
 10
760.7
 20
-60.26729585027386
 30
0.0
 11
761.1000000000001
 21
-61.18694526141639
 31
0.0
  0
LINE
  5
117
  8
1
  6
CONTINUOUS
 62
     7
 10
760.5
 20
-60.26693611827682
 30
0.0
 11
760.7
 21
-60.26729585027386
 31
0.0
  0
LINE
  5
118
  8
1
  6
CONTINUOUS
 62
     7
 10
720.5
 20
-60.19498936230161
 30
0.0
 11
720.7
 21
-60.19534909785072
 31
0.0
  0
LINE
  5
119
  8
1
  6
CONTINUOUS
 62
     7
 10
680.5000000000001
 20
-60.1230418933966
 30
0.0
 11
680.7
 21
-60.12340163252284
 31
0.0
  0
LINE
  5
11A
  8
1
  6
CONTINUOUS
 62
     7
 10
690.5
 20
-60.14102882773466
 30
0.0
 11
690.7
 21
-60.14138856596426
 31
0.0
  0
LINE
  5
11B
  8
1
  6
CONTINUOUS
 62
     7
 10
710.5000000000001
 20
-60.17700256210846
 30
0.0
 11
710.7
 21
-60.1773622985495
 31
0.0
  0
LINE
  5
11C
  8
1
  6
CONTINUOUS
 62
     7
 10
730.5
 20
-60.21297611793687
 30
0.0
 11
730.7
 21
-60.21333585259562
 31
0.0
  0
LINE
  5
11D
  8
1
  6
CONTINUOUS
 62
     7
 10
750.7
 20
1.249309228729251
 30
0.0
 11
750.5
 21
1.248949495846533
 31
0.0
  0
LINE
  5
11E
  8
1
  6
CONTINUOUS
 62
     7
 10
700.5000000000001
 20
-60.15901571727902
 30
0.0
 11
700.7
 21
-60.15937545461355
 31
0.0
  0
LINE
  5
11F
  8
1
  6
CONTINUOUS
 62
     7
 10
740.5
 20
-60.23096282909248
 30
0.0
 11
740.7
 21
-60.23132256286244
 31
0.0
  0
ARC
  5
120
  8
1
  6
CONTINUOUS
 62
     7
 10
-3729.022305338752
 20
-29.49999999999998
 30
0.0
 40
4249.700606895675
 50
359.6739046731128
 51
0.3260953268872412
  0
LINE
  5
121
  8
1
  6
CONTINUOUS
 62
     7
 10
750.5
 20
1.248949495846561
 30
0.0
 11
750.5
 21
-27.49999999999999
 31
0.0
  0
LINE
  5
122
  8
1
  6
CONTINUOUS
 62
     7
 10
720.7
 20
-60.19534909785072
 30
0.0
 11
721.1
 21
-61.18694526141639
 31
0.0
  0
LINE
  5
123
  8
1
  6
CONTINUOUS
 62
     7
 10
730.5
 20
1.212976117936891
 30
0.0
 11
730.0999999999999
 21
2.186945261416422
 31
0.0
  0
LINE
  5
124
  8
1
  6
CONTINUOUS
 62
     7
 10
760.7
 20
-31.49999999999999
 30
0.0
 11
760.7
 21
-60.26729585027386
 31
0.0
  0
LINE
  5
125
  8
1
  6
CONTINUOUS
 62
     7
 10
730.7
 20
-31.49999999999999
 30
0.0
 11
730.7
 21
-60.21333585259566
 31
0.0
  0
LINE
  5
126
  8
1
  6
CONTINUOUS
 62
     7
 10
740.7
 20
-31.49999999999999
 30
0.0
 11
740.7
 21
-60.23132256286244
 31
0.0
  0
LINE
  5
127
  8
1
  6
CONTINUOUS
 62
     7
 10
660.5000000000001
 20
-60.08706789002326
 30
0.0
 11
660.7
 21
-60.08742763094756
 31
0.0
  0
LINE
  5
128
  8
1
  6
CONTINUOUS
 62
     7
 10
650.7
 20
1.069440562655195
 30
0.0
 11
650.5000000000001
 21
1.069080820829502
 31
0.0
  0
LINE
  5
129
  8
1
  6
CONTINUOUS
 62
     7
 10
640.7
 20
1.051453449253677
 30
0.0
 11
640.5
 21
1.051093706524984
 31
0.0
  0
LINE
  5
12A
  8
1
  6
CONTINUOUS
 62
     7
 10
620.5
 20
-60.01511934226465
 30
0.0
 11
620.7
 21
-60.01547908680413
 31
0.0
  0
LINE
  5
12B
  8
1
  6
CONTINUOUS
 62
     7
 10
768.4984625560007
 20
-60.95625947144644
 30
0.0
 11
768.4951274905401
 21
-61.09277065908152
 31
0.0
  0
LINE
  5
12C
  8
1
  6
CONTINUOUS
 62
     7
 10
728.205477954513
 20
-60.73501525055475
 30
0.0
 11
728.4984625560007
 21
-60.95625947144644
 31
0.0
  0
ARC
  5
12D
  8
1
  6
CONTINUOUS
 62
     7
 10
531.6
 20
-29.49999999999999
 30
0.0
 40
32.0
 50
270.0
 51
277.1666433969439
  0
LINE
  5
12E
  8
1
  6
CONTINUOUS
 62
     7
 10
738.205477954513
 20
-60.73501525055476
 30
0.0
 11
738.4984625560007
 21
-60.95625947144644
 31
0.0
  0
LINE
  5
12F
  8
1
  6
CONTINUOUS
 62
     7
 10
648.5769242826653
 20
-61.24999999999999
 30
0.0
 11
658.1786057850751
 21
-61.24999999999999
 31
0.0
  0
LINE
  5
130
  8
1
  6
CONTINUOUS
 62
     7
 10
662.6222350358719
 20
2.250000000000005
 30
0.0
 11
653.022235035872
 21
2.250000000000005
 31
0.0
  0
ARC
  5
131
  8
1
  6
CONTINUOUS
 62
     7
 10
526.1000000000001
 20
-60.99999999999999
 30
0.0
 40
0.500000000000056
 50
180.0
 51
270.0
  0
LINE
  5
132
  8
1
  6
CONTINUOUS
 62
     7
 10
648.4984625560006
 20
-60.95625947144644
 30
0.0
 11
648.495127574541
 21
-61.09277074726399
 31
0.0
  0
LINE
  5
133
  8
1
  6
CONTINUOUS
 62
     7
 10
718.2054779545128
 20
-60.73501525055476
 30
0.0
 11
718.4984625560007
 21
-60.95625947144644
 31
0.0
  0
LINE
  5
134
  8
1
  6
CONTINUOUS
 62
     7
 10
748.205477954513
 20
-60.73501525055473
 30
0.0
 11
748.4984625560007
 21
-60.95625947144642
 31
0.0
  0
LINE
  5
135
  8
1
  6
CONTINUOUS
 62
     7
 10
698.205477954513
 20
-60.73501525055477
 30
0.0
 11
698.4984625560006
 21
-60.95625947144644
 31
0.0
  0
LINE
  5
136
  8
1
  6
CONTINUOUS
 62
     7
 10
668.4984625560006
 20
-60.95625947144644
 30
0.0
 11
668.4951275080422
 21
-61.09277067745489
 31
0.0
  0
LINE
  5
137
  8
1
  6
CONTINUOUS
 62
     7
 10
658.4984625560006
 20
-60.95625947144644
 30
0.0
 11
658.4951275680726
 21
-61.09277074047365
 31
0.0
  0
LINE
  5
138
  8
1
  6
CONTINUOUS
 62
     7
 10
658.205477954513
 20
-60.73501525055474
 30
0.0
 11
658.4984625560006
 21
-60.95625947144644
 31
0.0
  0
LINE
  5
139
  8
1
  6
CONTINUOUS
 62
     7
 10
748.4984625560007
 20
-60.95625947144642
 30
0.0
 11
748.4951274072547
 21
-61.09277057165016
 31
0.0
  0
LINE
  5
13A
  8
1
  6
CONTINUOUS
 62
     7
 10
698.4984625560006
 20
-60.95625947144644
 30
0.0
 11
698.4951274205617
 21
-61.09277058561953
 31
0.0
  0
LINE
  5
13B
  8
1
  6
CONTINUOUS
 62
     7
 10
638.205477954513
 20
-60.73501525055475
 30
0.0
 11
638.4984625560006
 21
-60.95625947144644
 31
0.0
  0
LINE
  5
13C
  8
1
  6
CONTINUOUS
 62
     7
 10
628.2054779545128
 20
-60.73501525055475
 30
0.0
 11
628.4984625560006
 21
-60.95625947144644
 31
0.0
  0
LINE
  5
13D
  8
1
  6
CONTINUOUS
 62
     7
 10
678.205477954513
 20
-60.73501525055474
 30
0.0
 11
678.4984625560006
 21
-60.95625947144644
 31
0.0
  0
LINE
  5
13E
  8
1
  6
CONTINUOUS
 62
     7
 10
668.2054779545128
 20
-60.7350152505547
 30
0.0
 11
668.4984625560006
 21
-60.95625947144644
 31
0.0
  0
LINE
  5
13F
  8
1
  6
CONTINUOUS
 62
     7
 10
522.276508164856
 20
-0.2499999999999863
 30
0.0
 11
522.276508164856
 21
-58.74999999999999
 31
0.0
  0
LINE
  5
140
  8
1
  6
CONTINUOUS
 62
     7
 10
758.205477954513
 20
-60.73501525055476
 30
0.0
 11
758.4984625560007
 21
-60.95625947144644
 31
0.0
  0
LINE
  5
141
  8
1
  6
CONTINUOUS
 62
     7
 10
688.2054779545131
 20
-60.73501525055479
 30
0.0
 11
688.4984625560006
 21
-60.95625947144644
 31
0.0
  0
LINE
  5
142
  8
1
  6
CONTINUOUS
 62
     7
 10
648.205477954513
 20
-60.73501525055479
 30
0.0
 11
648.4984625560006
 21
-60.95625947144644
 31
0.0
  0
LINE
  5
143
  8
1
  6
CONTINUOUS
 62
     7
 10
708.205477954513
 20
-60.73501525055476
 30
0.0
 11
708.4984625560006
 21
-60.95625947144644
 31
0.0
  0
LINE
  5
144
  8
1
  6
CONTINUOUS
 62
     7
 10
638.4984625560006
 20
-60.95625947144644
 30
0.0
 11
638.4951275109829
 21
-61.09277068054206
 31
0.0
  0
LINE
  5
145
  8
1
  6
CONTINUOUS
 62
     7
 10
708.4984625560006
 20
-60.95625947144644
 30
0.0
 11
708.4951275599299
 21
-61.09277073192558
 31
0.0
  0
LINE
  5
146
  8
1
  6
CONTINUOUS
 62
     7
 10
758.4984625560007
 20
-60.95625947144644
 30
0.0
 11
758.4951274088916
 21
-61.09277057336844
 31
0.0
  0
LINE
  5
147
  8
1
  6
CONTINUOUS
 62
     7
 10
728.4984625560007
 20
-60.95625947144644
 30
0.0
 11
728.4951274997666
 21
-61.09277066876734
 31
0.0
  0
LINE
  5
148
  8
1
  6
CONTINUOUS
 62
     7
 10
768.205477954513
 20
-60.73501525055477
 30
0.0
 11
768.4984625560007
 21
-60.95625947144644
 31
0.0
  0
LINE
  5
149
  8
1
  6
CONTINUOUS
 62
     7
 10
531.6
 20
2.500000000000012
 30
0.0
 11
526.1000000000001
 21
2.500000000000012
 31
0.0
  0
LINE
  5
14A
  8
1
  6
CONTINUOUS
 62
     7
 10
688.4984625560006
 20
-60.95625947144644
 30
0.0
 11
688.495127570182
 21
-61.09277074268811
 31
0.0
  0
LINE
  5
14B
  8
1
  6
CONTINUOUS
 62
     7
 10
718.4984625560007
 20
-60.95625947144644
 30
0.0
 11
718.4951277607544
 21
-61.09277094274658
 31
0.0
  0
LINE
  5
14C
  8
1
  6
CONTINUOUS
 62
     7
 10
738.4984625560007
 20
-60.95625947144644
 30
0.0
 11
738.4951275824342
 21
-61.09277075555013
 31
0.0
  0
LINE
  5
14D
  8
1
  6
CONTINUOUS
 62
     7
 10
628.4984625560006
 20
-60.95625947144644
 30
0.0
 11
628.4951275445112
 21
-61.09277071573938
 31
0.0
  0
LINE
  5
14E
  8
1
  6
CONTINUOUS
 62
     7
 10
678.4984625560006
 20
-60.95625947144644
 30
0.0
 11
678.4951276287755
 21
-61.09277080419817
 31
0.0
  0
LINE
  5
14F
  8
1
  6
CONTINUOUS
 62
     7
 10
622.6222350358719
 20
2.250000000000005
 30
0.0
 11
535.5921798556678
 21
2.250000000000005
 31
0.0
  0
ARC
  5
150
  8
1
  6
CONTINUOUS
 62
     7
 10
531.6
 20
-29.49999999999999
 30
0.0
 40
32.0
 50
82.83335660305609
 51
89.99999999999994
  0
LINE
  5
151
  8
1
  6
CONTINUOUS
 62
     7
 10
535.5921798556678
 20
-61.24999999999999
 30
0.0
 11
628.1786057850751
 21
-61.24999999999999
 31
0.0
  0
LINE
  5
152
  8
1
  6
CONTINUOUS
 62
     7
 10
652.6222350358719
 20
2.250000000000005
 30
0.0
 11
643.022235035872
 21
2.250000000000005
 31
0.0
  0
ARC
  5
153
  8
1
  6
CONTINUOUS
 62
     7
 10
526.1000000000001
 20
2.000000000000012
 30
0.0
 40
0.5000000000000004
 50
90.0
 51
180.0
  0
LINE
  5
154
  8
1
  6
CONTINUOUS
 62
     7
 10
526.1000000000001
 20
-61.49999999999999
 30
0.0
 11
531.6
 21
-61.49999999999999
 31
0.0
  0
LINE
  5
155
  8
1
  6
CONTINUOUS
 62
     7
 10
648.5731719140903
 20
-61.21540585628647
 30
0.0
 11
648.5731585627827
 21
-61.20369954183739
 31
0.0
  0
LINE
  5
156
  8
1
  6
CONTINUOUS
 62
     7
 10
632.7056763007398
 20
2.074034891967776
 30
0.0
 11
632.7380535369169
 21
1.206446424076676
 31
0.0
  0
LINE
  5
157
  8
1
  6
CONTINUOUS
 62
     7
 10
668.164309003259
 20
-60.67478289253989
 30
0.0
 11
668.2054732400443
 21
-60.73502946405319
 31
0.0
  0
LINE
  5
158
  8
1
  6
CONTINUOUS
 62
     7
 10
688.5769242826652
 20
-61.24999999999999
 30
0.0
 11
698.1786057850752
 21
-61.24999999999999
 31
0.0
  0
LINE
  5
159
  8
1
  6
CONTINUOUS
 62
     7
 10
712.6222350358719
 20
2.250000000000005
 30
0.0
 11
703.0222350358719
 21
2.250000000000005
 31
0.0
  0
LINE
  5
15A
  8
1
  6
CONTINUOUS
 62
     7
 10
758.5769242826653
 20
-61.24999999999999
 30
0.0
 11
768.1786057850751
 21
-61.24999999999999
 31
0.0
  0
LINE
  5
15B
  8
1
  6
CONTINUOUS
 62
     7
 10
732.6222350358719
 20
2.250000000000005
 30
0.0
 11
723.0222350358719
 21
2.250000000000005
 31
0.0
  0
LINE
  5
15C
  8
1
  6
CONTINUOUS
 62
     7
 10
632.6222350358719
 20
2.250000000000005
 30
0.0
 11
623.022235035872
 21
2.250000000000005
 31
0.0
  0
LINE
  5
15D
  8
1
  6
CONTINUOUS
 62
     7
 10
678.5769242826653
 20
-61.24999999999999
 30
0.0
 11
688.1786057850751
 21
-61.24999999999999
 31
0.0
  0
LINE
  5
15E
  8
1
  6
CONTINUOUS
 62
     7
 10
702.6222350358719
 20
2.250000000000005
 30
0.0
 11
693.0222350358719
 21
2.250000000000005
 31
0.0
  0
LINE
  5
15F
  8
1
  6
CONTINUOUS
 62
     7
 10
628.5769242826653
 20
-61.24999999999999
 30
0.0
 11
638.1786057850751
 21
-61.24999999999999
 31
0.0
  0
LINE
  5
160
  8
1
  6
CONTINUOUS
 62
     7
 10
698.5769242826652
 20
-61.24999999999999
 30
0.0
 11
708.1786057850751
 21
-61.24999999999999
 31
0.0
  0
LINE
  5
161
  8
1
  6
CONTINUOUS
 62
     7
 10
628.164309003259
 20
-60.67478289253994
 30
0.0
 11
628.2054732400443
 21
-60.73502946405322
 31
0.0
  0
LINE
  5
162
  8
1
  6
CONTINUOUS
 62
     7
 10
738.5769242826652
 20
-61.24999999999999
 30
0.0
 11
748.1786057850751
 21
-61.24999999999999
 31
0.0
  0
LINE
  5
163
  8
1
  6
CONTINUOUS
 62
     7
 10
638.5769242826653
 20
-61.24999999999999
 30
0.0
 11
648.1786057850751
 21
-61.24999999999999
 31
0.0
  0
LINE
  5
164
  8
1
  6
CONTINUOUS
 62
     7
 10
762.6222350358719
 20
2.250000000000005
 30
0.0
 11
753.022235035872
 21
2.250000000000005
 31
0.0
  0
LINE
  5
165
  8
1
  6
CONTINUOUS
 62
     7
 10
628.495123059798
 20
-61.09276961293716
 30
0.0
 11
628.4928325781061
 21
-61.09323449672824
 31
0.0
  0
LINE
  5
166
  8
1
  6
CONTINUOUS
 62
     7
 10
718.5769242826652
 20
-61.24999999999999
 30
0.0
 11
728.1786057850751
 21
-61.24999999999999
 31
0.0
  0
LINE
  5
167
  8
1
  6
CONTINUOUS
 62
     7
 10
752.6222350358719
 20
2.250000000000005
 30
0.0
 11
743.022235035872
 21
2.250000000000005
 31
0.0
  0
LINE
  5
168
  8
1
  6
CONTINUOUS
 62
     7
 10
672.6222350358719
 20
2.250000000000005
 30
0.0
 11
663.0222350358719
 21
2.250000000000005
 31
0.0
  0
LINE
  5
169
  8
1
  6
CONTINUOUS
 62
     7
 10
638.4951229115658
 20
-61.0927694573629
 30
0.0
 11
638.4928323827569
 21
-61.0932343545719
 31
0.0
  0
LINE
  5
16A
  8
1
  6
CONTINUOUS
 62
     7
 10
658.5731719140919
 20
-61.21540585630457
 30
0.0
 11
658.5731585627843
 21
-61.20369954185485
 31
0.0
  0
LINE
  5
16B
  8
1
  6
CONTINUOUS
 62
     7
 10
768.1643086745179
 20
-60.67477881841829
 30
0.0
 11
768.2054733191418
 21
-60.73502644808648
 31
0.0
  0
LINE
  5
16C
  8
1
  6
CONTINUOUS
 62
     7
 10
682.6222350358719
 20
2.250000000000005
 30
0.0
 11
673.0222350358719
 21
2.250000000000005
 31
0.0
  0
LINE
  5
16D
  8
1
  6
CONTINUOUS
 62
     7
 10
768.5731714020917
 20
-61.21541364335243
 30
0.0
 11
768.5731360060345
 21
-61.20251946022915
 31
0.0
  0
LINE
  5
16E
  8
1
  6
CONTINUOUS
 62
     7
 10
762.7056766017097
 20
2.074034649588778
 30
0.0
 11
762.7380555020319
 21
1.206425121936628
 31
0.0
  0
LINE
  5
16F
  8
1
  6
CONTINUOUS
 62
     7
 10
658.164309003259
 20
-60.67478289253994
 30
0.0
 11
658.2054732400443
 21
-60.73502946405316
 31
0.0
  0
LINE
  5
170
  8
1
  6
CONTINUOUS
 62
     7
 10
652.7056763006137
 20
2.074034892069271
 30
0.0
 11
652.7380535368513
 21
1.20644642478876
 31
0.0
  0
LINE
  5
171
  8
1
  6
CONTINUOUS
 62
     7
 10
768.5769242826659
 20
-61.24999999999999
 30
0.0
 11
770.6
 21
-61.24999999999999
 31
0.0
  0
LINE
  5
172
  8
1
  6
CONTINUOUS
 62
     7
 10
658.4951230084289
 20
-61.09276955902389
 30
0.0
 11
658.4928325104091
 21
-61.09323444746484
 31
0.0
  0
LINE
  5
173
  8
1
  6
CONTINUOUS
 62
     7
 10
638.5731719140903
 20
-61.21540585628708
 30
0.0
 11
638.5731585627827
 21
-61.20369954183796
 31
0.0
  0
LINE
  5
174
  8
1
  6
CONTINUOUS
 62
     7
 10
668.5769242826653
 20
-61.24999999999999
 30
0.0
 11
678.1786057850751
 21
-61.24999999999999
 31
0.0
  0
LINE
  5
175
  8
1
  6
CONTINUOUS
 62
     7
 10
728.5769242826652
 20
-61.24999999999999
 30
0.0
 11
738.1786057850751
 21
-61.24999999999999
 31
0.0
  0
LINE
  5
176
  8
1
  6
CONTINUOUS
 62
     7
 10
658.5769242826653
 20
-61.24999999999999
 30
0.0
 11
668.1786057850751
 21
-61.24999999999999
 31
0.0
  0
LINE
  5
177
  8
1
  6
CONTINUOUS
 62
     7
 10
722.6222350358719
 20
2.250000000000005
 30
0.0
 11
713.0222350358719
 21
2.250000000000005
 31
0.0
  0
LINE
  5
178
  8
1
  6
CONTINUOUS
 62
     7
 10
742.6222350358719
 20
2.250000000000005
 30
0.0
 11
733.022235035872
 21
2.250000000000005
 31
0.0
  0
LINE
  5
179
  8
1
  6
CONTINUOUS
 62
     7
 10
708.5769242826652
 20
-61.24999999999999
 30
0.0
 11
718.1786057850752
 21
-61.24999999999999
 31
0.0
  0
LINE
  5
17A
  8
1
  6
CONTINUOUS
 62
     7
 10
622.7056763006345
 20
2.0740348920525
 30
0.0
 11
622.7380535368623
 21
1.206446424669865
 31
0.0
  0
LINE
  5
17B
  8
1
  6
CONTINUOUS
 62
     7
 10
638.164309003259
 20
-60.67478289253987
 30
0.0
 11
638.2054732400443
 21
-60.73502946405316
 31
0.0
  0
LINE
  5
17C
  8
1
  6
CONTINUOUS
 62
     7
 10
642.7056763006494
 20
2.07403489204051
 30
0.0
 11
642.73805353687
 21
1.206446424585884
 31
0.0
  0
LINE
  5
17D
  8
1
  6
CONTINUOUS
 62
     7
 10
692.6222350358718
 20
2.250000000000005
 30
0.0
 11
683.0222350358719
 21
2.250000000000005
 31
0.0
  0
LINE
  5
17E
  8
1
  6
CONTINUOUS
 62
     7
 10
628.5731719140886
 20
-61.21540585626921
 30
0.0
 11
628.5731585627811
 21
-61.20369954182074
 31
0.0
  0
LINE
  5
17F
  8
1
  6
CONTINUOUS
 62
     7
 10
768.4951245647716
 20
-61.09276985383114
 30
0.0
 11
768.4928331289208
 21
-61.09323489755944
 31
0.0
  0
LINE
  5
180
  8
1
  6
CONTINUOUS
 62
     7
 10
770.6
 20
2.250000000000005
 30
0.0
 11
763.022235035872
 21
2.250000000000005
 31
0.0
  0
LINE
  5
181
  8
1
  6
CONTINUOUS
 62
     7
 10
748.5769242826653
 20
-61.24999999999999
 30
0.0
 11
758.1786057850751
 21
-61.24999999999999
 31
0.0
  0
LINE
  5
182
  8
1
  6
CONTINUOUS
 62
     7
 10
648.4951229141028
 20
-61.09276946002564
 30
0.0
 11
648.4928323861003
 21
-61.093234357005
 31
0.0
  0
LINE
  5
183
  8
1
  6
CONTINUOUS
 62
     7
 10
668.5731719140903
 20
-61.21540585628667
 30
0.0
 11
668.5731585627827
 21
-61.20369954183769
 31
0.0
  0
LINE
  5
184
  8
1
  6
CONTINUOUS
 62
     7
 10
648.164309003259
 20
-60.67478289253989
 30
0.0
 11
648.2054732400443
 21
-60.73502946405318
 31
0.0
  0
LINE
  5
185
  8
1
  6
CONTINUOUS
 62
     7
 10
642.6222350358719
 20
2.250000000000005
 30
0.0
 11
633.022235035872
 21
2.250000000000005
 31
0.0
  0
LINE
  5
186
  8
1
  6
CONTINUOUS
 62
     7
 10
688.164309003259
 20
-60.67478289253992
 30
0.0
 11
688.2054732400442
 21
-60.73502946405311
 31
0.0
  0
LINE
  5
187
  8
1
  6
CONTINUOUS
 62
     7
 10
748.5731719140919
 20
-61.21540585630456
 30
0.0
 11
748.5731585627843
 21
-61.20369954185484
 31
0.0
  0
LINE
  5
188
  8
1
  6
CONTINUOUS
 62
     7
 10
682.705676300995
 20
2.074034891762399
 30
0.0
 11
682.738053537049
 21
1.206446422639621
 31
0.0
  0
LINE
  5
189
  8
1
  6
CONTINUOUS
 62
     7
 10
698.4951229849041
 20
-61.09276953433393
 30
0.0
 11
698.4928324794067
 21
-61.09323442490432
 31
0.0
  0
LINE
  5
18A
  8
1
  6
CONTINUOUS
 62
     7
 10
742.705676300646
 20
2.074034892043327
 30
0.0
 11
742.7380535368682
 21
1.206446424607478
 31
0.0
  0
LINE
  5
18B
  8
1
  6
CONTINUOUS
 62
     7
 10
668.4951228243053
 20
-61.09276936578014
 30
0.0
 11
668.4928322677595
 21
-61.0932342708881
 31
0.0
  0
LINE
  5
18C
  8
1
  6
CONTINUOUS
 62
     7
 10
678.164309003259
 20
-60.67478289253989
 30
0.0
 11
678.2054732400443
 21
-60.73502946405321
 31
0.0
  0
LINE
  5
18D
  8
1
  6
CONTINUOUS
 62
     7
 10
702.7056763006223
 20
2.074034892062395
 30
0.0
 11
702.738053536856
 21
1.206446424737814
 31
0.0
  0
LINE
  5
18E
  8
1
  6
CONTINUOUS
 62
     7
 10
728.4951229423565
 20
-61.09276948967883
 30
0.0
 11
728.4928324233348
 21
-61.09323438410065
 31
0.0
  0
LINE
  5
18F
  8
1
  6
CONTINUOUS
 62
     7
 10
732.7056763008284
 20
2.074034891896507
 30
0.0
 11
732.7380535369629
 21
1.20644642357607
 31
0.0
  0
LINE
  5
190
  8
1
  6
CONTINUOUS
 62
     7
 10
748.1643090032591
 20
-60.67478289253994
 30
0.0
 11
748.2054732400443
 21
-60.73502946405313
 31
0.0
  0
LINE
  5
191
  8
1
  6
CONTINUOUS
 62
     7
 10
698.573171914092
 20
-61.21540585630479
 30
0.0
 11
698.5731585627844
 21
-61.20369954185519
 31
0.0
  0
LINE
  5
192
  8
1
  6
CONTINUOUS
 62
     7
 10
718.495123188987
 20
-61.09276974852472
 30
0.0
 11
718.4928327483589
 21
-61.09323462062187
 31
0.0
  0
LINE
  5
193
  8
1
  6
CONTINUOUS
 62
     7
 10
738.495123032079
 20
-61.09276958384552
 30
0.0
 11
738.4928325415767
 21
-61.09323447014567
 31
0.0
  0
LINE
  5
194
  8
1
  6
CONTINUOUS
 62
     7
 10
758.164309003259
 20
-60.67478289253991
 30
0.0
 11
758.2054732400443
 21
-60.73502946405314
 31
0.0
  0
LINE
  5
195
  8
1
  6
CONTINUOUS
 62
     7
 10
728.5731719140917
 20
-61.21540585630473
 30
0.0
 11
728.5731585627843
 21
-61.20369954185499
 31
0.0
  0
LINE
  5
196
  8
1
  6
CONTINUOUS
 62
     7
 10
708.495122936146
 20
-61.09276948316077
 30
0.0
 11
708.4928324151504
 21
-61.09323437814476
 31
0.0
  0
LINE
  5
197
  8
1
  6
CONTINUOUS
 62
     7
 10
758.5731719140903
 20
-61.21540585628689
 30
0.0
 11
758.5731585627829
 21
-61.20369954183789
 31
0.0
  0
LINE
  5
198
  8
1
  6
CONTINUOUS
 62
     7
 10
752.7056763006617
 20
2.074034892030622
 30
0.0
 11
752.7380535368766
 21
1.206446424513789
 31
0.0
  0
LINE
  5
199
  8
1
  6
CONTINUOUS
 62
     7
 10
748.4951229859596
 20
-61.09276953544175
 30
0.0
 11
748.4928324807978
 21
-61.09323442591661
 31
0.0
  0
LINE
  5
19A
  8
1
  6
CONTINUOUS
 62
     7
 10
662.7056763006472
 20
2.074034892042314
 30
0.0
 11
662.738053536869
 21
1.2064464245971
 31
0.0
  0
LINE
  5
19B
  8
1
  6
CONTINUOUS
 62
     7
 10
718.5731719140887
 20
-61.21540585626931
 30
0.0
 11
718.5731585627811
 21
-61.20369954182081
 31
0.0
  0
LINE
  5
19C
  8
1
  6
CONTINUOUS
 62
     7
 10
678.4951230222938
 20
-61.09276957357544
 30
0.0
 11
678.492832528681
 21
-61.09323446076135
 31
0.0
  0
LINE
  5
19D
  8
1
  6
CONTINUOUS
 62
     7
 10
698.1643090032588
 20
-60.67478289253983
 30
0.0
 11
698.2054732400443
 21
-60.73502946405323
 31
0.0
  0
LINE
  5
19E
  8
1
  6
CONTINUOUS
 62
     7
 10
708.5731719140902
 20
-61.21540585628644
 30
0.0
 11
708.5731585627826
 21
-61.20369954183744
 31
0.0
  0
LINE
  5
19F
  8
1
  6
CONTINUOUS
 62
     7
 10
728.164309003259
 20
-60.67478289253994
 30
0.0
 11
728.2054732400443
 21
-60.73502946405319
 31
0.0
  0
LINE
  5
1A0
  8
1
  6
CONTINUOUS
 62
     7
 10
722.7056763004912
 20
2.074034892167818
 30
0.0
 11
722.7380535367878
 21
1.206446425479752
 31
0.0
  0
LINE
  5
1A1
  8
1
  6
CONTINUOUS
 62
     7
 10
672.7056763008627
 20
2.074034891868855
 30
0.0
 11
672.7380535369807
 21
1.206446423382249
 31
0.0
  0
LINE
  5
1A2
  8
1
  6
CONTINUOUS
 62
     7
 10
688.5731719140902
 20
-61.21540585628675
 30
0.0
 11
688.5731585627827
 21
-61.20369954183762
 31
0.0
  0
LINE
  5
1A3
  8
1
  6
CONTINUOUS
 62
     7
 10
678.5731719140871
 20
-61.21540585625157
 30
0.0
 11
678.5731585627796
 21
-61.20369954180373
 31
0.0
  0
LINE
  5
1A4
  8
1
  6
CONTINUOUS
 62
     7
 10
692.7056763004915
 20
2.074034892167575
 30
0.0
 11
692.7380535367881
 21
1.206446425474159
 31
0.0
  0
LINE
  5
1A5
  8
1
  6
CONTINUOUS
 62
     7
 10
708.164309003259
 20
-60.67478289253986
 30
0.0
 11
708.2054732400442
 21
-60.73502946405315
 31
0.0
  0
LINE
  5
1A6
  8
1
  6
CONTINUOUS
 62
     7
 10
718.164309003259
 20
-60.67478289253987
 30
0.0
 11
718.2054732400443
 21
-60.73502946405313
 31
0.0
  0
LINE
  5
1A7
  8
1
  6
CONTINUOUS
 62
     7
 10
712.7056763006474
 20
2.074034892042127
 30
0.0
 11
712.738053536869
 21
1.206446424598235
 31
0.0
  0
LINE
  5
1A8
  8
1
  6
CONTINUOUS
 62
     7
 10
738.5731719140887
 20
-61.21540585626965
 30
0.0
 11
738.5731585627811
 21
-61.20369954182122
 31
0.0
  0
LINE
  5
1A9
  8
1
  6
CONTINUOUS
 62
     7
 10
738.164309003259
 20
-60.67478289253994
 30
0.0
 11
738.2054732400443
 21
-60.73502946405319
 31
0.0
  0
LINE
  5
1AA
  8
1
  6
CONTINUOUS
 62
     7
 10
688.4951229367651
 20
-61.09276948381054
 30
0.0
 11
688.4928324159663
 21
-61.09323437873848
 31
0.0
  0
ARC
  5
1AB
  8
1
  6
CONTINUOUS
 62
     7
 10
531.6
 20
-29.49999999999999
 30
0.0
 40
30.7
 50
101.2704130836858
 51
107.6797775942744
  0
LINE
  5
1AC
  8
1
  6
CONTINUOUS
 62
     7
 10
752.7166034588521
 20
2.085795728994316
 30
0.0
 11
752.7099194859019
 21
2.084483744762871
 31
0.0
  0
LINE
  5
1AD
  8
1
  6
CONTINUOUS
 62
     7
 10
738.505424778227
 20
-61.06227166224823
 30
0.0
 11
738.4065486690791
 21
-59.55917832637753
 31
0.0
  0
LINE
  5
1AE
  8
1
  6
CONTINUOUS
 62
     7
 10
520.7069422080979
 20
0.245636732226738
 30
0.0
 11
520.6
 21
12.50000000000001
 31
0.0
  0
LINE
  5
1AF
  8
1
  6
CONTINUOUS
 62
     7
 10
722.7166034584786
 20
2.085795729108177
 30
0.0
 11
722.7099194857333
 21
2.084483744929689
 31
0.0
  0
LINE
  5
1B0
  8
1
  6
CONTINUOUS
 62
     7
 10
702.7166034588497
 20
2.085795729037181
 30
0.0
 11
702.7099194858629
 21
2.084483744801507
 31
0.0
  0
LINE
  5
1B1
  8
1
  6
CONTINUOUS
 62
     7
 10
688.5054247747678
 20
-61.0622716096595
 30
0.0
 11
688.4065486690789
 21
-59.559178326376
 31
0.0
  0
LINE
  5
1B2
  8
1
  6
CONTINUOUS
 62
     7
 10
642.7166034589374
 20
2.085795729024523
 30
0.0
 11
642.7099194858897
 21
2.084483744774896
 31
0.0
  0
LINE
  5
1B3
  8
1
  6
CONTINUOUS
 62
     7
 10
762.7166034969372
 20
2.085795535116507
 30
0.0
 11
762.7099197847097
 21
2.084483580692017
 31
0.0
  0
LINE
  5
1B4
  8
1
  6
CONTINUOUS
 62
     7
 10
648.5054247739453
 20
-61.06227159715571
 30
0.0
 11
648.406548669079
 21
-59.55917832637693
 31
0.0
  0
LINE
  5
1B5
  8
1
  6
CONTINUOUS
 62
     7
 10
520.67340781775
 20
4.073407817749921
 30
0.0
 11
520.1000000000001
 21
3.500000000000034
 31
0.0
  0
LINE
  5
1B6
  8
1
  6
CONTINUOUS
 62
     7
 10
662.716603458916
 20
2.085795729022814
 30
0.0
 11
662.7099194858876
 21
2.084483744777096
 31
0.0
  0
LINE
  5
1B7
  8
1
  6
CONTINUOUS
 62
     7
 10
728.5054247749706
 20
-61.06227161274448
 30
0.0
 11
728.4065486690789
 21
-59.55917832637545
 31
0.0
  0
LINE
  5
1B8
  8
1
  6
CONTINUOUS
 62
     7
 10
520.6
 20
2.999999999999985
 30
0.0
 11
520.6
 21
-5.313226755104334
 31
0.0
  0
LINE
  5
1B9
  8
1
  6
CONTINUOUS
 62
     7
 10
672.7166034590688
 20
2.085795728816152
 30
0.0
 11
672.7099194861008
 21
2.084483744566188
 31
0.0
  0
LINE
  5
1BA
  8
1
  6
CONTINUOUS
 62
     7
 10
521.2069231696298
 20
-58.74999999999999
 30
0.0
 11
522.276508164856
 21
-58.74999999999999
 31
0.0
  0
LINE
  5
1BB
  8
1
  6
CONTINUOUS
 62
     7
 10
758.4951229992625
 20
-61.0927695494036
 30
0.0
 11
758.4928324983292
 21
-61.09323443867427
 31
0.0
  0
LINE
  5
1BC
  8
1
  6
CONTINUOUS
 62
     7
 10
652.7166034588734
 20
2.085795729051215
 30
0.0
 11
652.7099194858545
 21
2.084483744809868
 31
0.0
  0
LINE
  5
1BD
  8
1
  6
CONTINUOUS
 62
     7
 10
520.6785418101169
 20
-62.50000000000001
 30
0.0
 11
520.7069422080979
 21
-59.24563673222671
 31
0.0
  0
LINE
  5
1BE
  8
1
  6
CONTINUOUS
 62
     7
 10
628.5054247792331
 20
-61.06227167754181
 30
0.0
 11
628.4065486690789
 21
-59.55917832637664
 31
0.0
  0
LINE
  5
1BF
  8
1
  6
CONTINUOUS
 62
     7
 10
520.6
 20
-53.68677324489564
 30
0.0
 11
520.6
 21
-62.49999999999999
 31
0.0
  0
LINE
  5
1C0
  8
1
  6
CENTER
 62
     1
 10
449.5
 20
-73.5
 30
0.0
 11
449.5
 21
14.50000000000001
 31
0.0
  0
LINE
  5
1C2
  8
1
  6
CONTINUOUS
 62
     7
 10
632.7166034588683
 20
2.085795728911784
 30
0.0
 11
632.7099194859791
 21
2.084483744686474
 31
0.0
  0
LINE
  5
1C3
  8
1
  6
CONTINUOUS
 62
     7
 10
718.505424783922
 20
-61.0622717488207
 30
0.0
 11
718.406548669079
 21
-59.55917832637638
 31
0.0
  0
LINE
  5
1C4
  8
1
  6
CONTINUOUS
 62
     7
 10
698.5054247765149
 20
-61.06227163621983
 30
0.0
 11
698.4065486690791
 21
-59.55917832637783
 31
0.0
  0
LINE
  5
1C5
  8
1
  6
CONTINUOUS
 62
     7
 10
522.276508164856
 20
-0.2499999999999863
 30
0.0
 11
521.2069231696298
 21
-0.2499999999999863
 31
0.0
  0
LINE
  5
1C6
  8
1
  6
CONTINUOUS
 62
     7
 10
738.5769242826651
 20
-61.24999999999991
 30
0.0
 11
738.4275935860097
 21
-59.62884558426332
 31
0.0
  0
LINE
  5
1C7
  8
1
  6
CONTINUOUS
 62
     7
 10
622.7166034588699
 20
2.085795729027657
 30
0.0
 11
622.7099194858749
 21
2.084483744789475
 31
0.0
  0
LINE
  5
1C8
  8
1
  6
CONTINUOUS
 62
     7
 10
758.505424777036
 20
-61.062271644142
 30
0.0
 11
758.406548669079
 21
-59.55917832637815
 31
0.0
  0
LINE
  5
1C9
  8
1
  6
CONTINUOUS
 62
     7
 10
678.505424777872
 20
-61.06227165684921
 30
0.0
 11
678.406548669079
 21
-59.55917832637712
 31
0.0
  0
LINE
  5
1CA
  8
1
  6
CONTINUOUS
 62
     7
 10
520.6
 20
12.50000000000001
 30
0.0
 11
519.4000000000001
 21
12.50000000000001
 31
0.0
  0
LINE
  5
1CB
  8
1
  6
CONTINUOUS
 62
     7
 10
520.1000000000001
 20
3.500000000000034
 30
0.0
 11
520.6834993585494
 21
2.916500641450717
 31
0.0
  0
LINE
  5
1CC
  8
1
  6
CONTINUOUS
 62
     7
 10
728.5769242826649
 20
-61.24999999999991
 30
0.0
 11
728.4275935860171
 21
-59.62884558426346
 31
0.0
  0
LINE
  5
1CD
  8
1
  6
CENTER
 62
     1
 10
775.0
 20
-29.49999999999998
 30
0.0
 11
515.0
 21
-29.49999999999998
 31
0.0
  0
LINE
  5
1CE
  8
1
  6
CONTINUOUS
 62
     7
 10
748.5054247765532
 20
-61.06227163680221
 30
0.0
 11
748.4065486690789
 21
-59.55917832637578
 31
0.0
  0
LINE
  5
1CF
  8
1
  6
CONTINUOUS
 62
     7
 10
712.716603459066
 20
2.085795729052014
 30
0.0
 11
712.7099194858878
 21
2.084483744776866
 31
0.0
  0
LINE
  5
1D0
  8
1
  6
CONTINUOUS
 62
     7
 10
708.5054247747452
 20
-61.06227160931792
 30
0.0
 11
708.4065486690791
 21
-59.55917832637798
 31
0.0
  0
LINE
  5
1D1
  8
1
  6
CONTINUOUS
 62
     7
 10
768.5050755413715
 20
-61.0623162221612
 30
0.0
 11
768.4310458109828
 21
-59.87634751255172
 31
0.0
  0
LINE
  5
1D2
  8
1
  6
CONTINUOUS
 62
     7
 10
728.4321093769668
 20
-59.62842961759065
 30
0.0
 11
723.022428715339
 21
2.25001693229427
 31
0.0
  0
LINE
  5
1D3
  8
1
  6
CONTINUOUS
 62
     7
 10
742.7166034590869
 20
2.085795729057726
 30
0.0
 11
742.7099194858864
 21
2.084483744778338
 31
0.0
  0
LINE
  5
1D4
  8
1
  6
CONTINUOUS
 62
     7
 10
722.7092053520137
 20
1.28366027760524
 30
0.0
 11
728.1769776254079
 21
-61.25014236144012
 31
0.0
  0
ARC
  5
1D5
  8
1
  6
CONTINUOUS
 62
     7
 10
521.2069231696298
 20
-59.24999999999999
 30
0.0
 40
0.5000000000000571
 50
90.0
 51
179.4999999999995
  0
LINE
  5
1D6
  8
1
  6
CONTINUOUS
 62
     7
 10
692.7166034589769
 20
2.085795729205649
 30
0.0
 11
692.7099194857335
 21
2.084483744929376
 31
0.0
  0
LINE
  5
1D7
  8
1
  6
CONTINUOUS
 62
     7
 10
682.7166034589377
 20
2.085795728645213
 30
0.0
 11
682.7099194862316
 21
2.084483744436764
 31
0.0
  0
LINE
  5
1D8
  8
1
  6
CONTINUOUS
 62
     7
 10
668.5054247706861
 20
-61.06227154761059
 30
0.0
 11
668.4065486690791
 21
-59.55917832637726
 31
0.0
  0
LINE
  5
1D9
  8
1
  6
CONTINUOUS
 62
     7
 10
658.5054247773687
 20
-61.0622716491994
 30
0.0
 11
658.4065486690791
 21
-59.55917832637635
 31
0.0
  0
LINE
  5
1DA
  8
1
  6
CONTINUOUS
 62
     7
 10
520.6785418101169
 20
-62.49999999999999
 30
0.0
 11
519.4000000000001
 21
-62.49999999999999
 31
0.0
  0
LINE
  5
1DB
  8
1
  6
CONTINUOUS
 62
     7
 10
732.7166034590928
 20
2.085795728858604
 30
0.0
 11
732.7099194860667
 21
2.084483744599835
 31
0.0
  0
LINE
  5
1DC
  8
1
  6
CONTINUOUS
 62
     7
 10
638.5054247738531
 20
-61.0622715957559
 30
0.0
 11
638.406548669079
 21
-59.55917832637699
 31
0.0
  0
LINE
  5
1DD
  8
1
  6
CONTINUOUS
 62
     7
 10
738.4321093769668
 20
-59.62842961758981
 30
0.0
 11
733.022428715339
 21
2.250016932294305
 31
0.0
  0
LINE
  5
1DE
  8
1
  6
CONTINUOUS
 62
     7
 10
519.4000000000001
 20
-62.49999999999999
 30
0.0
 11
519.4000000000001
 21
12.49999999999997
 31
0.0
  0
LINE
  5
1DF
  8
1
  6
CONTINUOUS
 62
     7
 10
732.7092053521336
 20
1.283660276254664
 30
0.0
 11
738.176977625408
 21
-61.2501423614401
 31
0.0
  0
ARC
  5
1E0
  8
1
  6
CONTINUOUS
 62
     7
 10
521.2069231696298
 20
0.2500000000000141
 30
0.0
 40
0.5000000000000004
 50
180.5000000000004
 51
270.0
  0
ARC
  5
1E1
  8
1
  6
CONTINUOUS
 62
     7
 10
531.6
 20
-29.49999999999999
 30
0.0
 40
30.69999999999999
 50
252.3202224057256
 51
258.7295869163142
  0
LINE
  5
1E2
  8
1
  6
CENTER
 62
     1
 10
405.5
 20
-29.49999999999999
 30
0.0
 11
493.5
 21
-29.49999999999999
 31
0.0
  0
LINE
  5
1E3
  8
1
  6
CONTINUOUS
 62
     7
 10
688.576924282665
 20
-61.24999999999993
 30
0.0
 11
688.4275935860103
 21
-59.62884558426371
 31
0.0
  0
LINE
  5
1E4
  8
1
  6
CONTINUOUS
 62
     7
 10
658.4321093769668
 20
-59.62842961759028
 30
0.0
 11
653.0224287153391
 21
2.250016932294319
 31
0.0
  0
LINE
  5
1E5
  8
1
  6
CONTINUOUS
 62
     7
 10
652.7092053520951
 20
1.283660276688557
 30
0.0
 11
658.176977625408
 21
-61.2501423614401
 31
0.0
  0
LINE
  5
1E6
  8
1
  6
CONTINUOUS
 62
     7
 10
682.7092053520918
 20
1.283660276725346
 30
0.0
 11
688.176977625408
 21
-61.25014236144009
 31
0.0
  0
LINE
  5
1E7
  8
1
  6
CONTINUOUS
 62
     7
 10
758.576924282665
 20
-61.24999999999993
 30
0.0
 11
758.4275935860145
 21
-59.6288455842628
 31
0.0
  0
LINE
  5
1E8
  8
1
  6
CONTINUOUS
 62
     7
 10
658.5769242826651
 20
-61.24999999999993
 30
0.0
 11
658.4275935860123
 21
-59.62884558426355
 31
0.0
  0
LINE
  5
1E9
  8
1
  6
CONTINUOUS
 62
     7
 10
688.4321093769669
 20
-59.62842961759025
 30
0.0
 11
683.0224287153391
 21
2.250016932294326
 31
0.0
  0
LINE
  5
1EA
  8
1
  6
CONTINUOUS
 62
     7
 10
742.7092053521405
 20
1.283660276176334
 30
0.0
 11
748.176977625408
 21
-61.2501423614401
 31
0.0
  0
LINE
  5
1EB
  8
1
  6
CONTINUOUS
 62
     7
 10
662.7092053521029
 20
1.28366027659987
 30
0.0
 11
668.176977625408
 21
-61.25014236144001
 31
0.0
  0
LINE
  5
1EC
  8
1
  6
CONTINUOUS
 62
     7
 10
698.576924282665
 20
-61.24999999999993
 30
0.0
 11
698.427593586014
 21
-59.62884558426295
 31
0.0
  0
LINE
  5
1ED
  8
1
  6
CONTINUOUS
 62
     7
 10
748.5769242826651
 20
-61.24999999999993
 30
0.0
 11
748.4275935860092
 21
-59.62884558426411
 31
0.0
  0
LINE
  5
1EE
  8
1
  6
CONTINUOUS
 62
     7
 10
748.4321093769668
 20
-59.62842961759055
 30
0.0
 11
743.0224287153391
 21
2.250016932294305
 31
0.0
  0
LINE
  5
1EF
  8
1
  6
CONTINUOUS
 62
     7
 10
718.576924282665
 20
-61.24999999999993
 30
0.0
 11
718.4275935860138
 21
-59.62884558426308
 31
0.0
  0
LINE
  5
1F0
  8
1
  6
CONTINUOUS
 62
     7
 10
698.4321093769668
 20
-59.62842961758985
 30
0.0
 11
693.0224287153392
 21
2.250016932294305
 31
0.0
  0
LINE
  5
1F1
  8
1
  6
CONTINUOUS
 62
     7
 10
768.4321093769668
 20
-59.62842961759021
 30
0.0
 11
763.022428616526
 21
2.250016923655958
 31
0.0
  0
LINE
  5
1F2
  8
1
  6
CONTINUOUS
 62
     7
 10
702.7092053520895
 20
1.283660276751936
 30
0.0
 11
708.176977625408
 21
-61.25014236144008
 31
0.0
  0
LINE
  5
1F3
  8
1
  6
CONTINUOUS
 62
     7
 10
758.4321093769668
 20
-59.62842961758974
 30
0.0
 11
753.022428715339
 21
2.250016932294298
 31
0.0
  0
LINE
  5
1F4
  8
1
  6
CONTINUOUS
 62
     7
 10
718.4321093769668
 20
-59.62842961758995
 30
0.0
 11
713.0224287153391
 21
2.250016932294291
 31
0.0
  0
LINE
  5
1F5
  8
1
  6
CONTINUOUS
 62
     7
 10
648.4321093769668
 20
-59.62842961759039
 30
0.0
 11
643.0224287153391
 21
2.250016932294277
 31
0.0
  0
LINE
  5
1F6
  8
1
  6
CONTINUOUS
 62
     7
 10
622.7092053520932
 20
1.283660276708235
 30
0.0
 11
628.1769776254079
 21
-61.2501423614401
 31
0.0
  0
LINE
  5
1F7
  8
1
  6
CONTINUOUS
 62
     7
 10
638.5769242826651
 20
-61.24999999999993
 30
0.0
 11
638.4275935860101
 21
-59.62884558426376
 31
0.0
  0
LINE
  5
1F8
  8
1
  6
CONTINUOUS
 62
     7
 10
678.576924282665
 20
-61.24999999999993
 30
0.0
 11
678.427593586015
 21
-59.62884558426249
 31
0.0
  0
LINE
  5
1F9
  8
1
  6
CONTINUOUS
 62
     7
 10
708.4321093769668
 20
-59.62842961758972
 30
0.0
 11
703.0224287153391
 21
2.250016932294291
 31
0.0
  0
LINE
  5
1FA
  8
1
  6
CONTINUOUS
 62
     7
 10
648.5769242826651
 20
-61.24999999999994
 30
0.0
 11
648.427593586011
 21
-59.62884558426379
 31
0.0
  0
LINE
  5
1FB
  8
1
  6
CONTINUOUS
 62
     7
 10
678.4321093769668
 20
-59.62842961758948
 30
0.0
 11
673.0224287153391
 21
2.250016932294312
 31
0.0
  0
LINE
  5
1FC
  8
1
  6
CONTINUOUS
 62
     7
 10
768.576924282665
 20
-61.24999999999993
 30
0.0
 11
768.4275935860131
 21
-59.6288455842634
 31
0.0
  0
LINE
  5
1FD
  8
1
  6
CONTINUOUS
 62
     7
 10
762.7092053520963
 20
1.283660276675411
 30
0.0
 11
768.1769776254079
 21
-61.25014236143998
 31
0.0
  0
LINE
  5
1FE
  8
1
  6
CONTINUOUS
 62
     7
 10
752.7092053520882
 20
1.283660276765852
 30
0.0
 11
758.176977625408
 21
-61.2501423614401
 31
0.0
  0
LINE
  5
1FF
  8
1
  6
CONTINUOUS
 62
     7
 10
638.4321093769668
 20
-59.62842961759026
 30
0.0
 11
633.0224287153391
 21
2.250016932294305
 31
0.0
  0
LINE
  5
200
  8
1
  6
CONTINUOUS
 62
     7
 10
525.6
 20
-60.99999999999999
 30
0.0
 11
525.6
 21
2.000000000000016
 31
0.0
  0
LINE
  5
201
  8
1
  6
CONTINUOUS
 62
     7
 10
628.576924282665
 20
-61.24999999999993
 30
0.0
 11
628.4275935860126
 21
-59.62884558426363
 31
0.0
  0
LINE
  5
202
  8
1
  6
CONTINUOUS
 62
     7
 10
668.576924282665
 20
-61.24999999999994
 30
0.0
 11
668.42759358601
 21
-59.62884558426305
 31
0.0
  0
LINE
  5
203
  8
1
  6
CONTINUOUS
 62
     7
 10
672.7092053521268
 20
1.283660276332432
 30
0.0
 11
678.176977625408
 21
-61.25014236144009
 31
0.0
  0
LINE
  5
204
  8
1
  6
CONTINUOUS
 62
     7
 10
708.576924282665
 20
-61.24999999999993
 30
0.0
 11
708.4275935860119
 21
-59.62884558426302
 31
0.0
  0
LINE
  5
205
  8
1
  6
CONTINUOUS
 62
     7
 10
632.7092053520881
 20
1.283660276766716
 30
0.0
 11
638.1769776254079
 21
-61.25014236144008
 31
0.0
  0
LINE
  5
206
  8
1
  6
CONTINUOUS
 62
     7
 10
692.7092053521235
 20
1.283660276368677
 30
0.0
 11
698.176977625408
 21
-61.25014236144008
 31
0.0
  0
LINE
  5
207
  8
1
  6
CONTINUOUS
 62
     7
 10
668.4321093769668
 20
-59.62842961758957
 30
0.0
 11
663.0224287153391
 21
2.250016932294291
 31
0.0
  0
LINE
  5
208
  8
1
  6
CONTINUOUS
 62
     7
 10
712.709205352136
 20
1.283660276228182
 30
0.0
 11
718.176977625408
 21
-61.25014236144009
 31
0.0
  0
LINE
  5
209
  8
1
  6
CONTINUOUS
 62
     7
 10
628.4321093769668
 20
-59.62842961759038
 30
0.0
 11
623.0224287153391
 21
2.250016932294277
 31
0.0
  0
LINE
  5
20A
  8
1
  6
CONTINUOUS
 62
     7
 10
642.7092053521075
 20
1.283660276548828
 30
0.0
 11
648.176977625408
 21
-61.25014236144012
 31
0.0
  0
LINE
  5
20B
  8
1
  6
CONTINUOUS
 62
     7
 10
678.48931656821
 20
-61.09072425460129
 30
0.0
 11
678.492835105274
 21
-61.09323633578374
 31
0.0
  0
LINE
  5
20C
  8
1
  6
CONTINUOUS
 62
     7
 10
638.4893165682101
 20
-61.09072425460131
 30
0.0
 11
638.4928349499928
 21
-61.09323622278197
 31
0.0
  0
LINE
  5
20D
  8
1
  6
CONTINUOUS
 62
     7
 10
628.48931656821
 20
-61.09072425460129
 30
0.0
 11
628.4928349941919
 21
-61.09323625494663
 31
0.0
  0
LINE
  5
20E
  8
1
  6
CONTINUOUS
 62
     7
 10
718.4893165682101
 20
-61.09072425460133
 30
0.0
 11
718.4928352792563
 21
-61.09323646239489
 31
0.0
  0
LINE
  5
20F
  8
1
  6
CONTINUOUS
 62
     7
 10
768.48931656821
 20
-61.0907242546013
 30
0.0
 11
768.4928349230438
 21
-61.09323620317051
 31
0.0
  0
LINE
  5
210
  8
1
  6
CONTINUOUS
 62
     7
 10
648.4893165682101
 20
-61.0907242546013
 30
0.0
 11
648.492835033779
 21
-61.09323628375505
 31
0.0
  0
LINE
  5
211
  8
1
  6
CONTINUOUS
 62
     7
 10
748.4893165682103
 20
-61.09072425460131
 30
0.0
 11
748.4928348132518
 21
-61.09323612327245
 31
0.0
  0
LINE
  5
212
  8
1
  6
CONTINUOUS
 62
     7
 10
708.4893165682103
 20
-61.09072425460131
 30
0.0
 11
708.4928350145178
 21
-61.09323626973823
 31
0.0
  0
LINE
  5
213
  8
1
  6
CONTINUOUS
 62
     7
 10
728.4893165682103
 20
-61.09072425460131
 30
0.0
 11
728.4928349352068
 21
-61.09323621202179
 31
0.0
  0
LINE
  5
214
  8
1
  6
CONTINUOUS
 62
     7
 10
668.4893165682101
 20
-61.09072425460131
 30
0.0
 11
668.4928349461161
 21
-61.09323621996079
 31
0.0
  0
LINE
  5
215
  8
1
  6
CONTINUOUS
 62
     7
 10
688.4893165682101
 20
-61.0907242546013
 30
0.0
 11
688.4928350280328
 21
-61.09323627957344
 31
0.0
  0
LINE
  5
216
  8
1
  6
CONTINUOUS
 62
     7
 10
738.4893165682101
 20
-61.09072425460131
 30
0.0
 11
738.4928350441844
 21
-61.09323629132727
 31
0.0
  0
LINE
  5
217
  8
1
  6
CONTINUOUS
 62
     7
 10
698.4893165682103
 20
-61.09072425460131
 30
0.0
 11
698.4928348307939
 21
-61.09323613603819
 31
0.0
  0
LINE
  5
218
  8
1
  6
CONTINUOUS
 62
     7
 10
758.4893165682103
 20
-61.09072425460131
 30
0.0
 11
758.4928348154095
 21
-61.09323612484265
 31
0.0
  0
LINE
  5
219
  8
1
  6
CONTINUOUS
 62
     7
 10
658.48931656821
 20
-61.09072425460131
 30
0.0
 11
658.4928350252519
 21
-61.09323627754979
 31
0.0
  0
LINE
  5
21A
  8
1
  6
CONTINUOUS
 62
     7
 10
701.1
 20
2.186945261416422
 30
0.0
 11
701.1
 21
-27.49999999999999
 31
0.0
  0
LINE
  5
21B
  8
1
  6
CONTINUOUS
 62
     7
 10
721.1
 20
-61.18694526141639
 30
0.0
 11
720.0999999999999
 21
-61.18694526141639
 31
0.0
  0
LINE
  5
21C
  8
1
  6
CONTINUOUS
 62
     7
 10
690.1
 20
-31.49999999999999
 30
0.0
 11
690.1
 21
-61.18694526141638
 31
0.0
  0
LINE
  5
21D
  8
1
  6
CONTINUOUS
 62
     7
 10
730.0999999999999
 20
2.186945261416422
 30
0.0
 11
731.1
 21
2.186945261416415
 31
0.0
  0
LINE
  5
21E
  8
1
  6
CONTINUOUS
 62
     7
 10
730.0999999999999
 20
2.186945261416409
 30
0.0
 11
730.0999999999999
 21
-27.49999999999999
 31
0.0
  0
LINE
  5
21F
  8
1
  6
CONTINUOUS
 62
     7
 10
731.1
 20
-27.49999999999999
 30
0.0
 11
730.0999999999999
 21
-27.49999999999999
 31
0.0
  0
LINE
  5
220
  8
1
  6
CONTINUOUS
 62
     7
 10
670.1
 20
2.186945261416422
 30
0.0
 11
671.1
 21
2.186945261416415
 31
0.0
  0
LINE
  5
221
  8
1
  6
CONTINUOUS
 62
     7
 10
720.0999999999999
 20
-31.49999999999999
 30
0.0
 11
721.1
 21
-31.49999999999999
 31
0.0
  0
LINE
  5
222
  8
1
  6
CONTINUOUS
 62
     7
 10
701.1
 20
-31.49999999999999
 30
0.0
 11
701.1
 21
-61.18694526141639
 31
0.0
  0
LINE
  5
223
  8
1
  6
CONTINUOUS
 62
     7
 10
731.1
 20
2.186945261416422
 30
0.0
 11
731.1
 21
-27.49999999999999
 31
0.0
  0
LINE
  5
224
  8
1
  6
CONTINUOUS
 62
     7
 10
630.1000000000001
 20
2.186945261416409
 30
0.0
 11
630.1000000000001
 21
-27.49999999999999
 31
0.0
  0
LINE
  5
225
  8
1
  6
CONTINUOUS
 62
     7
 10
640.1000000000001
 20
-31.49999999999999
 30
0.0
 11
640.1000000000001
 21
-61.18694526141638
 31
0.0
  0
LINE
  5
226
  8
1
  6
CONTINUOUS
 62
     7
 10
630.1000000000001
 20
-31.49999999999999
 30
0.0
 11
630.1000000000001
 21
-61.18694526141638
 31
0.0
  0
LINE
  5
227
  8
1
  6
CONTINUOUS
 62
     7
 10
640.1000000000001
 20
2.186945261416422
 30
0.0
 11
641.1
 21
2.186945261416415
 31
0.0
  0
LINE
  5
228
  8
1
  6
CONTINUOUS
 62
     7
 10
680.1
 20
-31.49999999999999
 30
0.0
 11
681.1
 21
-31.49999999999999
 31
0.0
  0
LINE
  5
229
  8
1
  6
CONTINUOUS
 62
     7
 10
690.1
 20
-31.49999999999999
 30
0.0
 11
691.1
 21
-31.49999999999999
 31
0.0
  0
LINE
  5
22A
  8
1
  6
CONTINUOUS
 62
     7
 10
691.1
 20
-61.18694526141639
 30
0.0
 11
690.1
 21
-61.18694526141639
 31
0.0
  0
LINE
  5
22B
  8
1
  6
CONTINUOUS
 62
     7
 10
680.1
 20
2.186945261416409
 30
0.0
 11
680.1
 21
-27.49999999999999
 31
0.0
  0
LINE
  5
22C
  8
1
  6
CONTINUOUS
 62
     7
 10
720.0999999999999
 20
2.186945261416409
 30
0.0
 11
720.0999999999999
 21
-27.49999999999999
 31
0.0
  0
LINE
  5
22D
  8
1
  6
CONTINUOUS
 62
     7
 10
690.1
 20
2.186945261416409
 30
0.0
 11
690.1
 21
-27.49999999999999
 31
0.0
  0
LINE
  5
22E
  8
1
  6
CONTINUOUS
 62
     7
 10
691.1
 20
-31.49999999999999
 30
0.0
 11
691.1
 21
-61.18694526141639
 31
0.0
  0
LINE
  5
22F
  8
1
  6
CONTINUOUS
 62
     7
 10
700.1
 20
-31.49999999999999
 30
0.0
 11
701.1
 21
-31.49999999999999
 31
0.0
  0
LINE
  5
230
  8
1
  6
CONTINUOUS
 62
     7
 10
701.1
 20
-61.18694526141639
 30
0.0
 11
700.1
 21
-61.18694526141639
 31
0.0
  0
LINE
  5
231
  8
1
  6
CONTINUOUS
 62
     7
 10
701.1
 20
-27.49999999999999
 30
0.0
 11
700.1
 21
-27.49999999999999
 31
0.0
  0
LINE
  5
232
  8
1
  6
CONTINUOUS
 62
     7
 10
710.1
 20
2.186945261416409
 30
0.0
 11
710.1
 21
-27.49999999999999
 31
0.0
  0
LINE
  5
233
  8
1
  6
CONTINUOUS
 62
     7
 10
671.1
 20
2.186945261416422
 30
0.0
 11
671.1
 21
-27.49999999999999
 31
0.0
  0
LINE
  5
234
  8
1
  6
CONTINUOUS
 62
     7
 10
721.1
 20
-27.49999999999999
 30
0.0
 11
720.0999999999999
 21
-27.49999999999999
 31
0.0
  0
LINE
  5
235
  8
1
  6
CONTINUOUS
 62
     7
 10
631.1
 20
2.186945261416422
 30
0.0
 11
631.1
 21
-27.49999999999999
 31
0.0
  0
LINE
  5
236
  8
1
  6
CONTINUOUS
 62
     7
 10
640.1000000000001
 20
-31.49999999999999
 30
0.0
 11
641.1
 21
-31.49999999999999
 31
0.0
  0
LINE
  5
237
  8
1
  6
CONTINUOUS
 62
     7
 10
641.1
 20
-27.49999999999999
 30
0.0
 11
640.1000000000001
 21
-27.49999999999999
 31
0.0
  0
LINE
  5
238
  8
1
  6
CONTINUOUS
 62
     7
 10
681.1
 20
-61.18694526141639
 30
0.0
 11
680.1
 21
-61.18694526141639
 31
0.0
  0
LINE
  5
239
  8
1
  6
CONTINUOUS
 62
     7
 10
721.1
 20
-31.49999999999999
 30
0.0
 11
721.1
 21
-61.18694526141639
 31
0.0
  0
LINE
  5
23A
  8
1
  6
CONTINUOUS
 62
     7
 10
630.1000000000001
 20
-31.49999999999999
 30
0.0
 11
631.1
 21
-31.49999999999999
 31
0.0
  0
LINE
  5
23B
  8
1
  6
CONTINUOUS
 62
     7
 10
641.1
 20
2.186945261416422
 30
0.0
 11
641.1
 21
-27.49999999999999
 31
0.0
  0
LINE
  5
23C
  8
1
  6
CONTINUOUS
 62
     7
 10
721.1
 20
2.186945261416422
 30
0.0
 11
721.1
 21
-27.49999999999999
 31
0.0
  0
LINE
  5
23D
  8
1
  6
CONTINUOUS
 62
     7
 10
681.1
 20
-31.49999999999999
 30
0.0
 11
681.1
 21
-61.18694526141639
 31
0.0
  0
LINE
  5
23E
  8
1
  6
CONTINUOUS
 62
     7
 10
691.1
 20
-27.49999999999999
 30
0.0
 11
690.1
 21
-27.49999999999999
 31
0.0
  0
LINE
  5
23F
  8
1
  6
CONTINUOUS
 62
     7
 10
691.1
 20
2.186945261416422
 30
0.0
 11
691.1
 21
-27.49999999999999
 31
0.0
  0
LINE
  5
240
  8
1
  6
CONTINUOUS
 62
     7
 10
700.1
 20
2.186945261416422
 30
0.0
 11
701.1
 21
2.186945261416415
 31
0.0
  0
LINE
  5
241
  8
1
  6
CONTINUOUS
 62
     7
 10
681.1
 20
2.186945261416422
 30
0.0
 11
681.1
 21
-27.49999999999999
 31
0.0
  0
LINE
  5
242
  8
1
  6
CONTINUOUS
 62
     7
 10
700.1
 20
2.186945261416409
 30
0.0
 11
700.1
 21
-27.49999999999999
 31
0.0
  0
LINE
  5
243
  8
1
  6
CONTINUOUS
 62
     7
 10
680.1
 20
-31.49999999999999
 30
0.0
 11
680.1
 21
-61.18694526141638
 31
0.0
  0
LINE
  5
244
  8
1
  6
CONTINUOUS
 62
     7
 10
670.1
 20
2.186945261416409
 30
0.0
 11
670.1
 21
-27.49999999999999
 31
0.0
  0
LINE
  5
245
  8
1
  6
CONTINUOUS
 62
     7
 10
631.1
 20
-31.49999999999999
 30
0.0
 11
631.1
 21
-61.18694526141639
 31
0.0
  0
LINE
  5
246
  8
1
  6
CONTINUOUS
 62
     7
 10
631.1
 20
-61.18694526141639
 30
0.0
 11
630.1000000000001
 21
-61.18694526141639
 31
0.0
  0
LINE
  5
247
  8
1
  6
CONTINUOUS
 62
     7
 10
720.0999999999999
 20
-31.49999999999999
 30
0.0
 11
720.0999999999999
 21
-61.18694526141638
 31
0.0
  0
LINE
  5
248
  8
1
  6
CONTINUOUS
 62
     7
 10
641.1
 20
-31.49999999999999
 30
0.0
 11
641.1
 21
-61.18694526141639
 31
0.0
  0
LINE
  5
249
  8
1
  6
CONTINUOUS
 62
     7
 10
720.0999999999999
 20
2.186945261416422
 30
0.0
 11
721.1
 21
2.186945261416415
 31
0.0
  0
LINE
  5
24A
  8
1
  6
CONTINUOUS
 62
     7
 10
690.1
 20
2.186945261416422
 30
0.0
 11
691.1
 21
2.186945261416415
 31
0.0
  0
LINE
  5
24B
  8
1
  6
CONTINUOUS
 62
     7
 10
680.1
 20
2.186945261416422
 30
0.0
 11
681.1
 21
2.186945261416415
 31
0.0
  0
LINE
  5
24C
  8
1
  6
CONTINUOUS
 62
     7
 10
710.1
 20
2.186945261416422
 30
0.0
 11
711.1
 21
2.186945261416415
 31
0.0
  0
LINE
  5
24D
  8
1
  6
CONTINUOUS
 62
     7
 10
711.1
 20
-27.49999999999999
 30
0.0
 11
710.1
 21
-27.49999999999999
 31
0.0
  0
LINE
  5
24E
  8
1
  6
CONTINUOUS
 62
     7
 10
711.1
 20
2.186945261416422
 30
0.0
 11
711.1
 21
-27.49999999999999
 31
0.0
  0
LINE
  5
24F
  8
1
  6
CONTINUOUS
 62
     7
 10
641.1
 20
-61.18694526141639
 30
0.0
 11
640.1000000000001
 21
-61.18694526141639
 31
0.0
  0
LINE
  5
250
  8
1
  6
CONTINUOUS
 62
     7
 10
681.1
 20
-27.49999999999999
 30
0.0
 11
680.1
 21
-27.49999999999999
 31
0.0
  0
LINE
  5
251
  8
1
  6
CONTINUOUS
 62
     7
 10
671.1
 20
-27.49999999999999
 30
0.0
 11
670.1
 21
-27.49999999999999
 31
0.0
  0
LINE
  5
252
  8
1
  6
CONTINUOUS
 62
     7
 10
700.1
 20
-31.49999999999999
 30
0.0
 11
700.1
 21
-61.18694526141638
 31
0.0
  0
LINE
  5
253
  8
1
  6
CONTINUOUS
 62
     7
 10
710.1
 20
-31.49999999999999
 30
0.0
 11
711.1
 21
-31.49999999999999
 31
0.0
  0
LINE
  5
254
  8
1
  6
CONTINUOUS
 62
     7
 10
710.1
 20
-31.49999999999999
 30
0.0
 11
710.1
 21
-61.18694526141638
 31
0.0
  0
LINE
  5
255
  8
1
  6
CONTINUOUS
 62
     7
 10
711.1
 20
-61.18694526141639
 30
0.0
 11
710.1
 21
-61.18694526141639
 31
0.0
  0
LINE
  5
256
  8
1
  6
CONTINUOUS
 62
     7
 10
630.1000000000001
 20
2.186945261416422
 30
0.0
 11
631.1
 21
2.186945261416415
 31
0.0
  0
LINE
  5
257
  8
1
  6
CONTINUOUS
 62
     7
 10
631.1
 20
-27.49999999999999
 30
0.0
 11
630.1000000000001
 21
-27.49999999999999
 31
0.0
  0
LINE
  5
258
  8
1
  6
CONTINUOUS
 62
     7
 10
640.1000000000001
 20
2.186945261416409
 30
0.0
 11
640.1000000000001
 21
-27.49999999999999
 31
0.0
  0
LINE
  5
259
  8
1
  6
CONTINUOUS
 62
     7
 10
711.1
 20
-31.49999999999999
 30
0.0
 11
711.1
 21
-61.18694526141639
 31
0.0
  0
LINE
  5
25A
  8
1
  6
CONTINUOUS
 62
     7
 10
473.6867732448957
 20
-62.49999999999999
 30
0.0
 11
425.3132267551043
 21
-62.49999999999999
 31
0.0
  0
CIRCLE
  5
25B
  8
1
  6
CONTINUOUS
 62
     7
 10
449.5
 20
-29.49999999999999
 30
0.0
 40
28.5
  0
ARC
  5
25C
  8
1
  6
CONTINUOUS
 62
     7
 10
449.5
 20
-29.49999999999999
 30
0.0
 40
41.99999999999999
 50
310.820891043317
 51
319.179108956683
  0
ARC
  5
25D
  8
1
  6
CONTINUOUS
 62
     7
 10
473.6867732448957
 20
-57.49999999999998
 30
0.0
 40
5.000000000000004
 50
270.0
 51
310.820891043317
  0
ARC
  5
25E
  8
1
  6
CONTINUOUS
 62
     7
 10
477.5
 20
-53.68677324489565
 30
0.0
 40
4.99999999999997
 50
319.179108956683
 51
0.0
  0
LINE
  5
25F
  8
1
  6
CONTINUOUS
 62
     7
 10
482.5000000000001
 20
-5.31322675510433
 30
0.0
 11
482.5000000000001
 21
-53.68677324489564
 31
0.0
  0
CIRCLE
  5
260
  8
1
  6
CONTINUOUS
 62
     7
 10
424.3977092678776
 20
-4.397709267877612
 30
0.0
 40
0.7500000000000007
  0
CIRCLE
  5
261
  8
1
  6
CONTINUOUS
 62
     7
 10
474.6022907321224
 20
-4.397709267877602
 30
0.0
 40
0.7500000000000007
  0
ARC
  5
262
  8
1
  6
CONTINUOUS
 62
     7
 10
477.5
 20
-5.31322675510433
 30
0.0
 40
5.000000000000004
 50
0.0
 51
40.82089104331701
  0
CIRCLE
  5
263
  8
1
  6
CONTINUOUS
 62
     7
 10
424.3977092678776
 20
-54.60229073212237
 30
0.0
 40
0.7500000000000007
  0
CIRCLE
  5
264
  8
1
  6
CONTINUOUS
 62
     7
 10
474.6022907321224
 20
-54.60229073212237
 30
0.0
 40
0.7500000000000007
  0
ARC
  5
265
  8
1
  6
CONTINUOUS
 62
     7
 10
449.5
 20
-29.49999999999999
 30
0.0
 40
42.0
 50
40.82089104331703
 51
229.179108956683
  0
LINE
  5
266
  8
1
  6
CONTINUOUS
 62
     7
 10
712.622235035872
 20
2.250000000000005
 30
0.0
 11
712.709205352136
 21
1.283660276228182
 31
0.0
  0
ARC
  5
267
  8
1
  6
CONTINUOUS
 62
     7
 10
768.3717916224285
 20
-61.24416073078384
 30
0.0
 40
0.1932740673352472
 50
52.54962552014064
 51
181.7313052101136
  0
LINE
  5
268
  8
1
  6
CONTINUOUS
 62
     7
 10
762.622235035872
 20
2.250000000000005
 30
0.0
 11
762.7092053520963
 21
1.283660276675411
 31
0.0
  0
LINE
  5
269
  8
1
  6
CONTINUOUS
 62
     7
 10
632.622235035872
 20
2.250000000000005
 30
0.0
 11
632.7092053520881
 21
1.283660276766716
 31
0.0
  0
LINE
  5
26A
  8
1
  6
CONTINUOUS
 62
     7
 10
535.5921798556678
 20
2.250000000000012
 30
0.0
 11
535.5921798556678
 21
-61.24999999999999
 31
0.0
  0
ARC
  5
26B
  8
1
  6
CONTINUOUS
 62
     7
 10
628.3717916224285
 20
-61.24416073078373
 30
0.0
 40
0.1932740673351404
 50
52.54962552011931
 51
181.7313052101558
  0
ARC
  5
26C
  8
1
  6
CONTINUOUS
 62
     7
 10
622.8288743995573
 20
2.243360564386592
 30
0.0
 40
0.1934745896135452
 50
234.5168930607427
 51
1.96657463258282
  0
LINE
  5
26D
  8
1
  6
CONTINUOUS
 62
     7
 10
628.492834994192
 20
-61.09323625494664
 30
0.0
 11
628.5729710765586
 21
-61.20675327431201
 31
0.0
  0
LINE
  5
26E
  8
1
  6
CONTINUOUS
 62
     7
 10
718.4928352792562
 20
-61.0932364623949
 30
0.0
 11
718.5729710765585
 21
-61.20675327431171
 31
0.0
  0
ARC
  5
26F
  8
1
  6
CONTINUOUS
 62
     7
 10
638.3717916224285
 20
-61.24416073078374
 30
0.0
 40
0.1932740673351398
 50
52.54962552012312
 51
181.7313052101496
  0
ARC
  5
270
  8
1
  6
CONTINUOUS
 62
     7
 10
642.8288743995587
 20
2.243360564385251
 30
0.0
 40
0.1934745896122597
 50
234.5168930879657
 51
1.966574632993229
  0
LINE
  5
271
  8
1
  6
CONTINUOUS
 62
     7
 10
648.492835033779
 20
-61.09323628375507
 30
0.0
 11
648.5729710765586
 21
-61.20675327431191
 31
0.0
  0
ARC
  5
272
  8
1
  6
CONTINUOUS
 62
     7
 10
632.8288743995568
 20
2.243360564387132
 30
0.0
 40
0.1934745896140814
 50
234.5168930508359
 51
1.966574632417292
  0
LINE
  5
273
  8
1
  6
CONTINUOUS
 62
     7
 10
632.7165695787393
 20
2.085816779846299
 30
0.0
 11
632.6222350358719
 21
2.249999928072007
 31
0.0
  0
LINE
  5
274
  8
1
  6
CONTINUOUS
 62
     7
 10
622.622235035872
 20
2.250000000000005
 30
0.0
 11
622.7092053520932
 21
1.283660276708235
 31
0.0
  0
LINE
  5
275
  8
1
  6
CONTINUOUS
 62
     7
 10
642.7165695788443
 20
2.085816779773108
 30
0.0
 11
642.6222350358719
 21
2.249999928072021
 31
0.0
  0
ARC
  5
276
  8
1
  6
CONTINUOUS
 62
     7
 10
718.3717916224285
 20
-61.24416073078385
 30
0.0
 40
0.1932740673352474
 50
52.54962552014309
 51
181.7313052101157
  0
ARC
  5
277
  8
1
  6
CONTINUOUS
 62
     7
 10
648.3717916224285
 20
-61.24416073078372
 30
0.0
 40
0.1932740673351406
 50
52.54962552011807
 51
181.7313052101579
  0
LINE
  5
278
  8
1
  6
CONTINUOUS
 62
     7
 10
768.4928349230438
 20
-61.09323620317051
 30
0.0
 11
768.5729710765585
 21
-61.20675327431173
 31
0.0
  0
LINE
  5
279
  8
1
  6
CONTINUOUS
 62
     7
 10
642.622235035872
 20
2.250000000000005
 30
0.0
 11
642.7092053521075
 21
1.283660276548828
 31
0.0
  0
ARC
  5
27A
  8
1
  6
CONTINUOUS
 62
     7
 10
762.8288743995577
 20
2.243360564386324
 30
0.0
 40
0.1934745896132215
 50
234.5168930663086
 51
1.966574632665527
  0
ARC
  5
27B
  8
1
  6
CONTINUOUS
 62
     7
 10
425.3132267551043
 20
-57.49999999999998
 30
0.0
 40
5.000000000000002
 50
229.179108956683
 51
270.0
  0
LINE
  5
27C
  8
1
  6
CONTINUOUS
 62
     7
 10
638.4928349499928
 20
-61.09323622278197
 30
0.0
 11
638.5729710765586
 21
-61.20675327431186
 31
0.0
  0
LINE
  5
27D
  8
1
  6
CONTINUOUS
 62
     7
 10
712.7165695789993
 20
2.085816779665097
 30
0.0
 11
712.6222350358719
 21
2.24999992807202
 31
0.0
  0
ARC
  5
27E
  8
1
  6
CONTINUOUS
 62
     7
 10
712.8288743995615
 20
2.243360564382342
 30
0.0
 40
0.1934745896094746
 50
234.5168931427641
 51
1.966574633883567
  0
LINE
  5
27F
  8
1
  6
CONTINUOUS
 62
     7
 10
762.716569578783
 20
2.085816779815755
 30
0.0
 11
762.622235035872
 21
2.249999928072007
 31
0.0
  0
LINE
  5
280
  8
1
  6
CONTINUOUS
 62
     7
 10
622.7165695787673
 20
2.085816779826752
 30
0.0
 11
622.6222350358719
 21
2.249999928072014
 31
0.0
  0
ARC
  5
281
  8
1
  6
CONTINUOUS
 62
     7
 10
692.8288743995603
 20
2.243360564383627
 30
0.0
 40
0.1934745896106511
 50
234.5168931186487
 51
1.966574633490722
  0
LINE
  5
282
  8
1
  6
CONTINUOUS
 62
     7
 10
692.6222350358719
 20
2.250000000000005
 30
0.0
 11
692.7092053521235
 21
1.283660276368677
 31
0.0
  0
LINE
  5
283
  8
1
  6
CONTINUOUS
 62
     7
 10
742.622235035872
 20
2.250000000000005
 30
0.0
 11
742.7092053521405
 21
1.283660276176334
 31
0.0
  0
ARC
  5
284
  8
1
  6
CONTINUOUS
 62
     7
 10
742.828874399562
 20
2.243360564381902
 30
0.0
 40
0.1934745896090459
 50
234.5168931516413
 51
1.9665746340184
  0
LINE
  5
285
  8
1
  6
CONTINUOUS
 62
     7
 10
702.622235035872
 20
2.250000000000005
 30
0.0
 11
702.7092053520895
 21
1.283660276751936
 31
0.0
  0
LINE
  5
286
  8
1
  6
CONTINUOUS
 62
     7
 10
708.4928350145177
 20
-61.09323626973823
 30
0.0
 11
708.5729710765586
 21
-61.20675327431194
 31
0.0
  0
ARC
  5
287
  8
1
  6
CONTINUOUS
 62
     7
 10
708.3717916224285
 20
-61.2441607307838
 30
0.0
 40
0.1932740673352493
 50
52.54962552013433
 51
181.7313052101342
  0
ARC
  5
288
  8
1
  6
CONTINUOUS
 62
     7
 10
662.8288743995583
 20
2.243360564385654
 30
0.0
 40
0.1934745896125787
 50
234.5168930791738
 51
1.966574632870504
  0
ARC
  5
289
  8
1
  6
CONTINUOUS
 62
     7
 10
672.8288743995606
 20
2.243360564383278
 30
0.0
 40
0.1934745896103301
 50
234.5168931249152
 51
1.966574633597475
  0
ARC
  5
28A
  8
1
  6
CONTINUOUS
 62
     7
 10
678.3717916224285
 20
-61.2441607307838
 30
0.0
 40
0.1932740673352487
 50
52.54962552013313
 51
181.7313052101281
  0
LINE
  5
28B
  8
1
  6
CONTINUOUS
 62
     7
 10
662.7165695788195
 20
2.085816779790393
 30
0.0
 11
662.6222350358719
 21
2.249999928072021
 31
0.0
  0
LINE
  5
28C
  8
1
  6
CONTINUOUS
 62
     7
 10
668.4928349461161
 20
-61.09323621996079
 30
0.0
 11
668.5729710765587
 21
-61.20675327431224
 31
0.0
  0
ARC
  5
28D
  8
1
  6
CONTINUOUS
 62
     7
 10
668.3717916224285
 20
-61.24416073078381
 30
0.0
 40
0.1932740673352485
 50
52.54962552013557
 51
181.731305210126
  0
LINE
  5
28E
  8
1
  6
CONTINUOUS
 62
     7
 10
662.6222350358719
 20
2.250000000000005
 30
0.0
 11
662.7092053521029
 21
1.283660276599871
 31
0.0
  0
LINE
  5
28F
  8
1
  6
CONTINUOUS
 62
     7
 10
752.7165695787392
 20
2.085816779846279
 30
0.0
 11
752.6222350358719
 21
2.249999928072007
 31
0.0
  0
LINE
  5
290
  8
1
  6
CONTINUOUS
 62
     7
 10
758.4928348154094
 20
-61.09323612484266
 30
0.0
 11
758.5729710765585
 21
-61.20675327431211
 31
0.0
  0
LINE
  5
291
  8
1
  6
CONTINUOUS
 62
     7
 10
672.716569578949
 20
2.08581677970025
 30
0.0
 11
672.6222350358719
 21
2.249999928072014
 31
0.0
  0
ARC
  5
292
  8
1
  6
CONTINUOUS
 62
     7
 10
748.3717916224285
 20
-61.24416073078374
 30
0.0
 40
0.1932740673351394
 50
52.54962552012312
 51
181.7313052101455
  0
LINE
  5
293
  8
1
  6
CONTINUOUS
 62
     7
 10
678.4928351052741
 20
-61.09323633578374
 30
0.0
 11
678.5729710765587
 21
-61.20675327431204
 31
0.0
  0
LINE
  5
294
  8
1
  6
CONTINUOUS
 62
     7
 10
742.7165695790245
 20
2.08581677964759
 30
0.0
 11
742.622235035872
 21
2.249999928072014
 31
0.0
  0
LINE
  5
295
  8
1
  6
CONTINUOUS
 62
     7
 10
672.6222350358719
 20
2.250000000000005
 30
0.0
 11
672.7092053521268
 21
1.283660276332432
 31
0.0
  0
ARC
  5
296
  8
1
  6
CONTINUOUS
 62
     7
 10
698.3717916224285
 20
-61.24416073078393
 30
0.0
 40
0.1932740673353563
 50
52.54962552015689
 51
181.7313052100942
  0
LINE
  5
297
  8
1
  6
CONTINUOUS
 62
     7
 10
692.7165695789312
 20
2.085816779712601
 30
0.0
 11
692.6222350358719
 21
2.249999928072014
 31
0.0
  0
LINE
  5
298
  8
1
  6
CONTINUOUS
 62
     7
 10
748.4928348132518
 20
-61.09323612327245
 30
0.0
 11
748.5729710765586
 21
-61.20675327431179
 31
0.0
  0
LINE
  5
299
  8
1
  6
CONTINUOUS
 62
     7
 10
702.7165695787462
 20
2.085816779841512
 30
0.0
 11
702.622235035872
 21
2.249999928072014
 31
0.0
  0
LINE
  5
29A
  8
1
  6
CONTINUOUS
 62
     7
 10
698.4928348307939
 20
-61.09323613603819
 30
0.0
 11
698.5729710765586
 21
-61.20675327431191
 31
0.0
  0
ARC
  5
29B
  8
1
  6
CONTINUOUS
 62
     7
 10
702.828874399557
 20
2.243360564386907
 30
0.0
 40
0.1934745896138672
 50
234.5168930532534
 51
1.966574632486129
  0
LINE
  5
29C
  8
1
  6
CONTINUOUS
 62
     7
 10
652.7165695787767
 20
2.085816779820216
 30
0.0
 11
652.6222350358719
 21
2.249999928072014
 31
0.0
  0
ARC
  5
29D
  8
1
  6
CONTINUOUS
 62
     7
 10
652.8288743995573
 20
2.24336056438655
 30
0.0
 40
0.1934745896135466
 50
234.5168930640812
 51
1.966574632595268
  0
LINE
  5
29E
  8
1
  6
CONTINUOUS
 62
     7
 10
652.6222350358719
 20
2.250000000000005
 30
0.0
 11
652.7092053520951
 21
1.283660276688557
 31
0.0
  0
LINE
  5
29F
  8
1
  6
CONTINUOUS
 62
     7
 10
682.6222350358719
 20
2.250000000000005
 30
0.0
 11
682.7092053520918
 21
1.283660276725346
 31
0.0
  0
LINE
  5
2A0
  8
1
  6
CONTINUOUS
 62
     7
 10
688.4928350280327
 20
-61.09323627957345
 30
0.0
 11
688.5729710765585
 21
-61.20675327431187
 31
0.0
  0
LINE
  5
2A1
  8
1
  6
CONTINUOUS
 62
     7
 10
722.622235035872
 20
2.250000000000005
 30
0.0
 11
722.7092053520137
 21
1.28366027760524
 31
0.0
  0
ARC
  5
2A2
  8
1
  6
CONTINUOUS
 62
     7
 10
732.8288743995613
 20
2.243360564382618
 30
0.0
 40
0.1934745896096871
 50
234.5168931381459
 51
1.966574633799439
  0
LINE
  5
2A3
  8
1
  6
CONTINUOUS
 62
     7
 10
620.1000000000001
 20
-31.49999999999999
 30
0.0
 11
621.1
 21
-31.49999999999999
 31
0.0
  0
LINE
  5
2A4
  8
1
  6
CONTINUOUS
 62
     7
 10
728.4928349352068
 20
-61.09323621202179
 30
0.0
 11
728.5729710765586
 21
-61.20675327431186
 31
0.0
  0
ARC
  5
2A5
  8
1
  6
CONTINUOUS
 62
     7
 10
682.8288743995572
 20
2.24336056438671
 30
0.0
 40
0.193474589613652
 50
234.5168930577811
 51
1.966574632546781
  0
LINE
  5
2A6
  8
1
  6
CONTINUOUS
 62
     7
 10
658.492835025252
 20
-61.09323627754979
 30
0.0
 11
658.5729710765586
 21
-61.20675327431195
 31
0.0
  0
LINE
  5
2A7
  8
1
  6
CONTINUOUS
 62
     7
 10
738.4928350441843
 20
-61.09323629132727
 30
0.0
 11
738.5729710765585
 21
-61.20675327431186
 31
0.0
  0
LINE
  5
2A8
  8
1
  6
CONTINUOUS
 62
     7
 10
732.7165695789863
 20
2.085816779674173
 30
0.0
 11
732.622235035872
 21
2.249999928072014
 31
0.0
  0
ARC
  5
2A9
  8
1
  6
CONTINUOUS
 62
     7
 10
758.3717916224285
 20
-61.24416073078375
 30
0.0
 40
0.1932740673351396
 50
52.54962552012432
 51
181.7313052101476
  0
ARC
  5
2AA
  8
1
  6
CONTINUOUS
 62
     7
 10
728.3717916224284
 20
-61.24416073078375
 30
0.0
 40
0.1932740673351396
 50
52.54962552012432
 51
181.7313052101476
  0
ARC
  5
2AB
  8
1
  6
CONTINUOUS
 62
     7
 10
752.8288743995568
 20
2.243360564387143
 30
0.0
 40
0.1934745896140811
 50
234.5168930508413
 51
1.966574632414165
  0
ARC
  5
2AC
  8
1
  6
CONTINUOUS
 62
     7
 10
688.3717916224284
 20
-61.24416073078385
 30
0.0
 40
0.193274067335248
 50
52.54962552011699
 51
181.7313052101218
  0
LINE
  5
2AD
  8
1
  6
CONTINUOUS
 62
     7
 10
722.716569578334
 20
2.085816780128643
 30
0.0
 11
722.622235035872
 21
2.249999928072007
 31
0.0
  0
ARC
  5
2AE
  8
1
  6
CONTINUOUS
 62
     7
 10
722.8288743995496
 20
2.243360564394386
 30
0.0
 40
0.1934745896210447
 50
234.5168929075695
 51
1.966574630197044
  0
ARC
  5
2AF
  8
1
  6
CONTINUOUS
 62
     7
 10
738.3717916224285
 20
-61.24416073078374
 30
0.0
 40
0.1932740673351394
 50
52.54962552012312
 51
181.7313052101455
  0
LINE
  5
2B0
  8
1
  6
CONTINUOUS
 62
     7
 10
620.1000000000001
 20
-31.49999999999999
 30
0.0
 11
620.1000000000001
 21
-61.18694526141638
 31
0.0
  0
LINE
  5
2B1
  8
1
  6
CONTINUOUS
 62
     7
 10
621.1
 20
-61.18694526141639
 30
0.0
 11
620.1000000000001
 21
-61.18694526141639
 31
0.0
  0
ARC
  5
2B2
  8
1
  6
CONTINUOUS
 62
     7
 10
658.3717916224285
 20
-61.2441607307839
 30
0.0
 40
0.1932740673352459
 50
52.54962552015065
 51
181.7313052101013
  0
LINE
  5
2B3
  8
1
  6
CONTINUOUS
 62
     7
 10
682.7165695787589
 20
2.085816779832574
 30
0.0
 11
682.6222350358719
 21
2.249999928072014
 31
0.0
  0
LINE
  5
2B4
  8
1
  6
CONTINUOUS
 62
     7
 10
752.622235035872
 20
2.250000000000005
 30
0.0
 11
752.7092053520882
 21
1.283660276765853
 31
0.0
  0
LINE
  5
2B5
  8
1
  6
CONTINUOUS
 62
     7
 10
621.1
 20
-31.49999999999999
 30
0.0
 11
621.1
 21
-61.18694526141639
 31
0.0
  0
LINE
  5
2B6
  8
1
  6
CONTINUOUS
 62
     7
 10
620.1000000000001
 20
2.186945261416422
 30
0.0
 11
621.1
 21
2.186945261416415
 31
0.0
  0
LINE
  5
2B7
  8
1
  6
CONTINUOUS
 62
     7
 10
620.1000000000001
 20
2.186945261416409
 30
0.0
 11
620.1000000000001
 21
-27.49999999999999
 31
0.0
  0
LINE
  5
2B8
  8
1
  6
CONTINUOUS
 62
     7
 10
621.1
 20
-27.49999999999999
 30
0.0
 11
620.1000000000001
 21
-27.49999999999999
 31
0.0
  0
LINE
  5
2B9
  8
1
  6
CONTINUOUS
 62
     7
 10
621.1
 20
2.186945261416422
 30
0.0
 11
621.1
 21
-27.49999999999999
 31
0.0
  0
LINE
  5
2BA
  8
1
  6
CONTINUOUS
 62
     7
 10
732.622235035872
 20
2.250000000000005
 30
0.0
 11
732.7092053521336
 21
1.283660276254664
 31
0.0
  0
LINE
  5
2BB
  8
1
  6
CONTINUOUS
 62
     7
 10
651.1
 20
2.186945261416422
 30
0.0
 11
651.1
 21
-27.49999999999999
 31
0.0
  0
LINE
  5
2BC
  8
1
  6
CONTINUOUS
 62
     7
 10
661.1
 20
2.186945261416422
 30
0.0
 11
661.1
 21
-27.49999999999999
 31
0.0
  0
LINE
  5
2BD
  8
1
  6
CONTINUOUS
 62
     7
 10
670.1
 20
-31.49999999999999
 30
0.0
 11
670.1
 21
-61.18694526141638
 31
0.0
  0
LINE
  5
2BE
  8
1
  6
CONTINUOUS
 62
     7
 10
661.1
 20
-27.49999999999999
 30
0.0
 11
660.1
 21
-27.49999999999999
 31
0.0
  0
LINE
  5
2BF
  8
1
  6
CONTINUOUS
 62
     7
 10
671.1
 20
-61.18694526141639
 30
0.0
 11
670.1
 21
-61.18694526141639
 31
0.0
  0
LINE
  5
2C0
  8
1
  6
CONTINUOUS
 62
     7
 10
670.1
 20
-31.49999999999999
 30
0.0
 11
671.1
 21
-31.49999999999999
 31
0.0
  0
LINE
  5
2C1
  8
1
  6
CONTINUOUS
 62
     7
 10
671.1
 20
-31.49999999999999
 30
0.0
 11
671.1
 21
-61.18694526141639
 31
0.0
  0
LINE
  5
2C2
  8
1
  6
CONTINUOUS
 62
     7
 10
661.1
 20
-31.49999999999999
 30
0.0
 11
661.1
 21
-61.18694526141639
 31
0.0
  0
LINE
  5
2C3
  8
1
  6
CONTINUOUS
 62
     7
 10
651.1
 20
-61.18694526141639
 30
0.0
 11
650.1000000000001
 21
-61.18694526141639
 31
0.0
  0
LINE
  5
2C4
  8
1
  6
CONTINUOUS
 62
     7
 10
651.1
 20
-31.49999999999999
 30
0.0
 11
651.1
 21
-61.18694526141639
 31
0.0
  0
LINE
  5
2C5
  8
1
  6
CONTINUOUS
 62
     7
 10
650.1000000000001
 20
2.186945261416409
 30
0.0
 11
650.1000000000001
 21
-27.49999999999999
 31
0.0
  0
LINE
  5
2C6
  8
1
  6
CONTINUOUS
 62
     7
 10
650.1000000000001
 20
2.186945261416422
 30
0.0
 11
651.1
 21
2.186945261416415
 31
0.0
  0
LINE
  5
2C7
  8
1
  6
CONTINUOUS
 62
     7
 10
650.1000000000001
 20
-31.49999999999999
 30
0.0
 11
651.1
 21
-31.49999999999999
 31
0.0
  0
LINE
  5
2C8
  8
1
  6
CONTINUOUS
 62
     7
 10
660.1
 20
-31.49999999999999
 30
0.0
 11
661.1
 21
-31.49999999999999
 31
0.0
  0
LINE
  5
2C9
  8
1
  6
CONTINUOUS
 62
     7
 10
660.1
 20
-31.49999999999999
 30
0.0
 11
660.1
 21
-61.18694526141638
 31
0.0
  0
LINE
  5
2CA
  8
1
  6
CONTINUOUS
 62
     7
 10
661.1
 20
-61.18694526141639
 30
0.0
 11
660.1
 21
-61.18694526141639
 31
0.0
  0
LINE
  5
2CB
  8
1
  6
CONTINUOUS
 62
     7
 10
650.1000000000001
 20
-31.49999999999999
 30
0.0
 11
650.1000000000001
 21
-61.18694526141638
 31
0.0
  0
LINE
  5
2CC
  8
1
  6
CONTINUOUS
 62
     7
 10
651.1
 20
-27.49999999999999
 30
0.0
 11
650.1000000000001
 21
-27.49999999999999
 31
0.0
  0
LINE
  5
2CD
  8
1
  6
CONTINUOUS
 62
     7
 10
660.1
 20
2.186945261416422
 30
0.0
 11
661.1
 21
2.186945261416415
 31
0.0
  0
LINE
  5
2CE
  8
1
  6
CONTINUOUS
 62
     7
 10
660.1
 20
2.186945261416409
 30
0.0
 11
660.1
 21
-27.49999999999999
 31
0.0
  0
TEXT
  5
2CF
  8
1
  6
CONTINUOUS
 62
     7
 10
628.0764880580218
 20
-76.6715799674878
 30
0.0
 40
3.0
  1
GKPA-60S
  0
ENDSEC
  0
EOF
