  0
SECTION
  2
HEADER
  9
$ACADVER
  1
AC1006
  9
$DWGCODEPAGE
  3
ansi_932
  9
$INSBASE
 10
0.0
 20
0.0
 30
0.0
  9
$EXTMIN
 10
403.0
 20
58.67045454545455
  9
$EXTMAX
 10
775.0
 20
152.0
  9
$LIMMIN
 10
0.0
 20
0.0
  9
$LIMMAX
 10
12.0
 20
9.0
  9
$ORTHOMODE
 70
     0
  9
$REGENMODE
 70
     1
  9
$FILLMODE
 70
     1
  9
$QTEXTMODE
 70
     0
  9
$MIRRTEXT
 70
     1
  9
$DRAGMODE
 70
     2
  9
$LTSCALE
 40
1.0
  9
$OSMODE
 70
    37
  9
$ATTMODE
 70
     1
  9
$TEXTSIZE
 40
0.2
  9
$TRACEWID
 40
0.05
  9
$TEXTSTYLE
  7
STANDARD
  9
$CLAYER
  8
0
  9
$CELTYPE
  6
BYLAYER
  9
$CECOLOR
 62
   256
  9
$DIMSCALE
 40
1.0
  9
$DIMASZ
 40
3.0
  9
$DIMEXO
 40
0.0625
  9
$DIMDLI
 40
0.38
  9
$DIMRND
 40
0.0
  9
$DIMDLE
 40
0.0
  9
$DIMEXE
 40
1.5
  9
$DIMTP
 40
0.0
  9
$DIMTM
 40
0.0
  9
$DIMTXT
 40
3.0
  9
$DIMCEN
 40
0.09
  9
$DIMTSZ
 40
0.0
  9
$DIMTOL
 70
     0
  9
$DIMLIM
 70
     0
  9
$DIMTIH
 70
     1
  9
$DIMTOH
 70
     1
  9
$DIMSE1
 70
     0
  9
$DIMSE2
 70
     0
  9
$DIMTAD
 70
     1
  9
$DIMZIN
 70
     0
  9
$DIMBLK
  1

  9
$DIMASO
 70
     1
  9
$DIMSHO
 70
     1
  9
$DIMPOST
  1

  9
$DIMAPOST
  1

  9
$DIMALT
 70
     0
  9
$DIMALTD
 70
     2
  9
$DIMALTF
 40
25.4
  9
$DIMLFAC
 40
1.0
  9
$DIMTOFL
 70
     0
  9
$DIMTVP
 40
0.0
  9
$DIMTIX
 70
     0
  9
$DIMSOXD
 70
     0
  9
$DIMSAH
 70
     0
  9
$DIMBLK1
  1

  9
$DIMBLK2
  1

  9
$LUNITS
 70
     2
  9
$LUPREC
 70
     4
  9
$SKETCHINC
 40
0.1
  9
$FILLETRAD
 40
0.5
  9
$AUNITS
 70
     0
  9
$AUPREC
 70
     0
  9
$MENU
  1
.
  9
$ELEVATION
 40
0.0
  9
$THICKNESS
 40
0.0
  9
$LIMCHECK
 70
     0
  9
$CHAMFERA
 40
0.0
  9
$CHAMFERB
 40
0.0
  9
$SKPOLY
 70
     0
  9
$TDCREATE
 40
2460745.390098692
  9
$TDUPDATE
 40
2460745.39009882
  9
$TDINDWG
 40
0.0000000116
  9
$TDUSRTIMER
 40
0.0000000116
  9
$USRTIMER
 70
     1
  9
$ANGBASE
 50
0.0
  9
$ANGDIR
 70
     0
  9
$PDMODE
 70
     0
  9
$PDSIZE
 40
0.0
  9
$PLINEWID
 40
0.0
  9
$COORDS
 70
     1
  9
$SPLFRAME
 70
     0
  9
$SPLINETYPE
 70
     6
  9
$SPLINESEGS
 70
     8
  9
$ATTDIA
 70
     0
  9
$ATTREQ
 70
     1
  9
$HANDLING
 70
     1
  9
$HANDSEED
  5
430
  9
$SURFTAB1
 70
     6
  9
$SURFTAB2
 70
     6
  9
$SURFTYPE
 70
     6
  9
$SURFU
 70
     6
  9
$SURFV
 70
     6
  9
$UCSNAME
  2

  9
$UCSORG
 10
0.0
 20
0.0
 30
0.0
  9
$UCSXDIR
 10
1.0
 20
0.0
 30
0.0
  9
$UCSYDIR
 10
0.0
 20
1.0
 30
0.0
  9
$USERI1
 70
     0
  9
$USERI2
 70
     0
  9
$USERI3
 70
     0
  9
$USERI4
 70
     0
  9
$USERI5
 70
     0
  9
$USERR1
 40
0.0
  9
$USERR2
 40
0.0
  9
$USERR3
 40
0.0
  9
$USERR4
 40
0.0
  9
$USERR5
 40
0.0
  9
$WORLDVIEW
 70
     1
  0
ENDSEC
  0
SECTION
  2
TABLES
  0
TABLE
  2
VPORT
 70
     1
  0
VPORT
  2
*ACTIVE
 70
     0
 10
0.0
 20
0.0
 11
1.0
 21
1.0
 12
589.0
 22
105.3352272727273
 13
0.0
 23
0.0
 14
0.5
 24
0.5
 15
0.5
 25
0.5
 16
0.0
 26
0.0
 36
1.0
 17
0.0
 27
0.0
 37
0.0
 40
93.32954545454545
 41
1.6
 42
50.0
 43
0.0
 44
0.0
 50
0.0
 51
0.0
 71
     0
 72
   100
 73
     1
 74
     3
 75
     0
 76
     0
 77
     0
 78
     0
  0
ENDTAB
  0
TABLE
  2
LTYPE
 70
     2
  0
LTYPE
  2
CONTINUOUS
 70
     0
  3
Solid line
 72
    65
 73
     0
 40
0.0
  0
LTYPE
  2
CENTER
 70
     0
  3

 72
    65
 73
     0
 40
0.0
  0
ENDTAB
  0
TABLE
  2
LAYER
 70
     2
  0
LAYER
  2
0
 70
     0
 62
     7
  6
CONTINUOUS
  0
LAYER
  2
1
 70
     0
 62
     7
  6
CONTINUOUS
  0
ENDTAB
  0
TABLE
  2
STYLE
 70
     2
  0
STYLE
  2
STANDARD
 70
     0
 40
0.0
 41
1.0
 50
0.0
 71
     0
 42
0.2
  3
txt
  4

  0
STYLE
  2
ＭＳ_ゴシック
 70
     0
 40
0.0
 41
1.0
 50
0.0
 71
     0
 42
0.2
  3
ＭＳ ゴシック.shx
  4

  0
ENDTAB
  0
TABLE
  2
VIEW
 70
     0
  0
ENDTAB
  0
TABLE
  2
UCS
 70
     0
  0
ENDTAB
  0
ENDSEC
  0
SECTION
  2
BLOCKS
  0
BLOCK
  8
0
  2
D_FRAME_VIEW_3158
 70
     0
 10
0.0
 20
0.0
 30
0.0
  0
ENDBLK
  8
0
  0
BLOCK
  8
0
  2
D_FRAME_VIEW_3808
 70
     0
 10
0.0
 20
0.0
 30
0.0
  0
ENDBLK
  8
0
  0
ENDSEC
  0
SECTION
  2
ENTITIES
  0
INSERT
  5
71
  8
1
  6
CONTINUOUS
 62
     7
  2
D_FRAME_VIEW_3158
 10
0.0
 20
0.0
 30
0.0
  0
INSERT
  5
75
  8
1
  6
CONTINUOUS
 62
     7
  2
D_FRAME_VIEW_3808
 10
0.0
 20
0.0
 30
0.0
  0
LINE
  5
76
  8
1
  6
CONTINUOUS
 62
     7
 10
680.1
 20
104.0
 30
0.0
 11
680.1
 21
71.80844402487655
 31
0.0
  0
LINE
  5
77
  8
1
  6
CONTINUOUS
 62
     7
 10
681.1
 20
108.0
 30
0.0
 11
680.1
 21
108.0
 31
0.0
  0
LINE
  5
78
  8
1
  6
CONTINUOUS
 62
     7
 10
681.1
 20
140.1915559751235
 30
0.0
 11
681.1
 21
108.0
 31
0.0
  0
LINE
  5
79
  8
1
  6
CONTINUOUS
 62
     7
 10
681.1
 20
71.80844402487655
 30
0.0
 11
680.1
 21
71.80844402487655
 31
0.0
  0
LINE
  5
7A
  8
1
  6
CONTINUOUS
 62
     7
 10
681.1
 20
104.0
 30
0.0
 11
681.1
 21
71.80844402487652
 31
0.0
  0
LINE
  5
7B
  8
1
  6
CONTINUOUS
 62
     7
 10
670.1
 20
140.1915559751234
 30
0.0
 11
671.1
 21
140.1915559751234
 31
0.0
  0
LINE
  5
7C
  8
1
  6
CONTINUOUS
 62
     7
 10
670.1
 20
140.1915559751234
 30
0.0
 11
670.1
 21
108.0
 31
0.0
  0
LINE
  5
7D
  8
1
  6
CONTINUOUS
 62
     7
 10
671.1
 20
108.0
 30
0.0
 11
670.1
 21
108.0
 31
0.0
  0
LINE
  5
7E
  8
1
  6
CONTINUOUS
 62
     7
 10
680.1
 20
104.0
 30
0.0
 11
681.1
 21
104.0
 31
0.0
  0
LINE
  5
7F
  8
1
  6
CONTINUOUS
 62
     7
 10
680.1
 20
140.1915559751234
 30
0.0
 11
680.1
 21
108.0
 31
0.0
  0
LINE
  5
80
  8
1
  6
CONTINUOUS
 62
     7
 10
670.1
 20
104.0
 30
0.0
 11
671.1
 21
104.0
 31
0.0
  0
LINE
  5
81
  8
1
  6
CONTINUOUS
 62
     7
 10
661.1
 20
104.0
 30
0.0
 11
661.1
 21
71.80844402487652
 31
0.0
  0
LINE
  5
82
  8
1
  6
CONTINUOUS
 62
     7
 10
720.0999999999999
 20
104.0
 30
0.0
 11
720.0999999999999
 21
71.80844402487655
 31
0.0
  0
LINE
  5
83
  8
1
  6
CONTINUOUS
 62
     7
 10
721.1
 20
104.0
 30
0.0
 11
721.1
 21
71.80844402487652
 31
0.0
  0
LINE
  5
84
  8
1
  6
CONTINUOUS
 62
     7
 10
721.1
 20
140.1915559751235
 30
0.0
 11
721.1
 21
108.0
 31
0.0
  0
LINE
  5
85
  8
1
  6
CONTINUOUS
 62
     7
 10
690.1
 20
140.1915559751234
 30
0.0
 11
690.1
 21
108.0
 31
0.0
  0
LINE
  5
86
  8
1
  6
CONTINUOUS
 62
     7
 10
691.1
 20
108.0
 30
0.0
 11
690.1
 21
108.0
 31
0.0
  0
LINE
  5
87
  8
1
  6
CONTINUOUS
 62
     7
 10
690.1
 20
140.1915559751234
 30
0.0
 11
691.1
 21
140.1915559751234
 31
0.0
  0
LINE
  5
88
  8
1
  6
CONTINUOUS
 62
     7
 10
651.1
 20
140.1915559751235
 30
0.0
 11
651.1
 21
108.0
 31
0.0
  0
LINE
  5
89
  8
1
  6
CONTINUOUS
 62
     7
 10
630.1000000000001
 20
104.0
 30
0.0
 11
631.1
 21
104.0
 31
0.0
  0
LINE
  5
8A
  8
1
  6
CONTINUOUS
 62
     7
 10
640.1000000000001
 20
140.1915559751234
 30
0.0
 11
641.1
 21
140.1915559751234
 31
0.0
  0
LINE
  5
8B
  8
1
  6
CONTINUOUS
 62
     7
 10
731.1
 20
140.1915559751235
 30
0.0
 11
731.1
 21
108.0
 31
0.0
  0
LINE
  5
8C
  8
1
  6
CONTINUOUS
 62
     7
 10
660.1
 20
140.1915559751234
 30
0.0
 11
661.1
 21
140.1915559751234
 31
0.0
  0
LINE
  5
8D
  8
1
  6
CONTINUOUS
 62
     7
 10
640.1000000000001
 20
104.0
 30
0.0
 11
641.1
 21
104.0
 31
0.0
  0
LINE
  5
8E
  8
1
  6
CONTINUOUS
 62
     7
 10
700.1
 20
140.1915559751234
 30
0.0
 11
700.1
 21
108.0
 31
0.0
  0
LINE
  5
8F
  8
1
  6
CONTINUOUS
 62
     7
 10
641.1
 20
140.1915559751235
 30
0.0
 11
641.1
 21
108.0
 31
0.0
  0
LINE
  5
90
  8
1
  6
CONTINUOUS
 62
     7
 10
660.1
 20
140.1915559751234
 30
0.0
 11
660.1
 21
108.0
 31
0.0
  0
LINE
  5
91
  8
1
  6
CONTINUOUS
 62
     7
 10
641.1
 20
104.0
 30
0.0
 11
641.1
 21
71.80844402487652
 31
0.0
  0
LINE
  5
92
  8
1
  6
CONTINUOUS
 62
     7
 10
650.1000000000001
 20
140.1915559751234
 30
0.0
 11
651.1
 21
140.1915559751234
 31
0.0
  0
LINE
  5
93
  8
1
  6
CONTINUOUS
 62
     7
 10
630.1000000000001
 20
140.1915559751234
 30
0.0
 11
631.1
 21
140.1915559751234
 31
0.0
  0
LINE
  5
94
  8
1
  6
CONTINUOUS
 62
     7
 10
701.1
 20
140.1915559751235
 30
0.0
 11
701.1
 21
108.0
 31
0.0
  0
LINE
  5
95
  8
1
  6
CONTINUOUS
 62
     7
 10
651.1
 20
108.0
 30
0.0
 11
650.1000000000001
 21
108.0
 31
0.0
  0
LINE
  5
96
  8
1
  6
CONTINUOUS
 62
     7
 10
700.1
 20
104.0
 30
0.0
 11
701.1
 21
104.0
 31
0.0
  0
LINE
  5
97
  8
1
  6
CONTINUOUS
 62
     7
 10
700.1
 20
104.0
 30
0.0
 11
700.1
 21
71.80844402487655
 31
0.0
  0
LINE
  5
98
  8
1
  6
CONTINUOUS
 62
     7
 10
661.1
 20
108.0
 30
0.0
 11
660.1
 21
108.0
 31
0.0
  0
LINE
  5
99
  8
1
  6
CONTINUOUS
 62
     7
 10
650.1000000000001
 20
140.1915559751234
 30
0.0
 11
650.1000000000001
 21
108.0
 31
0.0
  0
LINE
  5
9A
  8
1
  6
CONTINUOUS
 62
     7
 10
670.1
 20
104.0
 30
0.0
 11
670.1
 21
71.80844402487655
 31
0.0
  0
LINE
  5
9B
  8
1
  6
CONTINUOUS
 62
     7
 10
641.1
 20
108.0
 30
0.0
 11
640.1000000000001
 21
108.0
 31
0.0
  0
LINE
  5
9C
  8
1
  6
CONTINUOUS
 62
     7
 10
630.1000000000001
 20
140.1915559751234
 30
0.0
 11
630.1000000000001
 21
108.0
 31
0.0
  0
LINE
  5
9D
  8
1
  6
CONTINUOUS
 62
     7
 10
630.1000000000001
 20
104.0
 30
0.0
 11
630.1000000000001
 21
71.80844402487655
 31
0.0
  0
LINE
  5
9E
  8
1
  6
CONTINUOUS
 62
     7
 10
631.1
 20
71.80844402487655
 30
0.0
 11
630.1000000000001
 21
71.80844402487655
 31
0.0
  0
LINE
  5
9F
  8
1
  6
CONTINUOUS
 62
     7
 10
651.1
 20
104.0
 30
0.0
 11
651.1
 21
71.80844402487652
 31
0.0
  0
LINE
  5
A0
  8
1
  6
CONTINUOUS
 62
     7
 10
731.1
 20
71.80844402487655
 30
0.0
 11
730.0999999999999
 21
71.80844402487655
 31
0.0
  0
LINE
  5
A1
  8
1
  6
CONTINUOUS
 62
     7
 10
701.1
 20
71.80844402487655
 30
0.0
 11
700.1
 21
71.80844402487655
 31
0.0
  0
LINE
  5
A2
  8
1
  6
CONTINUOUS
 62
     7
 10
660.1
 20
104.0
 30
0.0
 11
660.1
 21
71.80844402487655
 31
0.0
  0
LINE
  5
A3
  8
1
  6
CONTINUOUS
 62
     7
 10
631.1
 20
108.0
 30
0.0
 11
630.1000000000001
 21
108.0
 31
0.0
  0
LINE
  5
A4
  8
1
  6
CONTINUOUS
 62
     7
 10
661.1
 20
140.1915559751235
 30
0.0
 11
661.1
 21
108.0
 31
0.0
  0
LINE
  5
A5
  8
1
  6
CONTINUOUS
 62
     7
 10
721.1
 20
71.80844402487655
 30
0.0
 11
720.0999999999999
 21
71.80844402487655
 31
0.0
  0
LINE
  5
A6
  8
1
  6
CONTINUOUS
 62
     7
 10
720.0999999999999
 20
140.1915559751234
 30
0.0
 11
721.1
 21
140.1915559751234
 31
0.0
  0
LINE
  5
A7
  8
1
  6
CONTINUOUS
 62
     7
 10
730.0999999999999
 20
140.1915559751234
 30
0.0
 11
730.0999999999999
 21
108.0
 31
0.0
  0
LINE
  5
A8
  8
1
  6
CONTINUOUS
 62
     7
 10
720.0999999999999
 20
140.1915559751234
 30
0.0
 11
720.0999999999999
 21
108.0
 31
0.0
  0
LINE
  5
A9
  8
1
  6
CONTINUOUS
 62
     7
 10
650.1000000000001
 20
104.0
 30
0.0
 11
650.1000000000001
 21
71.80844402487655
 31
0.0
  0
LINE
  5
AA
  8
1
  6
CONTINUOUS
 62
     7
 10
660.1
 20
104.0
 30
0.0
 11
661.1
 21
104.0
 31
0.0
  0
LINE
  5
AB
  8
1
  6
CONTINUOUS
 62
     7
 10
721.1
 20
108.0
 30
0.0
 11
720.0999999999999
 21
108.0
 31
0.0
  0
LINE
  5
AC
  8
1
  6
CONTINUOUS
 62
     7
 10
671.1
 20
71.80844402487655
 30
0.0
 11
670.1
 21
71.80844402487655
 31
0.0
  0
LINE
  5
AD
  8
1
  6
CONTINUOUS
 62
     7
 10
640.1000000000001
 20
104.0
 30
0.0
 11
640.1000000000001
 21
71.80844402487655
 31
0.0
  0
LINE
  5
AE
  8
1
  6
CONTINUOUS
 62
     7
 10
631.1
 20
104.0
 30
0.0
 11
631.1
 21
71.80844402487652
 31
0.0
  0
LINE
  5
AF
  8
1
  6
CONTINUOUS
 62
     7
 10
731.1
 20
104.0
 30
0.0
 11
731.1
 21
71.80844402487652
 31
0.0
  0
LINE
  5
B0
  8
1
  6
CONTINUOUS
 62
     7
 10
700.1
 20
140.1915559751234
 30
0.0
 11
701.1
 21
140.1915559751234
 31
0.0
  0
LINE
  5
B1
  8
1
  6
CONTINUOUS
 62
     7
 10
701.1
 20
104.0
 30
0.0
 11
701.1
 21
71.80844402487652
 31
0.0
  0
LINE
  5
B2
  8
1
  6
CONTINUOUS
 62
     7
 10
671.1
 20
140.1915559751235
 30
0.0
 11
671.1
 21
108.0
 31
0.0
  0
LINE
  5
B3
  8
1
  6
CONTINUOUS
 62
     7
 10
640.1000000000001
 20
140.1915559751234
 30
0.0
 11
640.1000000000001
 21
108.0
 31
0.0
  0
LINE
  5
B4
  8
1
  6
CONTINUOUS
 62
     7
 10
730.0999999999999
 20
104.0
 30
0.0
 11
731.1
 21
104.0
 31
0.0
  0
LINE
  5
B5
  8
1
  6
CONTINUOUS
 62
     7
 10
730.0999999999999
 20
104.0
 30
0.0
 11
730.0999999999999
 21
71.80844402487655
 31
0.0
  0
LINE
  5
B6
  8
1
  6
CONTINUOUS
 62
     7
 10
650.1000000000001
 20
104.0
 30
0.0
 11
651.1
 21
104.0
 31
0.0
  0
LINE
  5
B7
  8
1
  6
CONTINUOUS
 62
     7
 10
641.1
 20
71.80844402487655
 30
0.0
 11
640.1000000000001
 21
71.80844402487655
 31
0.0
  0
LINE
  5
B8
  8
1
  6
CONTINUOUS
 62
     7
 10
661.1
 20
71.80844402487655
 30
0.0
 11
660.1
 21
71.80844402487655
 31
0.0
  0
LINE
  5
B9
  8
1
  6
CONTINUOUS
 62
     7
 10
671.1
 20
104.0
 30
0.0
 11
671.1
 21
71.80844402487652
 31
0.0
  0
LINE
  5
BA
  8
1
  6
CONTINUOUS
 62
     7
 10
651.1
 20
71.80844402487655
 30
0.0
 11
650.1000000000001
 21
71.80844402487655
 31
0.0
  0
LINE
  5
BB
  8
1
  6
CONTINUOUS
 62
     7
 10
730.0999999999999
 20
140.1915559751234
 30
0.0
 11
731.1
 21
140.1915559751234
 31
0.0
  0
LINE
  5
BC
  8
1
  6
CONTINUOUS
 62
     7
 10
731.1
 20
108.0
 30
0.0
 11
730.0999999999999
 21
108.0
 31
0.0
  0
LINE
  5
BD
  8
1
  6
CONTINUOUS
 62
     7
 10
701.1
 20
108.0
 30
0.0
 11
700.1
 21
108.0
 31
0.0
  0
LINE
  5
BE
  8
1
  6
CONTINUOUS
 62
     7
 10
720.0999999999999
 20
104.0
 30
0.0
 11
721.1
 21
104.0
 31
0.0
  0
LINE
  5
BF
  8
1
  6
CONTINUOUS
 62
     7
 10
631.1
 20
140.1915559751235
 30
0.0
 11
631.1
 21
108.0
 31
0.0
  0
LINE
  5
C0
  8
1
  6
CONTINUOUS
 62
     7
 10
761.1000000000001
 20
71.80844402487655
 30
0.0
 11
760.1
 21
71.80844402487655
 31
0.0
  0
LINE
  5
C1
  8
1
  6
CONTINUOUS
 62
     7
 10
741.1
 20
104.0
 30
0.0
 11
741.1
 21
71.80844402487652
 31
0.0
  0
LINE
  5
C2
  8
1
  6
CONTINUOUS
 62
     7
 10
750.1
 20
104.0
 30
0.0
 11
751.1000000000001
 21
104.0
 31
0.0
  0
LINE
  5
C3
  8
1
  6
CONTINUOUS
 62
     7
 10
760.1
 20
140.1915559751234
 30
0.0
 11
761.1000000000001
 21
140.1915559751234
 31
0.0
  0
LINE
  5
C4
  8
1
  6
CONTINUOUS
 62
     7
 10
620.5
 20
139.1674588037822
 30
0.0
 11
620.5
 21
108.0
 31
0.0
  0
LINE
  5
C5
  8
1
  6
CONTINUOUS
 62
     7
 10
640.1000000000001
 20
71.80844402487655
 30
0.0
 11
640.5
 21
72.86168292097257
 31
0.0
  0
LINE
  5
C6
  8
1
  6
CONTINUOUS
 62
     7
 10
711.1
 20
71.80844402487655
 30
0.0
 11
710.1
 21
71.80844402487655
 31
0.0
  0
LINE
  5
C7
  8
1
  6
CONTINUOUS
 62
     7
 10
741.1
 20
71.80844402487655
 30
0.0
 11
740.0999999999999
 21
71.80844402487655
 31
0.0
  0
LINE
  5
C8
  8
1
  6
CONTINUOUS
 62
     7
 10
710.1
 20
104.0
 30
0.0
 11
711.1
 21
104.0
 31
0.0
  0
LINE
  5
C9
  8
1
  6
CONTINUOUS
 62
     7
 10
750.1
 20
140.1915559751234
 30
0.0
 11
750.1
 21
108.0
 31
0.0
  0
LINE
  5
CA
  8
1
  6
CONTINUOUS
 62
     7
 10
691.1
 20
140.1915559751235
 30
0.0
 11
691.1
 21
108.0
 31
0.0
  0
LINE
  5
CB
  8
1
  6
CONTINUOUS
 62
     7
 10
751.1000000000001
 20
104.0
 30
0.0
 11
751.1000000000001
 21
71.80844402487652
 31
0.0
  0
LINE
  5
CC
  8
1
  6
CONTINUOUS
 62
     7
 10
660.1
 20
71.80844402487655
 30
0.0
 11
660.5
 21
72.89082473873569
 31
0.0
  0
LINE
  5
CD
  8
1
  6
CONTINUOUS
 62
     7
 10
711.1
 20
108.0
 30
0.0
 11
710.1
 21
108.0
 31
0.0
  0
LINE
  5
CE
  8
1
  6
CONTINUOUS
 62
     7
 10
630.5
 20
139.1528879530156
 30
0.0
 11
630.1000000000001
 21
140.1915559751234
 31
0.0
  0
LINE
  5
CF
  8
1
  6
CONTINUOUS
 62
     7
 10
630.7
 20
139.1525965357635
 30
0.0
 11
630.7
 21
108.0
 31
0.0
  0
LINE
  5
D0
  8
1
  6
CONTINUOUS
 62
     7
 10
670.7
 20
139.0943128983131
 30
0.0
 11
670.7
 21
108.0
 31
0.0
  0
LINE
  5
D1
  8
1
  6
CONTINUOUS
 62
     7
 10
650.7
 20
139.1234547636051
 30
0.0
 11
650.7
 21
108.0
 31
0.0
  0
LINE
  5
D2
  8
1
  6
CONTINUOUS
 62
     7
 10
761.1000000000001
 20
140.1915559751235
 30
0.0
 11
761.1000000000001
 21
108.0
 31
0.0
  0
LINE
  5
D3
  8
1
  6
CONTINUOUS
 62
     7
 10
630.5
 20
139.1528879530155
 30
0.0
 11
630.5
 21
108.0
 31
0.0
  0
LINE
  5
D4
  8
1
  6
CONTINUOUS
 62
     7
 10
640.7
 20
139.1380256613106
 30
0.0
 11
640.7
 21
108.0
 31
0.0
  0
LINE
  5
D5
  8
1
  6
CONTINUOUS
 62
     7
 10
750.1
 20
140.1915559751234
 30
0.0
 11
751.1000000000001
 21
140.1915559751234
 31
0.0
  0
LINE
  5
D6
  8
1
  6
CONTINUOUS
 62
     7
 10
671.1
 20
140.1915559751234
 30
0.0
 11
670.7
 21
139.0943128983131
 31
0.0
  0
LINE
  5
D7
  8
1
  6
CONTINUOUS
 62
     7
 10
660.7
 20
139.1088838426162
 30
0.0
 11
660.7
 21
108.0
 31
0.0
  0
LINE
  5
D8
  8
1
  6
CONTINUOUS
 62
     7
 10
660.5
 20
139.1091752612643
 30
0.0
 11
660.5
 21
108.0
 31
0.0
  0
LINE
  5
D9
  8
1
  6
CONTINUOUS
 62
     7
 10
751.1000000000001
 20
108.0
 30
0.0
 11
750.1
 21
108.0
 31
0.0
  0
LINE
  5
DA
  8
1
  6
CONTINUOUS
 62
     7
 10
641.1
 20
140.1915559751234
 30
0.0
 11
640.7
 21
139.1380256613106
 31
0.0
  0
LINE
  5
DB
  8
1
  6
CONTINUOUS
 62
     7
 10
690.1
 20
104.0
 30
0.0
 11
690.1
 21
71.80844402487655
 31
0.0
  0
LINE
  5
DC
  8
1
  6
CONTINUOUS
 62
     7
 10
710.1
 20
140.1915559751234
 30
0.0
 11
710.1
 21
108.0
 31
0.0
  0
LINE
  5
DD
  8
1
  6
CONTINUOUS
 62
     7
 10
711.1
 20
140.1915559751235
 30
0.0
 11
711.1
 21
108.0
 31
0.0
  0
LINE
  5
DE
  8
1
  6
CONTINUOUS
 62
     7
 10
660.5
 20
139.1091752612643
 30
0.0
 11
660.1
 21
140.1915559751234
 31
0.0
  0
LINE
  5
DF
  8
1
  6
CONTINUOUS
 62
     7
 10
650.5
 20
139.1237461817873
 30
0.0
 11
650.1000000000001
 21
140.1915559751234
 31
0.0
  0
LINE
  5
E0
  8
1
  6
CONTINUOUS
 62
     7
 10
630.1000000000001
 20
71.80844402487655
 30
0.0
 11
630.5
 21
72.84711204698446
 31
0.0
  0
LINE
  5
E1
  8
1
  6
CONTINUOUS
 62
     7
 10
620.5
 20
104.0
 30
0.0
 11
620.5
 21
72.83254119621786
 31
0.0
  0
LINE
  5
E2
  8
1
  6
CONTINUOUS
 62
     7
 10
630.5
 20
104.0
 30
0.0
 11
630.5
 21
72.8471120469845
 31
0.0
  0
LINE
  5
E3
  8
1
  6
CONTINUOUS
 62
     7
 10
631.1
 20
140.1915559751234
 30
0.0
 11
630.7
 21
139.1525965357635
 31
0.0
  0
LINE
  5
E4
  8
1
  6
CONTINUOUS
 62
     7
 10
651.1
 20
140.1915559751234
 30
0.0
 11
650.7
 21
139.1234547636051
 31
0.0
  0
LINE
  5
E5
  8
1
  6
CONTINUOUS
 62
     7
 10
620.1000000000001
 20
71.80844402487655
 30
0.0
 11
620.5
 21
72.83254119621779
 31
0.0
  0
LINE
  5
E6
  8
1
  6
CONTINUOUS
 62
     7
 10
761.1000000000001
 20
104.0
 30
0.0
 11
761.1000000000001
 21
71.80844402487652
 31
0.0
  0
LINE
  5
E7
  8
1
  6
CONTINUOUS
 62
     7
 10
640.5
 20
104.0
 30
0.0
 11
640.5
 21
72.86168292097257
 31
0.0
  0
LINE
  5
E8
  8
1
  6
CONTINUOUS
 62
     7
 10
750.1
 20
104.0
 30
0.0
 11
750.1
 21
71.80844402487655
 31
0.0
  0
LINE
  5
E9
  8
1
  6
CONTINUOUS
 62
     7
 10
710.1
 20
140.1915559751234
 30
0.0
 11
711.1
 21
140.1915559751234
 31
0.0
  0
LINE
  5
EA
  8
1
  6
CONTINUOUS
 62
     7
 10
751.1000000000001
 20
71.80844402487655
 30
0.0
 11
750.1
 21
71.80844402487655
 31
0.0
  0
LINE
  5
EB
  8
1
  6
CONTINUOUS
 62
     7
 10
760.1
 20
104.0
 30
0.0
 11
760.1
 21
71.80844402487655
 31
0.0
  0
LINE
  5
EC
  8
1
  6
CONTINUOUS
 62
     7
 10
620.5
 20
139.1674588037822
 30
0.0
 11
620.1000000000001
 21
140.1915559751234
 31
0.0
  0
LINE
  5
ED
  8
1
  6
CONTINUOUS
 62
     7
 10
660.5
 20
104.0
 30
0.0
 11
660.5
 21
72.89082473873569
 31
0.0
  0
LINE
  5
EE
  8
1
  6
CONTINUOUS
 62
     7
 10
661.1
 20
140.1915559751234
 30
0.0
 11
660.7
 21
139.1088838426162
 31
0.0
  0
LINE
  5
EF
  8
1
  6
CONTINUOUS
 62
     7
 10
740.0999999999999
 20
104.0
 30
0.0
 11
741.1
 21
104.0
 31
0.0
  0
LINE
  5
F0
  8
1
  6
CONTINUOUS
 62
     7
 10
650.5
 20
139.1237461817873
 30
0.0
 11
650.5
 21
108.0
 31
0.0
  0
LINE
  5
F1
  8
1
  6
CONTINUOUS
 62
     7
 10
770.6
 20
140.25
 30
0.0
 11
770.6
 21
71.75000000000001
 31
0.0
  0
LINE
  5
F2
  8
1
  6
CONTINUOUS
 62
     7
 10
741.1
 20
108.0
 30
0.0
 11
740.0999999999999
 21
108.0
 31
0.0
  0
LINE
  5
F3
  8
1
  6
CONTINUOUS
 62
     7
 10
711.1
 20
104.0
 30
0.0
 11
711.1
 21
71.80844402487652
 31
0.0
  0
LINE
  5
F4
  8
1
  6
CONTINUOUS
 62
     7
 10
761.1000000000001
 20
108.0
 30
0.0
 11
760.1
 21
108.0
 31
0.0
  0
LINE
  5
F5
  8
1
  6
CONTINUOUS
 62
     7
 10
740.0999999999999
 20
140.1915559751234
 30
0.0
 11
740.0999999999999
 21
108.0
 31
0.0
  0
LINE
  5
F6
  8
1
  6
CONTINUOUS
 62
     7
 10
691.1
 20
71.80844402487655
 30
0.0
 11
690.1
 21
71.80844402487655
 31
0.0
  0
LINE
  5
F7
  8
1
  6
CONTINUOUS
 62
     7
 10
760.1
 20
140.1915559751234
 30
0.0
 11
760.1
 21
108.0
 31
0.0
  0
LINE
  5
F8
  8
1
  6
CONTINUOUS
 62
     7
 10
691.1
 20
104.0
 30
0.0
 11
691.1
 21
71.80844402487652
 31
0.0
  0
LINE
  5
F9
  8
1
  6
CONTINUOUS
 62
     7
 10
740.0999999999999
 20
140.1915559751234
 30
0.0
 11
741.1
 21
140.1915559751234
 31
0.0
  0
LINE
  5
FA
  8
1
  6
CONTINUOUS
 62
     7
 10
741.1
 20
140.1915559751235
 30
0.0
 11
741.1
 21
108.0
 31
0.0
  0
LINE
  5
FB
  8
1
  6
CONTINUOUS
 62
     7
 10
751.1000000000001
 20
140.1915559751235
 30
0.0
 11
751.1000000000001
 21
108.0
 31
0.0
  0
LINE
  5
FC
  8
1
  6
CONTINUOUS
 62
     7
 10
740.0999999999999
 20
104.0
 30
0.0
 11
740.0999999999999
 21
71.80844402487655
 31
0.0
  0
LINE
  5
FD
  8
1
  6
CONTINUOUS
 62
     7
 10
690.1
 20
104.0
 30
0.0
 11
691.1
 21
104.0
 31
0.0
  0
LINE
  5
FE
  8
1
  6
CONTINUOUS
 62
     7
 10
710.1
 20
104.0
 30
0.0
 11
710.1
 21
71.80844402487655
 31
0.0
  0
LINE
  5
FF
  8
1
  6
CONTINUOUS
 62
     7
 10
760.1
 20
104.0
 30
0.0
 11
761.1000000000001
 21
104.0
 31
0.0
  0
LINE
  5
100
  8
1
  6
CONTINUOUS
 62
     7
 10
720.7
 20
139.0214578260057
 30
0.0
 11
720.7
 21
108.0
 31
0.0
  0
LINE
  5
101
  8
1
  6
CONTINUOUS
 62
     7
 10
650.1000000000001
 20
71.80844402487655
 30
0.0
 11
650.5
 21
72.87625381821275
 31
0.0
  0
LINE
  5
102
  8
1
  6
CONTINUOUS
 62
     7
 10
690.5
 20
139.0654623596911
 30
0.0
 11
690.1
 21
140.1915559751234
 31
0.0
  0
LINE
  5
103
  8
1
  6
CONTINUOUS
 62
     7
 10
730.5
 20
139.0071781630962
 30
0.0
 11
730.0999999999999
 21
140.1915559751234
 31
0.0
  0
LINE
  5
104
  8
1
  6
CONTINUOUS
 62
     7
 10
731.1
 20
140.1915559751234
 30
0.0
 11
730.7
 21
139.006886741169
 31
0.0
  0
LINE
  5
105
  8
1
  6
CONTINUOUS
 62
     7
 10
630.7
 20
72.84740346423658
 30
0.0
 11
631.1
 21
71.80844402487655
 31
0.0
  0
LINE
  5
106
  8
1
  6
CONTINUOUS
 62
     7
 10
630.7
 20
104.0
 30
0.0
 11
630.7
 21
72.84740346423654
 31
0.0
  0
LINE
  5
107
  8
1
  6
CONTINUOUS
 62
     7
 10
680.5
 20
139.0800333502471
 30
0.0
 11
680.1
 21
140.1915559751234
 31
0.0
  0
LINE
  5
108
  8
1
  6
CONTINUOUS
 62
     7
 10
750.7
 20
138.9777445008715
 30
0.0
 11
750.7
 21
108.0
 31
0.0
  0
LINE
  5
109
  8
1
  6
CONTINUOUS
 62
     7
 10
751.1000000000001
 20
140.1915559751234
 30
0.0
 11
750.7
 21
138.9777445008715
 31
0.0
  0
LINE
  5
10A
  8
1
  6
CONTINUOUS
 62
     7
 10
720.5
 20
104.0
 30
0.0
 11
720.5
 21
72.97825075253742
 31
0.0
  0
LINE
  5
10B
  8
1
  6
CONTINUOUS
 62
     7
 10
701.1
 20
140.1915559751234
 30
0.0
 11
700.7
 21
139.0505999252108
 31
0.0
  0
LINE
  5
10C
  8
1
  6
CONTINUOUS
 62
     7
 10
680.5
 20
104.0
 30
0.0
 11
680.5
 21
72.91996664975298
 31
0.0
  0
LINE
  5
10D
  8
1
  6
CONTINUOUS
 62
     7
 10
760.7
 20
138.9631733453483
 30
0.0
 11
760.7
 21
108.0
 31
0.0
  0
LINE
  5
10E
  8
1
  6
CONTINUOUS
 62
     7
 10
761.1000000000001
 20
140.1915559751234
 30
0.0
 11
760.7
 21
138.9631733453483
 31
0.0
  0
LINE
  5
10F
  8
1
  6
CONTINUOUS
 62
     7
 10
710.7
 20
139.0360288873426
 30
0.0
 11
710.7
 21
108.0
 31
0.0
  0
LINE
  5
110
  8
1
  6
CONTINUOUS
 62
     7
 10
720.0999999999999
 20
71.80844402487655
 30
0.0
 11
720.5
 21
72.97825075253739
 31
0.0
  0
LINE
  5
111
  8
1
  6
CONTINUOUS
 62
     7
 10
720.5
 20
139.0217492474626
 30
0.0
 11
720.5
 21
108.0
 31
0.0
  0
LINE
  5
112
  8
1
  6
CONTINUOUS
 62
     7
 10
700.1
 20
71.80844402487655
 30
0.0
 11
700.5
 21
72.94910865427099
 31
0.0
  0
LINE
  5
113
  8
1
  6
CONTINUOUS
 62
     7
 10
640.7
 20
72.86197433868941
 30
0.0
 11
641.1
 21
71.80844402487655
 31
0.0
  0
LINE
  5
114
  8
1
  6
CONTINUOUS
 62
     7
 10
670.7
 20
104.0
 30
0.0
 11
670.7
 21
72.90568710168691
 31
0.0
  0
LINE
  5
115
  8
1
  6
CONTINUOUS
 62
     7
 10
730.5
 20
104.0
 30
0.0
 11
730.5
 21
72.99282183690379
 31
0.0
  0
LINE
  5
116
  8
1
  6
CONTINUOUS
 62
     7
 10
700.7
 20
139.0505999252108
 30
0.0
 11
700.7
 21
108.0
 31
0.0
  0
LINE
  5
117
  8
1
  6
CONTINUOUS
 62
     7
 10
680.7
 20
139.0797419306651
 30
0.0
 11
680.7
 21
108.0
 31
0.0
  0
LINE
  5
118
  8
1
  6
CONTINUOUS
 62
     7
 10
700.5
 20
104.0
 30
0.0
 11
700.5
 21
72.94910865427099
 31
0.0
  0
LINE
  5
119
  8
1
  6
CONTINUOUS
 62
     7
 10
640.7
 20
104.0
 30
0.0
 11
640.7
 21
72.86197433868944
 31
0.0
  0
LINE
  5
11A
  8
1
  6
CONTINUOUS
 62
     7
 10
720.5
 20
139.0217492474626
 30
0.0
 11
720.0999999999999
 21
140.1915559751234
 31
0.0
  0
LINE
  5
11B
  8
1
  6
CONTINUOUS
 62
     7
 10
640.5
 20
139.1383170790275
 30
0.0
 11
640.1000000000001
 21
140.1915559751234
 31
0.0
  0
LINE
  5
11C
  8
1
  6
CONTINUOUS
 62
     7
 10
650.5
 20
104.0
 30
0.0
 11
650.5
 21
72.87625381821277
 31
0.0
  0
LINE
  5
11D
  8
1
  6
CONTINUOUS
 62
     7
 10
710.5
 20
139.0363203083299
 30
0.0
 11
710.1
 21
140.1915559751234
 31
0.0
  0
LINE
  5
11E
  8
1
  6
CONTINUOUS
 62
     7
 10
680.5
 20
139.080033350247
 30
0.0
 11
680.5
 21
108.0
 31
0.0
  0
LINE
  5
11F
  8
1
  6
CONTINUOUS
 62
     7
 10
621.1
 20
140.1915559751234
 30
0.0
 11
620.7
 21
139.1671673869943
 31
0.0
  0
LINE
  5
120
  8
1
  6
CONTINUOUS
 62
     7
 10
690.5
 20
139.0654623596911
 30
0.0
 11
690.5
 21
108.0
 31
0.0
  0
LINE
  5
121
  8
1
  6
CONTINUOUS
 62
     7
 10
660.7
 20
72.89111615738383
 30
0.0
 11
661.1
 21
71.80844402487655
 31
0.0
  0
LINE
  5
122
  8
1
  6
CONTINUOUS
 62
     7
 10
691.1
 20
140.1915559751234
 30
0.0
 11
690.7
 21
139.0651709396413
 31
0.0
  0
LINE
  5
123
  8
1
  6
CONTINUOUS
 62
     7
 10
680.1
 20
71.80844402487655
 30
0.0
 11
680.5
 21
72.91996664975294
 31
0.0
  0
LINE
  5
124
  8
1
  6
CONTINUOUS
 62
     7
 10
690.5
 20
104.0
 30
0.0
 11
690.5
 21
72.93453764030893
 31
0.0
  0
LINE
  5
125
  8
1
  6
CONTINUOUS
 62
     7
 10
730.0999999999999
 20
71.80844402487655
 30
0.0
 11
730.5
 21
72.99282183690381
 31
0.0
  0
LINE
  5
126
  8
1
  6
CONTINUOUS
 62
     7
 10
721.1
 20
140.1915559751234
 30
0.0
 11
720.7
 21
139.0214578260057
 31
0.0
  0
LINE
  5
127
  8
1
  6
CONTINUOUS
 62
     7
 10
700.5
 20
139.050891345729
 30
0.0
 11
700.1
 21
140.1915559751234
 31
0.0
  0
LINE
  5
128
  8
1
  6
CONTINUOUS
 62
     7
 10
650.7
 20
72.87654523639495
 30
0.0
 11
651.1
 21
71.80844402487655
 31
0.0
  0
LINE
  5
129
  8
1
  6
CONTINUOUS
 62
     7
 10
640.5
 20
139.1383170790275
 30
0.0
 11
640.5
 21
108.0
 31
0.0
  0
LINE
  5
12A
  8
1
  6
CONTINUOUS
 62
     7
 10
670.1
 20
71.80844402487655
 30
0.0
 11
670.5000000000001
 21
72.90539568257215
 31
0.0
  0
LINE
  5
12B
  8
1
  6
CONTINUOUS
 62
     7
 10
710.1
 20
71.80844402487655
 30
0.0
 11
710.5
 21
72.96367969167014
 31
0.0
  0
LINE
  5
12C
  8
1
  6
CONTINUOUS
 62
     7
 10
710.5
 20
139.0363203083299
 30
0.0
 11
710.5
 21
108.0
 31
0.0
  0
LINE
  5
12D
  8
1
  6
CONTINUOUS
 62
     7
 10
650.7
 20
104.0
 30
0.0
 11
650.7
 21
72.87654523639496
 31
0.0
  0
LINE
  5
12E
  8
1
  6
CONTINUOUS
 62
     7
 10
660.7
 20
104.0
 30
0.0
 11
660.7
 21
72.89111615738386
 31
0.0
  0
LINE
  5
12F
  8
1
  6
CONTINUOUS
 62
     7
 10
740.5
 20
138.9926070551994
 30
0.0
 11
740.5
 21
108.0
 31
0.0
  0
LINE
  5
130
  8
1
  6
CONTINUOUS
 62
     7
 10
740.5
 20
138.9926070551994
 30
0.0
 11
740.0999999999999
 21
140.1915559751234
 31
0.0
  0
LINE
  5
131
  8
1
  6
CONTINUOUS
 62
     7
 10
620.7
 20
139.1671673869942
 30
0.0
 11
620.7
 21
108.0
 31
0.0
  0
LINE
  5
132
  8
1
  6
CONTINUOUS
 62
     7
 10
670.5000000000001
 20
139.0946043174278
 30
0.0
 11
670.5000000000001
 21
108.0
 31
0.0
  0
LINE
  5
133
  8
1
  6
CONTINUOUS
 62
     7
 10
690.7
 20
139.0651709396413
 30
0.0
 11
690.7
 21
108.0
 31
0.0
  0
LINE
  5
134
  8
1
  6
CONTINUOUS
 62
     7
 10
710.5
 20
104.0
 30
0.0
 11
710.5
 21
72.96367969167015
 31
0.0
  0
LINE
  5
135
  8
1
  6
CONTINUOUS
 62
     7
 10
711.1
 20
140.1915559751234
 30
0.0
 11
710.7
 21
139.0360288873426
 31
0.0
  0
LINE
  5
136
  8
1
  6
CONTINUOUS
 62
     7
 10
750.5
 20
104.0
 30
0.0
 11
750.5
 21
73.02196407625888
 31
0.0
  0
LINE
  5
137
  8
1
  6
CONTINUOUS
 62
     7
 10
690.1
 20
71.80844402487655
 30
0.0
 11
690.5
 21
72.9345376403089
 31
0.0
  0
LINE
  5
138
  8
1
  6
CONTINUOUS
 62
     7
 10
670.5000000000001
 20
139.0946043174279
 30
0.0
 11
670.1
 21
140.1915559751234
 31
0.0
  0
LINE
  5
139
  8
1
  6
CONTINUOUS
 62
     7
 10
700.5
 20
139.050891345729
 30
0.0
 11
700.5
 21
108.0
 31
0.0
  0
LINE
  5
13A
  8
1
  6
CONTINUOUS
 62
     7
 10
730.7
 20
139.006886741169
 30
0.0
 11
730.7
 21
108.0
 31
0.0
  0
LINE
  5
13B
  8
1
  6
CONTINUOUS
 62
     7
 10
670.7
 20
72.90568710168691
 30
0.0
 11
671.1
 21
71.80844402487655
 31
0.0
  0
LINE
  5
13C
  8
1
  6
CONTINUOUS
 62
     7
 10
750.1
 20
71.80844402487655
 30
0.0
 11
750.5
 21
73.02196407625883
 31
0.0
  0
LINE
  5
13D
  8
1
  6
CONTINUOUS
 62
     7
 10
730.5
 20
139.0071781630962
 30
0.0
 11
730.5
 21
108.0
 31
0.0
  0
LINE
  5
13E
  8
1
  6
CONTINUOUS
 62
     7
 10
670.5000000000001
 20
104.0
 30
0.0
 11
670.5000000000001
 21
72.9053956825722
 31
0.0
  0
LINE
  5
13F
  8
1
  6
CONTINUOUS
 62
     7
 10
681.1
 20
140.1915559751234
 30
0.0
 11
680.7
 21
139.0797419306651
 31
0.0
  0
LINE
  5
140
  8
1
  6
CONTINUOUS
 62
     7
 10
720.7
 20
72.97854217399433
 30
0.0
 11
721.1
 21
71.80844402487655
 31
0.0
  0
LINE
  5
141
  8
1
  6
CONTINUOUS
 62
     7
 10
620.5
 20
72.83254119621779
 30
0.0
 11
620.7
 21
72.83283261300575
 31
0.0
  0
LINE
  5
142
  8
1
  6
CONTINUOUS
 62
     7
 10
620.7
 20
139.1671673869943
 30
0.0
 11
620.5
 21
139.1674588037822
 31
0.0
  0
LINE
  5
143
  8
1
  6
CONTINUOUS
 62
     7
 10
630.5
 20
72.84711204698446
 30
0.0
 11
630.7
 21
72.84740346423658
 31
0.0
  0
LINE
  5
144
  8
1
  6
CONTINUOUS
 62
     7
 10
750.7
 20
104.0
 30
0.0
 11
750.7
 21
73.02225549912852
 31
0.0
  0
LINE
  5
145
  8
1
  6
CONTINUOUS
 62
     7
 10
690.7
 20
72.93482906035867
 30
0.0
 11
691.1
 21
71.80844402487655
 31
0.0
  0
LINE
  5
146
  8
1
  6
CONTINUOUS
 62
     7
 10
750.7
 20
73.02225549912852
 30
0.0
 11
751.1000000000001
 21
71.80844402487655
 31
0.0
  0
LINE
  5
147
  8
1
  6
CONTINUOUS
 62
     7
 10
630.7
 20
139.1525965357635
 30
0.0
 11
630.5
 21
139.1528879530156
 31
0.0
  0
LINE
  5
148
  8
1
  6
CONTINUOUS
 62
     7
 10
741.1
 20
140.1915559751234
 30
0.0
 11
740.7
 21
138.9923156328013
 31
0.0
  0
LINE
  5
149
  8
1
  6
CONTINUOUS
 62
     7
 10
760.1
 20
71.80844402487655
 30
0.0
 11
760.5
 21
73.03653523130981
 31
0.0
  0
LINE
  5
14A
  8
1
  6
CONTINUOUS
 62
     7
 10
740.0999999999999
 20
71.80844402487655
 30
0.0
 11
740.5
 21
73.00739294480057
 31
0.0
  0
LINE
  5
14B
  8
1
  6
CONTINUOUS
 62
     7
 10
620.7
 20
104.0
 30
0.0
 11
620.7
 21
72.83283261300578
 31
0.0
  0
LINE
  5
14C
  8
1
  6
CONTINUOUS
 62
     7
 10
760.5
 20
104.0
 30
0.0
 11
760.5
 21
73.03653523130978
 31
0.0
  0
LINE
  5
14D
  8
1
  6
CONTINUOUS
 62
     7
 10
720.7
 20
104.0
 30
0.0
 11
720.7
 21
72.97854217399436
 31
0.0
  0
LINE
  5
14E
  8
1
  6
CONTINUOUS
 62
     7
 10
710.7
 20
72.9639711126574
 30
0.0
 11
711.1
 21
71.80844402487655
 31
0.0
  0
LINE
  5
14F
  8
1
  6
CONTINUOUS
 62
     7
 10
710.7
 20
104.0
 30
0.0
 11
710.7
 21
72.9639711126574
 31
0.0
  0
LINE
  5
150
  8
1
  6
CONTINUOUS
 62
     7
 10
620.7
 20
72.83283261300575
 30
0.0
 11
621.1
 21
71.80844402487655
 31
0.0
  0
LINE
  5
151
  8
1
  6
CONTINUOUS
 62
     7
 10
700.7
 20
104.0
 30
0.0
 11
700.7
 21
72.94940007478921
 31
0.0
  0
LINE
  5
152
  8
1
  6
CONTINUOUS
 62
     7
 10
680.7
 20
72.92025806933489
 30
0.0
 11
681.1
 21
71.80844402487655
 31
0.0
  0
LINE
  5
153
  8
1
  6
CONTINUOUS
 62
     7
 10
730.7
 20
72.99311325883106
 30
0.0
 11
731.1
 21
71.80844402487655
 31
0.0
  0
LINE
  5
154
  8
1
  6
CONTINUOUS
 62
     7
 10
640.7
 20
139.1380256613106
 30
0.0
 11
640.5
 21
139.1383170790275
 31
0.0
  0
LINE
  5
155
  8
1
  6
CONTINUOUS
 62
     7
 10
760.7
 20
104.0
 30
0.0
 11
760.7
 21
73.03682665465175
 31
0.0
  0
LINE
  5
156
  8
1
  6
CONTINUOUS
 62
     7
 10
750.5
 20
138.9780359237412
 30
0.0
 11
750.1
 21
140.1915559751234
 31
0.0
  0
LINE
  5
157
  8
1
  6
CONTINUOUS
 62
     7
 10
700.7
 20
72.94940007478917
 30
0.0
 11
701.1
 21
71.80844402487655
 31
0.0
  0
LINE
  5
158
  8
1
  6
CONTINUOUS
 62
     7
 10
680.7
 20
104.0
 30
0.0
 11
680.7
 21
72.9202580693349
 31
0.0
  0
LINE
  5
159
  8
1
  6
CONTINUOUS
 62
     7
 10
740.7
 20
73.00768436719875
 30
0.0
 11
741.1
 21
71.80844402487655
 31
0.0
  0
LINE
  5
15A
  8
1
  6
CONTINUOUS
 62
     7
 10
760.5
 20
138.9634647686902
 30
0.0
 11
760.5
 21
108.0
 31
0.0
  0
LINE
  5
15B
  8
1
  6
CONTINUOUS
 62
     7
 10
760.5
 20
138.9634647686902
 30
0.0
 11
760.1
 21
140.1915559751234
 31
0.0
  0
LINE
  5
15C
  8
1
  6
CONTINUOUS
 62
     7
 10
740.7
 20
138.9923156328012
 30
0.0
 11
740.7
 21
108.0
 31
0.0
  0
LINE
  5
15D
  8
1
  6
CONTINUOUS
 62
     7
 10
750.5
 20
138.9780359237411
 30
0.0
 11
750.5
 21
108.0
 31
0.0
  0
LINE
  5
15E
  8
1
  6
CONTINUOUS
 62
     7
 10
740.5
 20
104.0
 30
0.0
 11
740.5
 21
73.00739294480057
 31
0.0
  0
LINE
  5
15F
  8
1
  6
CONTINUOUS
 62
     7
 10
690.7
 20
104.0
 30
0.0
 11
690.7
 21
72.93482906035872
 31
0.0
  0
LINE
  5
160
  8
1
  6
CONTINUOUS
 62
     7
 10
760.7
 20
73.03682665465172
 30
0.0
 11
761.1000000000001
 21
71.80844402487655
 31
0.0
  0
LINE
  5
161
  8
1
  6
CONTINUOUS
 62
     7
 10
730.7
 20
104.0
 30
0.0
 11
730.7
 21
72.99311325883109
 31
0.0
  0
LINE
  5
162
  8
1
  6
CONTINUOUS
 62
     7
 10
740.7
 20
104.0
 30
0.0
 11
740.7
 21
73.00768436719879
 31
0.0
  0
LINE
  5
163
  8
1
  6
CONTINUOUS
 62
     7
 10
678.7293063655483
 20
71.89249700074782
 30
0.0
 11
678.73821994119
 21
71.89182049815906
 31
0.0
  0
LINE
  5
164
  8
1
  6
CONTINUOUS
 62
     7
 10
758.729306365728
 20
71.89249700058849
 30
0.0
 11
758.7382199411225
 21
71.89182049800594
 31
0.0
  0
LINE
  5
165
  8
1
  6
CONTINUOUS
 62
     7
 10
738.7293063655507
 20
71.89249700074575
 30
0.0
 11
738.7382199411956
 21
71.89182049815656
 31
0.0
  0
LINE
  5
166
  8
1
  6
CONTINUOUS
 62
     7
 10
692.4749421551206
 20
140.0661898912838
 30
0.0
 11
692.4634289066088
 21
140.1151245694924
 31
0.0
  0
LINE
  5
167
  8
1
  6
CONTINUOUS
 62
     7
 10
662.4749421551357
 20
140.0661898912781
 30
0.0
 11
662.4634288565765
 21
140.1151246210937
 31
0.0
  0
LINE
  5
168
  8
1
  6
CONTINUOUS
 62
     7
 10
732.4749421551245
 20
140.0661898912823
 30
0.0
 11
732.4634288937422
 21
140.1151245827625
 31
0.0
  0
LINE
  5
169
  8
1
  6
CONTINUOUS
 62
     7
 10
768.7293063655738
 20
71.89249700072511
 30
0.0
 11
768.7382190390529
 21
71.89182056660486
 31
0.0
  0
LINE
  5
16A
  8
1
  6
CONTINUOUS
 62
     7
 10
672.4749421551182
 20
140.0661898912846
 30
0.0
 11
672.4634289142078
 21
140.1151245616551
 31
0.0
  0
LINE
  5
16B
  8
1
  6
CONTINUOUS
 62
     7
 10
668.7293063657639
 20
71.89249700055665
 30
0.0
 11
668.7382199413088
 21
71.89182049796018
 31
0.0
  0
LINE
  5
16C
  8
1
  6
CONTINUOUS
 62
     7
 10
658.7293063655165
 20
71.89249700077599
 30
0.0
 11
658.7382199411115
 21
71.89182049819297
 31
0.0
  0
LINE
  5
16D
  8
1
  6
CONTINUOUS
 62
     7
 10
742.4749421551245
 20
140.0661898912823
 30
0.0
 11
742.4634288937773
 21
140.1151245827265
 31
0.0
  0
LINE
  5
16E
  8
1
  6
CONTINUOUS
 62
     7
 10
752.4749421551203
 20
140.0661898912838
 30
0.0
 11
752.463428907067
 21
140.1151245690198
 31
0.0
  0
LINE
  5
16F
  8
1
  6
CONTINUOUS
 62
     7
 10
728.7293063656392
 20
71.89249700066716
 30
0.0
 11
728.7382199411245
 21
71.8918204980839
 31
0.0
  0
LINE
  5
170
  8
1
  6
CONTINUOUS
 62
     7
 10
718.7293063656757
 20
71.89249700063478
 30
0.0
 11
718.7382199411023
 21
71.89182049805342
 31
0.0
  0
LINE
  5
171
  8
1
  6
CONTINUOUS
 62
     7
 10
698.7293063656399
 20
71.89249700066664
 30
0.0
 11
698.7382199412075
 21
71.8918204980771
 31
0.0
  0
LINE
  5
172
  8
1
  6
CONTINUOUS
 62
     7
 10
642.4749421551179
 20
140.0661898912847
 30
0.0
 11
642.4634289150673
 21
140.1151245607686
 31
0.0
  0
LINE
  5
173
  8
1
  6
CONTINUOUS
 62
     7
 10
648.7293063655783
 20
71.89249700072118
 30
0.0
 11
648.7382199412554
 21
71.89182049812761
 31
0.0
  0
LINE
  5
174
  8
1
  6
CONTINUOUS
 62
     7
 10
762.4749419771662
 20
140.0661906475284
 30
0.0
 11
762.4634290071667
 21
140.1151244657811
 31
0.0
  0
LINE
  5
175
  8
1
  6
CONTINUOUS
 62
     7
 10
688.729306365757
 20
71.89249700056278
 30
0.0
 11
688.7382199412856
 21
71.89182049796806
 31
0.0
  0
LINE
  5
176
  8
1
  6
CONTINUOUS
 62
     7
 10
708.7293063656056
 20
71.89249700069702
 30
0.0
 11
708.7382199413802
 21
71.89182049809416
 31
0.0
  0
LINE
  5
177
  8
1
  6
CONTINUOUS
 62
     7
 10
652.4749421551015
 20
140.0661898912907
 30
0.0
 11
652.4634289686169
 21
140.1151245055399
 31
0.0
  0
LINE
  5
178
  8
1
  6
CONTINUOUS
 62
     7
 10
632.4749421551213
 20
140.0661898912835
 30
0.0
 11
632.4634289040597
 21
140.1151245721215
 31
0.0
  0
LINE
  5
179
  8
1
  6
CONTINUOUS
 62
     7
 10
638.7293063656067
 20
71.89249700069595
 30
0.0
 11
638.7382199411933
 21
71.89182049810728
 31
0.0
  0
LINE
  5
17A
  8
1
  6
CONTINUOUS
 62
     7
 10
628.7293063655703
 20
71.89249700072828
 30
0.0
 11
628.7382199411911
 21
71.89182049813954
 31
0.0
  0
LINE
  5
17B
  8
1
  6
CONTINUOUS
 62
     7
 10
520.7025787742024
 20
138.2456367322449
 30
0.0
 11
520.6
 21
150.0
 31
0.0
  0
LINE
  5
17C
  8
1
  6
CONTINUOUS
 62
     7
 10
722.474942155119
 20
140.0661898912843
 30
0.0
 11
722.4634289115286
 21
140.1151245644183
 31
0.0
  0
LINE
  5
17D
  8
1
  6
CONTINUOUS
 62
     7
 10
682.4749421551397
 20
140.0661898912767
 30
0.0
 11
682.4634288440062
 21
140.1151246340582
 31
0.0
  0
LINE
  5
17E
  8
1
  6
CONTINUOUS
 62
     7
 10
622.4749421551229
 20
140.0661898912828
 30
0.0
 11
622.4634288987577
 21
140.1151245775897
 31
0.0
  0
LINE
  5
17F
  8
1
  6
CONTINUOUS
 62
     7
 10
748.7293063656756
 20
71.89249700063495
 30
0.0
 11
748.7382199411242
 21
71.89182049805194
 31
0.0
  0
LINE
  5
180
  8
1
  6
CONTINUOUS
 62
     7
 10
702.4749421551073
 20
140.0661898912887
 30
0.0
 11
702.4634289502142
 21
140.1151245245196
 31
0.0
  0
LINE
  5
181
  8
1
  6
CONTINUOUS
 62
     7
 10
712.4749421551036
 20
140.0661898912901
 30
0.0
 11
712.4634289624939
 21
140.1151245118548
 31
0.0
  0
LINE
  5
182
  8
1
  6
CONTINUOUS
 62
     7
 10
672.8152809775612
 20
140.1217844557836
 30
0.0
 11
678.7948026191173
 21
71.74992625590089
 31
0.0
  0
LINE
  5
183
  8
1
  6
CONTINUOUS
 62
     7
 10
702.8152809775611
 20
140.1217844557837
 30
0.0
 11
708.7948026191189
 21
71.74992625590102
 31
0.0
  0
LINE
  5
184
  8
1
  6
CONTINUOUS
 62
     7
 10
662.8152809775611
 20
140.1217844557836
 30
0.0
 11
668.7948026191185
 21
71.74992625590096
 31
0.0
  0
LINE
  5
185
  8
1
  6
CONTINUOUS
 62
     7
 10
678.396361921499
 20
71.76035804348314
 30
0.0
 11
672.4050131177142
 21
140.250131203317
 31
0.0
  0
LINE
  5
186
  8
1
  6
CONTINUOUS
 62
     7
 10
668.396361921499
 20
71.76035804348315
 30
0.0
 11
662.4050131177142
 21
140.2501312033171
 31
0.0
  0
LINE
  5
187
  8
1
  6
CONTINUOUS
 62
     7
 10
752.815280977561
 20
140.1217844557837
 30
0.0
 11
758.7948026191169
 21
71.74992625590089
 31
0.0
  0
LINE
  5
188
  8
1
  6
CONTINUOUS
 62
     7
 10
742.8152809775611
 20
140.1217844557837
 30
0.0
 11
748.7948026191168
 21
71.74992625590083
 31
0.0
  0
LINE
  5
189
  8
1
  6
CONTINUOUS
 62
     7
 10
768.3963619214968
 20
71.76035804350616
 30
0.0
 11
762.4050131041155
 21
140.2501312021278
 31
0.0
  0
LINE
  5
18A
  8
1
  6
CONTINUOUS
 62
     7
 10
698.3963619214989
 20
71.76035804348307
 30
0.0
 11
692.4050131177142
 21
140.250131203317
 31
0.0
  0
LINE
  5
18B
  8
1
  6
CONTINUOUS
 62
     7
 10
728.396361921499
 20
71.76035804348302
 30
0.0
 11
722.4050131177144
 21
140.2501312033171
 31
0.0
  0
LINE
  5
18C
  8
1
  6
CONTINUOUS
 62
     7
 10
738.396361921499
 20
71.76035804348315
 30
0.0
 11
732.4050131177144
 21
140.2501312033171
 31
0.0
  0
LINE
  5
18D
  8
1
  6
CONTINUOUS
 62
     7
 10
632.8152809775611
 20
140.1217844557837
 30
0.0
 11
638.7948026191175
 21
71.74992625590087
 31
0.0
  0
LINE
  5
18E
  8
1
  6
CONTINUOUS
 62
     7
 10
712.8152809775611
 20
140.1217844557837
 30
0.0
 11
718.7948026191168
 21
71.74992625590082
 31
0.0
  0
LINE
  5
18F
  8
1
  6
CONTINUOUS
 62
     7
 10
652.8152809775611
 20
140.1217844557836
 30
0.0
 11
658.7948026191168
 21
71.7499262559008
 31
0.0
  0
LINE
  5
190
  8
1
  6
CONTINUOUS
 62
     7
 10
748.396361921499
 20
71.76035804348312
 30
0.0
 11
742.4050131177144
 21
140.250131203317
 31
0.0
  0
LINE
  5
191
  8
1
  6
CONTINUOUS
 62
     7
 10
628.396361921499
 20
71.76035804348307
 30
0.0
 11
622.4050131177142
 21
140.2501312033171
 31
0.0
  0
LINE
  5
192
  8
1
  6
CONTINUOUS
 62
     7
 10
762.815281071678
 20
140.1217834248432
 30
0.0
 11
768.7947228076932
 21
71.74991927700758
 31
0.0
  0
LINE
  5
193
  8
1
  6
CONTINUOUS
 62
     7
 10
520.1
 20
142.0
 30
0.0
 11
520.6747071876596
 21
141.4252928123405
 31
0.0
  0
LINE
  5
194
  8
1
  6
CONTINUOUS
 62
     7
 10
692.8152809775611
 20
140.1217844557836
 30
0.0
 11
698.7948026191175
 21
71.7499262559009
 31
0.0
  0
LINE
  5
195
  8
1
  6
CONTINUOUS
 62
     7
 10
722.8152809775611
 20
140.1217844557837
 30
0.0
 11
728.7948026191169
 21
71.74992625590082
 31
0.0
  0
LINE
  5
196
  8
1
  6
CONTINUOUS
 62
     7
 10
682.8152809775611
 20
140.1217844557837
 30
0.0
 11
688.7948026191183
 21
71.74992625590095
 31
0.0
  0
LINE
  5
197
  8
1
  6
CONTINUOUS
 62
     7
 10
658.396361921499
 20
71.7603580434831
 30
0.0
 11
652.4050131177142
 21
140.2501312033171
 31
0.0
  0
LINE
  5
198
  8
1
  6
CONTINUOUS
 62
     7
 10
648.396361921499
 20
71.7603580434831
 30
0.0
 11
642.4050131177142
 21
140.2501312033171
 31
0.0
  0
LINE
  5
199
  8
1
  6
CONTINUOUS
 62
     7
 10
622.8152809775611
 20
140.1217844557837
 30
0.0
 11
628.7948026191174
 21
71.74992625590089
 31
0.0
  0
LINE
  5
19A
  8
1
  6
CONTINUOUS
 62
     7
 10
708.3963619214989
 20
71.76035804348308
 30
0.0
 11
702.4050131177142
 21
140.250131203317
 31
0.0
  0
LINE
  5
19B
  8
1
  6
CONTINUOUS
 62
     7
 10
688.396361921499
 20
71.76035804348308
 30
0.0
 11
682.4050131177142
 21
140.2501312033171
 31
0.0
  0
LINE
  5
19C
  8
1
  6
CONTINUOUS
 62
     7
 10
732.815280977561
 20
140.1217844557836
 30
0.0
 11
738.7948026191175
 21
71.74992625590092
 31
0.0
  0
LINE
  5
19D
  8
1
  6
CONTINUOUS
 62
     7
 10
638.396361921499
 20
71.76035804348311
 30
0.0
 11
632.4050131177142
 21
140.2501312033171
 31
0.0
  0
LINE
  5
19E
  8
1
  6
CONTINUOUS
 62
     7
 10
642.8152809775611
 20
140.1217844557837
 30
0.0
 11
648.794802619118
 21
71.74992625590095
 31
0.0
  0
LINE
  5
19F
  8
1
  6
CONTINUOUS
 62
     7
 10
718.3963619214989
 20
71.7603580434831
 30
0.0
 11
712.4050131177142
 21
140.2501312033171
 31
0.0
  0
LINE
  5
1A0
  8
1
  6
CONTINUOUS
 62
     7
 10
520.6
 20
141.5
 30
0.0
 11
520.6
 21
70.0
 31
0.0
  0
LINE
  5
1A1
  8
1
  6
CONTINUOUS
 62
     7
 10
758.396361921499
 20
71.76035804348315
 30
0.0
 11
752.4050131177142
 21
140.250131203317
 31
0.0
  0
LINE
  5
1A2
  8
1
  6
CONTINUOUS
 62
     7
 10
519.4000000000001
 20
70.0
 30
0.0
 11
519.4000000000001
 21
150.0
 31
0.0
  0
LINE
  5
1A3
  8
1
  6
CONTINUOUS
 62
     7
 10
698.3973273291164
 20
71.75000000000003
 30
0.0
 11
698.3963619214989
 21
71.76035804348307
 31
0.0
  0
LINE
  5
1A4
  8
1
  6
CONTINUOUS
 62
     7
 10
752.8035132742372
 20
140.25
 30
0.0
 11
752.815280977561
 21
140.1217844557837
 31
0.0
  0
LINE
  5
1A5
  8
1
  6
CONTINUOUS
 62
     7
 10
742.8035132742372
 20
140.25
 30
0.0
 11
742.8152809775611
 21
140.1217844557837
 31
0.0
  0
LINE
  5
1A6
  8
1
  6
CONTINUOUS
 62
     7
 10
752.8035132742372
 20
140.25
 30
0.0
 11
752.7720069313262
 21
140.1507527487249
 31
0.0
  0
ARC
  5
1A7
  8
1
  6
CONTINUOUS
 62
     7
 10
752.607102204235
 20
140.2352644490922
 30
0.0
 40
0.1852992080823476
 50
231.7738519195127
 51
332.865403093386
  0
LINE
  5
1A8
  8
1
  6
CONTINUOUS
 62
     7
 10
728.3973273291165
 20
71.75000000000006
 30
0.0
 11
728.396361921499
 21
71.76035804348302
 31
0.0
  0
ARC
  5
1A9
  8
1
  6
CONTINUOUS
 62
     7
 10
742.607102204235
 20
140.2352644490925
 30
0.0
 40
0.1852992080826844
 50
231.7738519195711
 51
332.8654030933334
  0
POLYLINE
  5
1AA
  8
1
  6
CONTINUOUS
 62
     7
 66
     1
 10
0.0
 20
0.0
 30
0.0
  0
VERTEX
  5
2A8
  8
1
  6
CONTINUOUS
 62
     7
 10
752.4924451742372
 20
140.0896981
 30
0.0
  0
VERTEX
  5
2A9
  8
1
  6
CONTINUOUS
 62
     7
 10
752.4911631241883
 20
140.0906543818589
 30
0.0
  0
VERTEX
  5
2AA
  8
1
  6
CONTINUOUS
 62
     7
 10
752.489887123549
 20
140.0916199272571
 30
0.0
  0
VERTEX
  5
2AB
  8
1
  6
CONTINUOUS
 62
     7
 10
752.488617249678
 20
140.0925946588354
 30
0.0
  0
VERTEX
  5
2AC
  8
1
  6
CONTINUOUS
 62
     7
 10
752.4873535799351
 20
140.0935784992342
 30
0.0
  0
VERTEX
  5
2AD
  8
1
  6
CONTINUOUS
 62
     7
 10
752.4860961916793
 20
140.0945713710946
 30
0.0
  0
VERTEX
  5
2AE
  8
1
  6
CONTINUOUS
 62
     7
 10
752.48484516227
 20
140.0955731970569
 30
0.0
  0
VERTEX
  5
2AF
  8
1
  6
CONTINUOUS
 62
     7
 10
752.4836005690664
 20
140.096583899762
 30
0.0
  0
VERTEX
  5
2B0
  8
1
  6
CONTINUOUS
 62
     7
 10
752.482362489428
 20
140.0976034018505
 30
0.0
  0
VERTEX
  5
2B1
  8
1
  6
CONTINUOUS
 62
     7
 10
752.4811310007142
 20
140.0986316259631
 30
0.0
  0
VERTEX
  5
2B2
  8
1
  6
CONTINUOUS
 62
     7
 10
752.4799061802839
 20
140.0996684947405
 30
0.0
  0
VERTEX
  5
2B3
  8
1
  6
CONTINUOUS
 62
     7
 10
752.478688105497
 20
140.1007139308235
 30
0.0
  0
VERTEX
  5
2B4
  8
1
  6
CONTINUOUS
 62
     7
 10
752.4774768537125
 20
140.1017678568526
 30
0.0
  0
VERTEX
  5
2B5
  8
1
  6
CONTINUOUS
 62
     7
 10
752.4762725022895
 20
140.1028301954685
 30
0.0
  0
VERTEX
  5
2B6
  8
1
  6
CONTINUOUS
 62
     7
 10
752.4750751285876
 20
140.103900869312
 30
0.0
  0
VERTEX
  5
2B7
  8
1
  6
CONTINUOUS
 62
     7
 10
752.4738848099662
 20
140.1049798010238
 30
0.0
  0
VERTEX
  5
2B8
  8
1
  6
CONTINUOUS
 62
     7
 10
752.4727016237841
 20
140.1060669132444
 30
0.0
  0
VERTEX
  5
2B9
  8
1
  6
CONTINUOUS
 62
     7
 10
752.4715256474012
 20
140.1071621286147
 30
0.0
  0
VERTEX
  5
2BA
  8
1
  6
CONTINUOUS
 62
     7
 10
752.4703569581764
 20
140.1082653697752
 30
0.0
  0
VERTEX
  5
2BB
  8
1
  6
CONTINUOUS
 62
     7
 10
752.4691956334697
 20
140.1093765593668
 30
0.0
  0
VERTEX
  5
2BC
  8
1
  6
CONTINUOUS
 62
     7
 10
752.4680417506395
 20
140.11049562003
 30
0.0
  0
VERTEX
  5
2BD
  8
1
  6
CONTINUOUS
 62
     7
 10
752.4668953870455
 20
140.1116224744055
 30
0.0
  0
VERTEX
  5
2BE
  8
1
  6
CONTINUOUS
 62
     7
 10
752.4657566200474
 20
140.1127570451341
 30
0.0
  0
VERTEX
  5
2BF
  8
1
  6
CONTINUOUS
 62
     7
 10
752.4646255270037
 20
140.1138992548564
 30
0.0
  0
VERTEX
  5
2C0
  8
1
  6
CONTINUOUS
 62
     7
 10
752.4635021852745
 20
140.1150490262131
 30
0.0
  0
SEQEND
  5
421
  8
1
  6
CONTINUOUS
 62
     7
  0
LINE
  5
1AB
  8
1
  6
CONTINUOUS
 62
     7
 10
762.8035132742372
 20
140.25
 30
0.0
 11
762.815281071678
 21
140.1217834248432
 31
0.0
  0
LINE
  5
1AC
  8
1
  6
CONTINUOUS
 62
     7
 10
768.3973273291163
 20
71.75000000000006
 30
0.0
 11
768.3963619214968
 21
71.76035804350616
 31
0.0
  0
LINE
  5
1AD
  8
1
  6
CONTINUOUS
 62
     7
 10
692.8035132742372
 20
140.25
 30
0.0
 11
692.7720069313264
 21
140.1507527487249
 31
0.0
  0
LINE
  5
1AE
  8
1
  6
CONTINUOUS
 62
     7
 10
722.8035132742372
 20
140.25
 30
0.0
 11
722.7720069313262
 21
140.1507527487249
 31
0.0
  0
LINE
  5
1AF
  8
1
  6
CONTINUOUS
 62
     7
 10
748.7294163860429
 20
71.8923994105001
 30
0.0
 11
748.7956458339087
 21
71.75000000000173
 31
0.0
  0
LINE
  5
1B0
  8
1
  6
CONTINUOUS
 62
     7
 10
768.7294156199401
 20
71.89240009047467
 30
0.0
 11
768.7956458339087
 21
71.75000000000172
 31
0.0
  0
ARC
  5
1B1
  8
1
  6
CONTINUOUS
 62
     7
 10
698.5918919345578
 20
71.75468815560292
 30
0.0
 40
0.1946210792416093
 50
45.03888678906759
 51
181.3803104740163
  0
ARC
  5
1B2
  8
1
  6
CONTINUOUS
 62
     7
 10
722.607102204235
 20
140.2352644490923
 30
0.0
 40
0.1852992080825097
 50
231.7738519195446
 51
332.8654030933635
  0
LINE
  5
1B3
  8
1
  6
CONTINUOUS
 62
     7
 10
762.8035132742372
 20
140.25
 30
0.0
 11
762.7720069313262
 21
140.1507527487249
 31
0.0
  0
ARC
  5
1B4
  8
1
  6
CONTINUOUS
 62
     7
 10
692.607102204235
 20
140.2352644490925
 30
0.0
 40
0.1852992080827097
 50
231.7738519195765
 51
332.865403093318
  0
ARC
  5
1B5
  8
1
  6
CONTINUOUS
 62
     7
 10
758.5918919345496
 20
71.75468815560974
 30
0.0
 40
0.1946210792335602
 50
45.03888683074212
 51
181.38031047608
  0
LINE
  5
1B6
  8
1
  6
CONTINUOUS
 62
     7
 10
620.1000000000001
 20
104.0
 30
0.0
 11
621.1
 21
104.0
 31
0.0
  0
LINE
  5
1B7
  8
1
  6
CONTINUOUS
 62
     7
 10
621.1
 20
104.0
 30
0.0
 11
621.1
 21
71.80844402487652
 31
0.0
  0
LINE
  5
1B8
  8
1
  6
CONTINUOUS
 62
     7
 10
620.1000000000001
 20
140.1915559751234
 30
0.0
 11
621.1
 21
140.1915559751234
 31
0.0
  0
LINE
  5
1B9
  8
1
  6
CONTINUOUS
 62
     7
 10
621.1
 20
108.0
 30
0.0
 11
620.1000000000001
 21
108.0
 31
0.0
  0
LINE
  5
1BA
  8
1
  6
CONTINUOUS
 62
     7
 10
621.1
 20
140.1915559751235
 30
0.0
 11
621.1
 21
108.0
 31
0.0
  0
LINE
  5
1BB
  8
1
  6
CONTINUOUS
 62
     7
 10
680.1
 20
140.1915559751234
 30
0.0
 11
681.1
 21
140.1915559751234
 31
0.0
  0
ARC
  5
1BC
  8
1
  6
CONTINUOUS
 62
     7
 10
768.5918918795896
 20
71.754688201497
 30
0.0
 40
0.1946210253949501
 50
45.03916687893958
 51
181.3803243709764
  0
LINE
  5
1BD
  8
1
  6
CONTINUOUS
 62
     7
 10
722.8035132742372
 20
140.25
 30
0.0
 11
722.8152809775611
 21
140.1217844557837
 31
0.0
  0
ARC
  5
1BE
  8
1
  6
CONTINUOUS
 62
     7
 10
728.5918919345492
 20
71.75468815561011
 30
0.0
 40
0.1946210792331256
 50
45.03888683278171
 51
181.3803104761975
  0
LINE
  5
1BF
  8
1
  6
CONTINUOUS
 62
     7
 10
758.3973273291165
 20
71.75000000000006
 30
0.0
 11
758.396361921499
 21
71.76035804348315
 31
0.0
  0
ARC
  5
1C0
  8
1
  6
CONTINUOUS
 62
     7
 10
762.607102204235
 20
140.2352644490923
 30
0.0
 40
0.185299208082497
 50
231.773851919534
 51
332.8654030933711
  0
LINE
  5
1C1
  8
1
  6
CONTINUOUS
 62
     7
 10
748.3973273291164
 20
71.75000000000004
 30
0.0
 11
748.396361921499
 21
71.76035804348312
 31
0.0
  0
POLYLINE
  5
1C2
  8
1
  6
CONTINUOUS
 62
     7
 66
     1
 10
0.0
 20
0.0
 30
0.0
  0
VERTEX
  5
2C1
  8
1
  6
CONTINUOUS
 62
     7
 10
762.4924451742372
 20
140.0896981
 30
0.0
  0
VERTEX
  5
2C2
  8
1
  6
CONTINUOUS
 62
     7
 10
762.4911631073505
 20
140.0906543945091
 30
0.0
  0
VERTEX
  5
2C3
  8
1
  6
CONTINUOUS
 62
     7
 10
762.4898870900332
 20
140.0916199528004
 30
0.0
  0
VERTEX
  5
2C4
  8
1
  6
CONTINUOUS
 62
     7
 10
762.488617199648
 20
140.0925946975115
 30
0.0
  0
VERTEX
  5
2C5
  8
1
  6
CONTINUOUS
 62
     7
 10
762.487353513557
 20
140.09357855128
 30
0.0
  0
VERTEX
  5
2C6
  8
1
  6
CONTINUOUS
 62
     7
 10
762.4860961091226
 20
140.0945714367437
 30
0.0
  0
VERTEX
  5
2C7
  8
1
  6
CONTINUOUS
 62
     7
 10
762.4848450637074
 20
140.0955732765401
 30
0.0
  0
VERTEX
  5
2C8
  8
1
  6
CONTINUOUS
 62
     7
 10
762.4836004546736
 20
140.0965839933068
 30
0.0
  0
VERTEX
  5
2C9
  8
1
  6
CONTINUOUS
 62
     7
 10
762.4823623593835
 20
140.0976035096816
 30
0.0
  0
VERTEX
  5
2CA
  8
1
  6
CONTINUOUS
 62
     7
 10
762.4811308551996
 20
140.0986317483019
 30
0.0
  0
VERTEX
  5
2CB
  8
1
  6
CONTINUOUS
 62
     7
 10
762.4799060194841
 20
140.0996686318055
 30
0.0
  0
VERTEX
  5
2CC
  8
1
  6
CONTINUOUS
 62
     7
 10
762.4786879295995
 20
140.1007140828299
 30
0.0
  0
VERTEX
  5
2CD
  8
1
  6
CONTINUOUS
 62
     7
 10
762.4774766629081
 20
140.1017680240129
 30
0.0
  0
VERTEX
  5
2CE
  8
1
  6
CONTINUOUS
 62
     7
 10
762.4762722967723
 20
140.102830377992
 30
0.0
  0
VERTEX
  5
2CF
  8
1
  6
CONTINUOUS
 62
     7
 10
762.4750749085548
 20
140.1039010674049
 30
0.0
  0
VERTEX
  5
2D0
  8
1
  6
CONTINUOUS
 62
     7
 10
762.4738845756174
 20
140.1049800148892
 30
0.0
  0
VERTEX
  5
2D1
  8
1
  6
CONTINUOUS
 62
     7
 10
762.4727013753227
 20
140.1060671430825
 30
0.0
  0
VERTEX
  5
2D2
  8
1
  6
CONTINUOUS
 62
     7
 10
762.471525385033
 20
140.1071623746224
 30
0.0
  0
VERTEX
  5
2D3
  8
1
  6
CONTINUOUS
 62
     7
 10
762.4703566821113
 20
140.1082656321467
 30
0.0
  0
VERTEX
  5
2D4
  8
1
  6
CONTINUOUS
 62
     7
 10
762.4691953439187
 20
140.1093768382928
 30
0.0
  0
VERTEX
  5
2D5
  8
1
  6
CONTINUOUS
 62
     7
 10
762.468041447819
 20
140.1104959156986
 30
0.0
  0
VERTEX
  5
2D6
  8
1
  6
CONTINUOUS
 62
     7
 10
762.4668950711734
 20
140.1116227870015
 30
0.0
  0
VERTEX
  5
2D7
  8
1
  6
CONTINUOUS
 62
     7
 10
762.4657562913449
 20
140.1127573748392
 30
0.0
  0
VERTEX
  5
2D8
  8
1
  6
CONTINUOUS
 62
     7
 10
762.4646251856956
 20
140.1138996018493
 30
0.0
  0
VERTEX
  5
2D9
  8
1
  6
CONTINUOUS
 62
     7
 10
762.4635018315881
 20
140.1150493906696
 30
0.0
  0
SEQEND
  5
422
  8
1
  6
CONTINUOUS
 62
     7
  0
POLYLINE
  5
1C3
  8
1
  6
CONTINUOUS
 62
     7
 66
     1
 10
0.0
 20
0.0
 30
0.0
  0
VERTEX
  5
2DA
  8
1
  6
CONTINUOUS
 62
     7
 10
692.4924451742371
 20
140.0896981
 30
0.0
  0
VERTEX
  5
2DB
  8
1
  6
CONTINUOUS
 62
     7
 10
692.4911631209285
 20
140.090654384308
 30
0.0
  0
VERTEX
  5
2DC
  8
1
  6
CONTINUOUS
 62
     7
 10
692.4898871170602
 20
140.0916199322023
 30
0.0
  0
VERTEX
  5
2DD
  8
1
  6
CONTINUOUS
 62
     7
 10
692.4886172399921
 20
140.0925946663231
 30
0.0
  0
VERTEX
  5
2DE
  8
1
  6
CONTINUOUS
 62
     7
 10
692.4873535670841
 20
140.0935785093103
 30
0.0
  0
VERTEX
  5
2DF
  8
1
  6
CONTINUOUS
 62
     7
 10
692.4860961756962
 20
140.0945713838042
 30
0.0
  0
VERTEX
  5
2E0
  8
1
  6
CONTINUOUS
 62
     7
 10
692.4848451431881
 20
140.0955732124449
 30
0.0
  0
VERTEX
  5
2E1
  8
1
  6
CONTINUOUS
 62
     7
 10
692.4836005469198
 20
140.0965839178723
 30
0.0
  0
VERTEX
  5
2E2
  8
1
  6
CONTINUOUS
 62
     7
 10
692.4823624642513
 20
140.0976034227266
 30
0.0
  0
VERTEX
  5
2E3
  8
1
  6
CONTINUOUS
 62
     7
 10
692.4811309725424
 20
140.0986316496479
 30
0.0
  0
VERTEX
  5
2E4
  8
1
  6
CONTINUOUS
 62
     7
 10
692.479906149153
 20
140.0996685212764
 30
0.0
  0
VERTEX
  5
2E5
  8
1
  6
CONTINUOUS
 62
     7
 10
692.4786880714431
 20
140.100713960252
 30
0.0
  0
VERTEX
  5
2E6
  8
1
  6
CONTINUOUS
 62
     7
 10
692.4774768167725
 20
140.1017678892149
 30
0.0
  0
VERTEX
  5
2E7
  8
1
  6
CONTINUOUS
 62
     7
 10
692.4762724625011
 20
140.1028302308051
 30
0.0
  0
VERTEX
  5
2E8
  8
1
  6
CONTINUOUS
 62
     7
 10
692.4750750859891
 20
140.1039009076629
 30
0.0
  0
VERTEX
  5
2E9
  8
1
  6
CONTINUOUS
 62
     7
 10
692.4738847645958
 20
140.1049798424282
 30
0.0
  0
VERTEX
  5
2EA
  8
1
  6
CONTINUOUS
 62
     7
 10
692.472701575682
 20
140.1060669577412
 30
0.0
  0
VERTEX
  5
2EB
  8
1
  6
CONTINUOUS
 62
     7
 10
692.4715255966065
 20
140.1071621762418
 30
0.0
  0
VERTEX
  5
2EC
  8
1
  6
CONTINUOUS
 62
     7
 10
692.4703569047301
 20
140.1082654205705
 30
0.0
  0
VERTEX
  5
2ED
  8
1
  6
CONTINUOUS
 62
     7
 10
692.4691955774124
 20
140.109376613367
 30
0.0
  0
VERTEX
  5
2EE
  8
1
  6
CONTINUOUS
 62
     7
 10
692.4680416920132
 20
140.1104956772715
 30
0.0
  0
VERTEX
  5
2EF
  8
1
  6
CONTINUOUS
 62
     7
 10
692.4668953258924
 20
140.1116225349242
 30
0.0
  0
VERTEX
  5
2F0
  8
1
  6
CONTINUOUS
 62
     7
 10
692.4657565564102
 20
140.1127571089651
 30
0.0
  0
VERTEX
  5
2F1
  8
1
  6
CONTINUOUS
 62
     7
 10
692.4646254609263
 20
140.1138993220343
 30
0.0
  0
VERTEX
  5
2F2
  8
1
  6
CONTINUOUS
 62
     7
 10
692.4635021168006
 20
140.115049096772
 30
0.0
  0
SEQEND
  5
423
  8
1
  6
CONTINUOUS
 62
     7
  0
LINE
  5
1C4
  8
1
  6
CONTINUOUS
 62
     7
 10
620.1000000000001
 20
104.0
 30
0.0
 11
620.1000000000001
 21
71.80844402487655
 31
0.0
  0
LINE
  5
1C5
  8
1
  6
CONTINUOUS
 62
     7
 10
621.1
 20
71.80844402487655
 30
0.0
 11
620.1000000000001
 21
71.80844402487655
 31
0.0
  0
LINE
  5
1C6
  8
1
  6
CONTINUOUS
 62
     7
 10
620.1000000000001
 20
140.1915559751234
 30
0.0
 11
620.1000000000001
 21
108.0
 31
0.0
  0
POLYLINE
  5
1C7
  8
1
  6
CONTINUOUS
 62
     7
 66
     1
 10
0.0
 20
0.0
 30
0.0
  0
VERTEX
  5
2F3
  8
1
  6
CONTINUOUS
 62
     7
 10
722.4924451742371
 20
140.0896981
 30
0.0
  0
VERTEX
  5
2F4
  8
1
  6
CONTINUOUS
 62
     7
 10
722.491163125979
 20
140.0906543805136
 30
0.0
  0
VERTEX
  5
2F5
  8
1
  6
CONTINUOUS
 62
     7
 10
722.4898871271132
 20
140.0916199245406
 30
0.0
  0
VERTEX
  5
2F6
  8
1
  6
CONTINUOUS
 62
     7
 10
722.4886172549986
 20
140.0925946547221
 30
0.0
  0
VERTEX
  5
2F7
  8
1
  6
CONTINUOUS
 62
     7
 10
722.4873535869942
 20
140.0935784936991
 30
0.0
  0
VERTEX
  5
2F8
  8
1
  6
CONTINUOUS
 62
     7
 10
722.486096200459
 20
140.0945713641127
 30
0.0
  0
VERTEX
  5
2F9
  8
1
  6
CONTINUOUS
 62
     7
 10
722.484845172752
 20
140.0955731886038
 30
0.0
  0
VERTEX
  5
2FA
  8
1
  6
CONTINUOUS
 62
     7
 10
722.483600581232
 20
140.0965838898134
 30
0.0
  0
VERTEX
  5
2FB
  8
1
  6
CONTINUOUS
 62
     7
 10
722.4823625032584
 20
140.0976033903826
 30
0.0
  0
VERTEX
  5
2FC
  8
1
  6
CONTINUOUS
 62
     7
 10
722.4811310161897
 20
140.0986316129523
 30
0.0
  0
VERTEX
  5
2FD
  8
1
  6
CONTINUOUS
 62
     7
 10
722.479906197385
 20
140.0996684801636
 30
0.0
  0
VERTEX
  5
2FE
  8
1
  6
CONTINUOUS
 62
     7
 10
722.4786881242037
 20
140.1007139146575
 30
0.0
  0
VERTEX
  5
2FF
  8
1
  6
CONTINUOUS
 62
     7
 10
722.4774768740043
 20
140.1017678390749
 30
0.0
  0
VERTEX
  5
300
  8
1
  6
CONTINUOUS
 62
     7
 10
722.4762725241462
 20
140.102830176057
 30
0.0
  0
VERTEX
  5
301
  8
1
  6
CONTINUOUS
 62
     7
 10
722.4750751519883
 20
140.1039008482448
 30
0.0
  0
VERTEX
  5
302
  8
1
  6
CONTINUOUS
 62
     7
 10
722.4738848348892
 20
140.1049797782791
 30
0.0
  0
VERTEX
  5
303
  8
1
  6
CONTINUOUS
 62
     7
 10
722.4727016502081
 20
140.106066888801
 30
0.0
  0
VERTEX
  5
304
  8
1
  6
CONTINUOUS
 62
     7
 10
722.4715256753041
 20
140.1071621024516
 30
0.0
  0
VERTEX
  5
305
  8
1
  6
CONTINUOUS
 62
     7
 10
722.4703569875362
 20
140.1082653418719
 30
0.0
  0
VERTEX
  5
306
  8
1
  6
CONTINUOUS
 62
     7
 10
722.4691956642635
 20
140.1093765297028
 30
0.0
  0
VERTEX
  5
307
  8
1
  6
CONTINUOUS
 62
     7
 10
722.4680417828446
 20
140.1104955885855
 30
0.0
  0
VERTEX
  5
308
  8
1
  6
CONTINUOUS
 62
     7
 10
722.4668954206388
 20
140.1116224411608
 30
0.0
  0
VERTEX
  5
309
  8
1
  6
CONTINUOUS
 62
     7
 10
722.4657566550051
 20
140.1127570100698
 30
0.0
  0
VERTEX
  5
30A
  8
1
  6
CONTINUOUS
 62
     7
 10
722.4646255633021
 20
140.1138992179535
 30
0.0
  0
VERTEX
  5
30B
  8
1
  6
CONTINUOUS
 62
     7
 10
722.4635022228892
 20
140.115048987453
 30
0.0
  0
SEQEND
  5
424
  8
1
  6
CONTINUOUS
 62
     7
  0
POLYLINE
  5
1C8
  8
1
  6
CONTINUOUS
 62
     7
 66
     1
 10
0.0
 20
0.0
 30
0.0
  0
VERTEX
  5
30C
  8
1
  6
CONTINUOUS
 62
     7
 10
742.4924451742372
 20
140.0896981
 30
0.0
  0
VERTEX
  5
30D
  8
1
  6
CONTINUOUS
 62
     7
 10
742.4911631189485
 20
140.0906543857956
 30
0.0
  0
VERTEX
  5
30E
  8
1
  6
CONTINUOUS
 62
     7
 10
742.489887113119
 20
140.091619935206
 30
0.0
  0
VERTEX
  5
30F
  8
1
  6
CONTINUOUS
 62
     7
 10
742.4886172341089
 20
140.0925946708712
 30
0.0
  0
VERTEX
  5
310
  8
1
  6
CONTINUOUS
 62
     7
 10
742.4873535592786
 20
140.0935785154307
 30
0.0
  0
VERTEX
  5
311
  8
1
  6
CONTINUOUS
 62
     7
 10
742.4860961659881
 20
140.0945713915242
 30
0.0
  0
VERTEX
  5
312
  8
1
  6
CONTINUOUS
 62
     7
 10
742.4848451315978
 20
140.0955732217916
 30
0.0
  0
VERTEX
  5
313
  8
1
  6
CONTINUOUS
 62
     7
 10
742.4836005334679
 20
140.0965839288726
 30
0.0
  0
VERTEX
  5
314
  8
1
  6
CONTINUOUS
 62
     7
 10
742.4823624489587
 20
140.097603435407
 30
0.0
  0
VERTEX
  5
315
  8
1
  6
CONTINUOUS
 62
     7
 10
742.4811309554308
 20
140.0986316640343
 30
0.0
  0
VERTEX
  5
316
  8
1
  6
CONTINUOUS
 62
     7
 10
742.4799061302439
 20
140.0996685373945
 30
0.0
  0
VERTEX
  5
317
  8
1
  6
CONTINUOUS
 62
     7
 10
742.4786880507585
 20
140.1007139781271
 30
0.0
  0
VERTEX
  5
318
  8
1
  6
CONTINUOUS
 62
     7
 10
742.4774767943352
 20
140.101767908872
 30
0.0
  0
VERTEX
  5
319
  8
1
  6
CONTINUOUS
 62
     7
 10
742.4762724383336
 20
140.1028302522689
 30
0.0
  0
VERTEX
  5
31A
  8
1
  6
CONTINUOUS
 62
     7
 10
742.4750750601145
 20
140.1039009309575
 30
0.0
  0
VERTEX
  5
31B
  8
1
  6
CONTINUOUS
 62
     7
 10
742.4738847370379
 20
140.1049798675776
 30
0.0
  0
VERTEX
  5
31C
  8
1
  6
CONTINUOUS
 62
     7
 10
742.4727015464641
 20
140.1060669847688
 30
0.0
  0
VERTEX
  5
31D
  8
1
  6
CONTINUOUS
 62
     7
 10
742.4715255657535
 20
140.107162205171
 30
0.0
  0
VERTEX
  5
31E
  8
1
  6
CONTINUOUS
 62
     7
 10
742.4703568722663
 20
140.1082654514239
 30
0.0
  0
VERTEX
  5
31F
  8
1
  6
CONTINUOUS
 62
     7
 10
742.4691955433627
 20
140.1093766461671
 30
0.0
  0
VERTEX
  5
320
  8
1
  6
CONTINUOUS
 62
     7
 10
742.4680416564031
 20
140.1104957120405
 30
0.0
  0
VERTEX
  5
321
  8
1
  6
CONTINUOUS
 62
     7
 10
742.4668952887479
 20
140.1116225716838
 30
0.0
  0
VERTEX
  5
322
  8
1
  6
CONTINUOUS
 62
     7
 10
742.4657565177565
 20
140.1127571477366
 30
0.0
  0
VERTEX
  5
323
  8
1
  6
CONTINUOUS
 62
     7
 10
742.4646254207903
 20
140.1138993628388
 30
0.0
  0
VERTEX
  5
324
  8
1
  6
CONTINUOUS
 62
     7
 10
742.4635020752089
 20
140.11504913963
 30
0.0
  0
SEQEND
  5
425
  8
1
  6
CONTINUOUS
 62
     7
  0
LINE
  5
1C9
  8
1
  6
CONTINUOUS
 62
     7
 10
698.7294163861594
 20
71.89239941039656
 30
0.0
 11
698.7956458339086
 21
71.75000000000172
 31
0.0
  0
LINE
  5
1CA
  8
1
  6
CONTINUOUS
 62
     7
 10
742.8035132742372
 20
140.25
 30
0.0
 11
742.7720069313264
 21
140.1507527487249
 31
0.0
  0
LINE
  5
1CB
  8
1
  6
CONTINUOUS
 62
     7
 10
758.7294163860454
 20
71.89239941049777
 30
0.0
 11
758.7956458339086
 21
71.75000000000172
 31
0.0
  0
ARC
  5
1CC
  8
1
  6
CONTINUOUS
 62
     7
 10
748.5918919345495
 20
71.75468815560987
 30
0.0
 40
0.1946210792334522
 50
45.03888683170704
 51
181.3803104761175
  0
LINE
  5
1CD
  8
1
  6
CONTINUOUS
 62
     7
 10
692.8035132742372
 20
140.25
 30
0.0
 11
692.8152809775611
 21
140.1217844557836
 31
0.0
  0
POLYLINE
  5
1CE
  8
1
  6
CONTINUOUS
 62
     7
 66
     1
 10
0.0
 20
0.0
 30
0.0
  0
VERTEX
  5
325
  8
1
  6
CONTINUOUS
 62
     7
 10
622.4924451742372
 20
140.0896981
 30
0.0
  0
VERTEX
  5
326
  8
1
  6
CONTINUOUS
 62
     7
 10
622.4911631206216
 20
140.0906543845386
 30
0.0
  0
VERTEX
  5
327
  8
1
  6
CONTINUOUS
 62
     7
 10
622.4898871164494
 20
140.0916199326679
 30
0.0
  0
VERTEX
  5
328
  8
1
  6
CONTINUOUS
 62
     7
 10
622.4886172390802
 20
140.092594667028
 30
0.0
  0
VERTEX
  5
329
  8
1
  6
CONTINUOUS
 62
     7
 10
622.4873535658743
 20
140.093578510259
 30
0.0
  0
VERTEX
  5
32A
  8
1
  6
CONTINUOUS
 62
     7
 10
622.4860961741914
 20
140.0945713850009
 30
0.0
  0
VERTEX
  5
32B
  8
1
  6
CONTINUOUS
 62
     7
 10
622.4848451413916
 20
140.0955732138937
 30
0.0
  0
VERTEX
  5
32C
  8
1
  6
CONTINUOUS
 62
     7
 10
622.4836005448348
 20
140.0965839195774
 30
0.0
  0
VERTEX
  5
32D
  8
1
  6
CONTINUOUS
 62
     7
 10
622.4823624618809
 20
140.0976034246921
 30
0.0
  0
VERTEX
  5
32E
  8
1
  6
CONTINUOUS
 62
     7
 10
622.4811309698902
 20
140.0986316518779
 30
0.0
  0
VERTEX
  5
32F
  8
1
  6
CONTINUOUS
 62
     7
 10
622.479906146222
 20
140.0996685237748
 30
0.0
  0
VERTEX
  5
330
  8
1
  6
CONTINUOUS
 62
     7
 10
622.4786880682368
 20
140.1007139630227
 30
0.0
  0
VERTEX
  5
331
  8
1
  6
CONTINUOUS
 62
     7
 10
622.4774768132946
 20
140.1017678922618
 30
0.0
  0
VERTEX
  5
332
  8
1
  6
CONTINUOUS
 62
     7
 10
622.476272458755
 20
140.1028302341321
 30
0.0
  0
VERTEX
  5
333
  8
1
  6
CONTINUOUS
 62
     7
 10
622.4750750819784
 20
140.1039009112737
 30
0.0
  0
VERTEX
  5
334
  8
1
  6
CONTINUOUS
 62
     7
 10
622.4738847603244
 20
140.1049798463265
 30
0.0
  0
VERTEX
  5
335
  8
1
  6
CONTINUOUS
 62
     7
 10
622.4727015711532
 20
140.1060669619307
 30
0.0
  0
VERTEX
  5
336
  8
1
  6
CONTINUOUS
 62
     7
 10
622.4715255918243
 20
140.1071621807261
 30
0.0
  0
VERTEX
  5
337
  8
1
  6
CONTINUOUS
 62
     7
 10
622.470356899698
 20
140.1082654253529
 30
0.0
  0
VERTEX
  5
338
  8
1
  6
CONTINUOUS
 62
     7
 10
622.4691955721346
 20
140.1093766184512
 30
0.0
  0
VERTEX
  5
339
  8
1
  6
CONTINUOUS
 62
     7
 10
622.4680416864935
 20
140.1104956826609
 30
0.0
  0
VERTEX
  5
33A
  8
1
  6
CONTINUOUS
 62
     7
 10
622.4668953201348
 20
140.1116225406221
 30
0.0
  0
VERTEX
  5
33B
  8
1
  6
CONTINUOUS
 62
     7
 10
622.4657565504187
 20
140.1127571149749
 30
0.0
  0
VERTEX
  5
33C
  8
1
  6
CONTINUOUS
 62
     7
 10
622.4646254547049
 20
140.1138993283593
 30
0.0
  0
VERTEX
  5
33D
  8
1
  6
CONTINUOUS
 62
     7
 10
622.4635021103536
 20
140.1150491034152
 30
0.0
  0
SEQEND
  5
426
  8
1
  6
CONTINUOUS
 62
     7
  0
LINE
  5
1CF
  8
1
  6
CONTINUOUS
 62
     7
 10
718.7294163860115
 20
71.89239941052797
 30
0.0
 11
718.7956458339087
 21
71.75000000000173
 31
0.0
  0
CIRCLE
  5
1D0
  8
1
  6
CONTINUOUS
 62
     7
 10
475.8700576850887
 20
132.8700576850888
 30
0.0
 40
0.7500000000000007
  0
LINE
  5
1D1
  8
1
  6
CONTINUOUS
 62
     7
 10
520.608017212367
 20
70.0
 30
0.0
 11
519.4000000000001
 21
70.0
 31
0.0
  0
CIRCLE
  5
1D2
  8
1
  6
CONTINUOUS
 62
     7
 10
475.8700576850887
 20
79.12994231491126
 30
0.0
 40
0.7500000000000007
  0
ARC
  5
1D3
  8
1
  6
CONTINUOUS
 62
     7
 10
449.0
 20
106.0
 30
0.0
 40
43.99999999999999
 50
37.3568519729032
 51
232.6431480270968
  0
LINE
  5
1D4
  8
1
  6
CONTINUOUS
 62
     7
 10
662.8035132742372
 20
140.25
 30
0.0
 11
662.8152809775611
 21
140.1217844557836
 31
0.0
  0
LINE
  5
1D5
  8
1
  6
CONTINUOUS
 62
     7
 10
472.6643191323985
 20
70.0
 30
0.0
 11
425.3356808676015
 21
70.0
 31
0.0
  0
LINE
  5
1D6
  8
1
  6
CONTINUOUS
 62
     7
 10
520.6
 20
142.5
 30
0.0
 11
520.1000000000001
 21
142.0
 31
0.0
  0
ARC
  5
1D7
  8
1
  6
CONTINUOUS
 62
     7
 10
668.5918919345692
 20
71.75468815559344
 30
0.0
 40
0.194621079252702
 50
45.03888673145416
 51
181.3803104711462
  0
LINE
  5
1D8
  8
1
  6
CONTINUOUS
 62
     7
 10
521.895490738837
 20
137.75
 30
0.0
 11
521.895490738837
 21
74.25000000000001
 31
0.0
  0
LINE
  5
1D9
  8
1
  6
CONTINUOUS
 62
     7
 10
668.3973273291164
 20
71.75000000000004
 30
0.0
 11
668.396361921499
 21
71.76035804348315
 31
0.0
  0
CIRCLE
  5
1DA
  8
1
  6
CONTINUOUS
 62
     7
 10
422.1299423149113
 20
79.12994231491125
 30
0.0
 40
0.7500000000000007
  0
LINE
  5
1DB
  8
1
  6
CONTINUOUS
 62
     7
 10
485.0
 20
129.6643191323985
 30
0.0
 11
485.0
 21
82.33568086760155
 31
0.0
  0
LINE
  5
1DC
  8
1
  6
CONTINUOUS
 62
     7
 10
520.6
 20
150.0
 30
0.0
 11
520.6
 21
142.5
 31
0.0
  0
CIRCLE
  5
1DD
  8
1
  6
CONTINUOUS
 62
     7
 10
422.1299423149113
 20
132.8700576850887
 30
0.0
 40
0.7500000000000284
  0
ARC
  5
1DE
  8
1
  6
CONTINUOUS
 62
     7
 10
472.6643191323985
 20
75.00000000000001
 30
0.0
 40
5.000000000000004
 50
270.0
 51
307.3568519729032
  0
LINE
  5
1DF
  8
1
  6
CONTINUOUS
 62
     7
 10
535.7457809879444
 20
140.25
 30
0.0
 11
535.7457809879444
 21
71.75
 31
0.0
  0
LINE
  5
1E0
  8
1
  6
CONTINUOUS
 62
     7
 10
525.6
 20
72.0
 30
0.0
 11
525.6
 21
140.0
 31
0.0
  0
LINE
  5
1E1
  8
1
  6
CONTINUOUS
 62
     7
 10
668.7294163863171
 20
71.89239941025667
 30
0.0
 11
668.7956458339086
 21
71.75000000000173
 31
0.0
  0
ARC
  5
1E2
  8
1
  6
CONTINUOUS
 62
     7
 10
480.0
 20
129.6643191323985
 30
0.0
 40
4.999999999999948
 50
0.0
 51
37.35685197290314
  0
LINE
  5
1E3
  8
1
  6
CONTINUOUS
 62
     7
 10
628.7294163861293
 20
71.89239941042337
 30
0.0
 11
628.7956458339086
 21
71.75000000000173
 31
0.0
  0
ARC
  5
1E4
  8
1
  6
CONTINUOUS
 62
     7
 10
425.3356808676015
 20
75.00000000000001
 30
0.0
 40
4.99999999999998
 50
232.6431480270968
 51
270.0
  0
CIRCLE
  5
1E5
  8
1
  6
CONTINUOUS
 62
     7
 10
449.0
 20
106.0
 30
0.0
 40
31.0
  0
ARC
  5
1E6
  8
1
  6
CONTINUOUS
 62
     7
 10
449.0
 20
106.0
 30
0.0
 40
43.99999999999999
 50
307.3568519729032
 51
322.6431480270968
  0
ARC
  5
1E7
  8
1
  6
CONTINUOUS
 62
     7
 10
662.607102204235
 20
140.2352644490925
 30
0.0
 40
0.1852992080826718
 50
231.7738519195711
 51
332.865403093341
  0
POLYLINE
  5
1E8
  8
1
  6
CONTINUOUS
 62
     7
 66
     1
 10
0.0
 20
0.0
 30
0.0
  0
VERTEX
  5
33E
  8
1
  6
CONTINUOUS
 62
     7
 10
662.4924451742371
 20
140.0896981
 30
0.0
  0
VERTEX
  5
33F
  8
1
  6
CONTINUOUS
 62
     7
 10
662.4911631212689
 20
140.0906543840524
 30
0.0
  0
VERTEX
  5
340
  8
1
  6
CONTINUOUS
 62
     7
 10
662.4898871177375
 20
140.0916199316862
 30
0.0
  0
VERTEX
  5
341
  8
1
  6
CONTINUOUS
 62
     7
 10
662.4886172410031
 20
140.0925946655416
 30
0.0
  0
VERTEX
  5
342
  8
1
  6
CONTINUOUS
 62
     7
 10
662.4873535684253
 20
140.0935785082587
 30
0.0
  0
VERTEX
  5
343
  8
1
  6
CONTINUOUS
 62
     7
 10
662.4860961773643
 20
140.0945713824777
 30
0.0
  0
VERTEX
  5
344
  8
1
  6
CONTINUOUS
 62
     7
 10
662.4848451451796
 20
140.0955732108388
 30
0.0
  0
VERTEX
  5
345
  8
1
  6
CONTINUOUS
 62
     7
 10
662.4836005492313
 20
140.0965839159821
 30
0.0
  0
VERTEX
  5
346
  8
1
  6
CONTINUOUS
 62
     7
 10
662.482362466879
 20
140.0976034205478
 30
0.0
  0
VERTEX
  5
347
  8
1
  6
CONTINUOUS
 62
     7
 10
662.4811309754826
 20
140.098631647176
 30
0.0
  0
VERTEX
  5
348
  8
1
  6
CONTINUOUS
 62
     7
 10
662.4799061524021
 20
140.0996685185068
 30
0.0
  0
VERTEX
  5
349
  8
1
  6
CONTINUOUS
 62
     7
 10
662.4786880749973
 20
140.1007139571805
 30
0.0
  0
VERTEX
  5
34A
  8
1
  6
CONTINUOUS
 62
     7
 10
662.477476820628
 20
140.1017678858372
 30
0.0
  0
VERTEX
  5
34B
  8
1
  6
CONTINUOUS
 62
     7
 10
662.476272466654
 20
140.1028302271171
 30
0.0
  0
VERTEX
  5
34C
  8
1
  6
CONTINUOUS
 62
     7
 10
662.475075090435
 20
140.1039009036602
 30
0.0
  0
VERTEX
  5
34D
  8
1
  6
CONTINUOUS
 62
     7
 10
662.4738847693312
 20
140.1049798381068
 30
0.0
  0
VERTEX
  5
34E
  8
1
  6
CONTINUOUS
 62
     7
 10
662.4727015807023
 20
140.106066953097
 30
0.0
  0
VERTEX
  5
34F
  8
1
  6
CONTINUOUS
 62
     7
 10
662.4715256019078
 20
140.107162171271
 30
0.0
  0
VERTEX
  5
350
  8
1
  6
CONTINUOUS
 62
     7
 10
662.4703569103084
 20
140.108265415269
 30
0.0
  0
VERTEX
  5
351
  8
1
  6
CONTINUOUS
 62
     7
 10
662.4691955832632
 20
140.109376607731
 30
0.0
  0
VERTEX
  5
352
  8
1
  6
CONTINUOUS
 62
     7
 10
662.468041698132
 20
140.1104956712972
 30
0.0
  0
VERTEX
  5
353
  8
1
  6
CONTINUOUS
 62
     7
 10
662.4668953322749
 20
140.1116225286078
 30
0.0
  0
VERTEX
  5
354
  8
1
  6
CONTINUOUS
 62
     7
 10
662.4657565630519
 20
140.112757102303
 30
0.0
  0
VERTEX
  5
355
  8
1
  6
CONTINUOUS
 62
     7
 10
662.4646254678228
 20
140.113899315023
 30
0.0
  0
VERTEX
  5
356
  8
1
  6
CONTINUOUS
 62
     7
 10
662.4635021239471
 20
140.1150490894077
 30
0.0
  0
SEQEND
  5
427
  8
1
  6
CONTINUOUS
 62
     7
  0
ARC
  5
1E9
  8
1
  6
CONTINUOUS
 62
     7
 10
480.0
 20
82.33568086760155
 30
0.0
 40
4.999999999999975
 50
322.6431480270969
 51
0.0000000000000568
  0
LINE
  5
1EA
  8
1
  6
CONTINUOUS
 62
     7
 10
628.3973273291164
 20
71.75000000000006
 30
0.0
 11
628.396361921499
 21
71.76035804348307
 31
0.0
  0
LINE
  5
1EB
  8
1
  6
CONTINUOUS
 62
     7
 10
622.803513274237
 20
140.25
 30
0.0
 11
622.7720069313262
 21
140.1507527487249
 31
0.0
  0
LINE
  5
1EC
  8
1
  6
CONTINUOUS
 62
     7
 10
622.803513274237
 20
140.25
 30
0.0
 11
622.8152809775611
 21
140.1217844557837
 31
0.0
  0
ARC
  5
1ED
  8
1
  6
CONTINUOUS
 62
     7
 10
622.607102204235
 20
140.2352644490924
 30
0.0
 40
0.1852992080825477
 50
231.77385191955
 51
332.8654030933405
  0
LINE
  5
1EE
  8
1
  6
CONTINUOUS
 62
     7
 10
662.803513274237
 20
140.25
 30
0.0
 11
662.7720069313262
 21
140.1507527487249
 31
0.0
  0
ARC
  5
1EF
  8
1
  6
CONTINUOUS
 62
     7
 10
628.5918919345556
 20
71.75468815560464
 30
0.0
 40
0.1946210792395416
 50
45.03888680011238
 51
181.3803104745336
  0
ARC
  5
1F0
  8
1
  6
CONTINUOUS
 62
     7
 10
632.607102204235
 20
140.2352644490923
 30
0.0
 40
0.185299208082497
 50
231.7738519195446
 51
332.8654030933711
  0
LINE
  5
1F1
  8
1
  6
CONTINUOUS
 62
     7
 10
658.3973273291164
 20
71.75000000000006
 30
0.0
 11
658.396361921499
 21
71.7603580434831
 31
0.0
  0
LINE
  5
1F2
  8
1
  6
CONTINUOUS
 62
     7
 10
718.3973273291163
 20
71.75000000000006
 30
0.0
 11
718.3963619214989
 21
71.7603580434831
 31
0.0
  0
LINE
  5
1F3
  8
1
  6
CONTINUOUS
 62
     7
 10
652.8035132742372
 20
140.25
 30
0.0
 11
652.8152809775611
 21
140.1217844557836
 31
0.0
  0
POLYLINE
  5
1F4
  8
1
  6
CONTINUOUS
 62
     7
 66
     1
 10
0.0
 20
0.0
 30
0.0
  0
VERTEX
  5
357
  8
1
  6
CONTINUOUS
 62
     7
 10
652.4924451742372
 20
140.0896981
 30
0.0
  0
VERTEX
  5
358
  8
1
  6
CONTINUOUS
 62
     7
 10
652.4911631205352
 20
140.0906543846035
 30
0.0
  0
VERTEX
  5
359
  8
1
  6
CONTINUOUS
 62
     7
 10
652.4898871162775
 20
140.0916199327989
 30
0.0
  0
VERTEX
  5
35A
  8
1
  6
CONTINUOUS
 62
     7
 10
652.4886172388236
 20
140.0925946672264
 30
0.0
  0
VERTEX
  5
35B
  8
1
  6
CONTINUOUS
 62
     7
 10
652.4873535655337
 20
140.0935785105259
 30
0.0
  0
VERTEX
  5
35C
  8
1
  6
CONTINUOUS
 62
     7
 10
652.4860961737679
 20
140.0945713853376
 30
0.0
  0
VERTEX
  5
35D
  8
1
  6
CONTINUOUS
 62
     7
 10
652.484845140886
 20
140.0955732143013
 30
0.0
  0
VERTEX
  5
35E
  8
1
  6
CONTINUOUS
 62
     7
 10
652.483600544248
 20
140.0965839200572
 30
0.0
  0
VERTEX
  5
35F
  8
1
  6
CONTINUOUS
 62
     7
 10
652.4823624612138
 20
140.0976034252452
 30
0.0
  0
VERTEX
  5
360
  8
1
  6
CONTINUOUS
 62
     7
 10
652.4811309691436
 20
140.0986316525054
 30
0.0
  0
VERTEX
  5
361
  8
1
  6
CONTINUOUS
 62
     7
 10
652.4799061453972
 20
140.0996685244778
 30
0.0
  0
VERTEX
  5
362
  8
1
  6
CONTINUOUS
 62
     7
 10
652.4786880673347
 20
140.1007139638024
 30
0.0
  0
VERTEX
  5
363
  8
1
  6
CONTINUOUS
 62
     7
 10
652.4774768123158
 20
140.1017678931192
 30
0.0
  0
VERTEX
  5
364
  8
1
  6
CONTINUOUS
 62
     7
 10
652.4762724577008
 20
140.1028302350684
 30
0.0
  0
VERTEX
  5
365
  8
1
  6
CONTINUOUS
 62
     7
 10
652.4750750808498
 20
140.1039009122898
 30
0.0
  0
VERTEX
  5
366
  8
1
  6
CONTINUOUS
 62
     7
 10
652.4738847591223
 20
140.1049798474235
 30
0.0
  0
VERTEX
  5
367
  8
1
  6
CONTINUOUS
 62
     7
 10
652.4727015698786
 20
140.1060669631095
 30
0.0
  0
VERTEX
  5
368
  8
1
  6
CONTINUOUS
 62
     7
 10
652.4715255904784
 20
140.1071621819879
 30
0.0
  0
VERTEX
  5
369
  8
1
  6
CONTINUOUS
 62
     7
 10
652.470356898282
 20
140.1082654266987
 30
0.0
  0
VERTEX
  5
36A
  8
1
  6
CONTINUOUS
 62
     7
 10
652.4691955706494
 20
140.1093766198819
 30
0.0
  0
VERTEX
  5
36B
  8
1
  6
CONTINUOUS
 62
     7
 10
652.4680416849403
 20
140.1104956841775
 30
0.0
  0
VERTEX
  5
36C
  8
1
  6
CONTINUOUS
 62
     7
 10
652.4668953185148
 20
140.1116225422256
 30
0.0
  0
VERTEX
  5
36D
  8
1
  6
CONTINUOUS
 62
     7
 10
652.4657565487328
 20
140.1127571166661
 30
0.0
  0
VERTEX
  5
36E
  8
1
  6
CONTINUOUS
 62
     7
 10
652.4646254529542
 20
140.1138993301391
 30
0.0
  0
VERTEX
  5
36F
  8
1
  6
CONTINUOUS
 62
     7
 10
652.4635021085394
 20
140.1150491052846
 30
0.0
  0
SEQEND
  5
428
  8
1
  6
CONTINUOUS
 62
     7
  0
LINE
  5
1F5
  8
1
  6
CONTINUOUS
 62
     7
 10
688.7294163862831
 20
71.89239941028674
 30
0.0
 11
688.7956458339086
 21
71.75000000000172
 31
0.0
  0
LINE
  5
1F6
  8
1
  6
CONTINUOUS
 62
     7
 10
642.8035132742372
 20
140.25
 30
0.0
 11
642.8152809775611
 21
140.1217844557837
 31
0.0
  0
LINE
  5
1F7
  8
1
  6
CONTINUOUS
 62
     7
 10
638.729416386136
 20
71.89239941041741
 30
0.0
 11
638.7956458339086
 21
71.75000000000173
 31
0.0
  0
LINE
  5
1F8
  8
1
  6
CONTINUOUS
 62
     7
 10
642.8035132742372
 20
140.25
 30
0.0
 11
642.7720069313262
 21
140.1507527487249
 31
0.0
  0
POLYLINE
  5
1F9
  8
1
  6
CONTINUOUS
 62
     7
 66
     1
 10
0.0
 20
0.0
 30
0.0
  0
VERTEX
  5
370
  8
1
  6
CONTINUOUS
 62
     7
 10
642.4924451742372
 20
140.0896981
 30
0.0
  0
VERTEX
  5
371
  8
1
  6
CONTINUOUS
 62
     7
 10
642.4911631206122
 20
140.0906543845457
 30
0.0
  0
VERTEX
  5
372
  8
1
  6
CONTINUOUS
 62
     7
 10
642.4898871164304
 20
140.0916199326823
 30
0.0
  0
VERTEX
  5
373
  8
1
  6
CONTINUOUS
 62
     7
 10
642.488617239052
 20
140.0925946670499
 30
0.0
  0
VERTEX
  5
374
  8
1
  6
CONTINUOUS
 62
     7
 10
642.4873535658367
 20
140.0935785102884
 30
0.0
  0
VERTEX
  5
375
  8
1
  6
CONTINUOUS
 62
     7
 10
642.4860961741448
 20
140.094571385038
 30
0.0
  0
VERTEX
  5
376
  8
1
  6
CONTINUOUS
 62
     7
 10
642.4848451413359
 20
140.0955732139386
 30
0.0
  0
VERTEX
  5
377
  8
1
  6
CONTINUOUS
 62
     7
 10
642.4836005447701
 20
140.0965839196303
 30
0.0
  0
VERTEX
  5
378
  8
1
  6
CONTINUOUS
 62
     7
 10
642.4823624618074
 20
140.0976034247531
 30
0.0
  0
VERTEX
  5
379
  8
1
  6
CONTINUOUS
 62
     7
 10
642.4811309698077
 20
140.098631651947
 30
0.0
  0
VERTEX
  5
37A
  8
1
  6
CONTINUOUS
 62
     7
 10
642.4799061461312
 20
140.0996685238522
 30
0.0
  0
VERTEX
  5
37B
  8
1
  6
CONTINUOUS
 62
     7
 10
642.4786880681374
 20
140.1007139631086
 30
0.0
  0
VERTEX
  5
37C
  8
1
  6
CONTINUOUS
 62
     7
 10
642.4774768131869
 20
140.1017678923563
 30
0.0
  0
VERTEX
  5
37D
  8
1
  6
CONTINUOUS
 62
     7
 10
642.476272458639
 20
140.1028302342353
 30
0.0
  0
VERTEX
  5
37E
  8
1
  6
CONTINUOUS
 62
     7
 10
642.475075081854
 20
140.1039009113856
 30
0.0
  0
VERTEX
  5
37F
  8
1
  6
CONTINUOUS
 62
     7
 10
642.4738847601918
 20
140.1049798464473
 30
0.0
  0
VERTEX
  5
380
  8
1
  6
CONTINUOUS
 62
     7
 10
642.4727015710125
 20
140.1060669620605
 30
0.0
  0
VERTEX
  5
381
  8
1
  6
CONTINUOUS
 62
     7
 10
642.4715255916759
 20
140.107162180865
 30
0.0
  0
VERTEX
  5
382
  8
1
  6
CONTINUOUS
 62
     7
 10
642.4703568995421
 20
140.1082654255011
 30
0.0
  0
VERTEX
  5
383
  8
1
  6
CONTINUOUS
 62
     7
 10
642.4691955719709
 20
140.1093766186088
 30
0.0
  0
VERTEX
  5
384
  8
1
  6
CONTINUOUS
 62
     7
 10
642.4680416863224
 20
140.1104956828279
 30
0.0
  0
VERTEX
  5
385
  8
1
  6
CONTINUOUS
 62
     7
 10
642.4668953199564
 20
140.1116225407987
 30
0.0
  0
VERTEX
  5
386
  8
1
  6
CONTINUOUS
 62
     7
 10
642.465756550233
 20
140.1127571151612
 30
0.0
  0
VERTEX
  5
387
  8
1
  6
CONTINUOUS
 62
     7
 10
642.4646254545121
 20
140.1138993285553
 30
0.0
  0
VERTEX
  5
388
  8
1
  6
CONTINUOUS
 62
     7
 10
642.4635021101537
 20
140.1150491036211
 30
0.0
  0
SEQEND
  5
429
  8
1
  6
CONTINUOUS
 62
     7
  0
LINE
  5
1FA
  8
1
  6
CONTINUOUS
 62
     7
 10
632.803513274237
 20
140.25
 30
0.0
 11
632.8152809775611
 21
140.1217844557837
 31
0.0
  0
LINE
  5
1FB
  8
1
  6
CONTINUOUS
 62
     7
 10
648.7294163862225
 20
71.89239941034069
 30
0.0
 11
648.7956458339086
 21
71.75000000000173
 31
0.0
  0
LINE
  5
1FC
  8
1
  6
CONTINUOUS
 62
     7
 10
708.3973273291163
 20
71.75000000000004
 30
0.0
 11
708.3963619214989
 21
71.76035804348308
 31
0.0
  0
POLYLINE
  5
1FD
  8
1
  6
CONTINUOUS
 62
     7
 66
     1
 10
0.0
 20
0.0
 30
0.0
  0
VERTEX
  5
389
  8
1
  6
CONTINUOUS
 62
     7
 10
702.4924451742371
 20
140.0896981
 30
0.0
  0
VERTEX
  5
38A
  8
1
  6
CONTINUOUS
 62
     7
 10
702.491163120612
 20
140.0906543845457
 30
0.0
  0
VERTEX
  5
38B
  8
1
  6
CONTINUOUS
 62
     7
 10
702.4898871164303
 20
140.0916199326823
 30
0.0
  0
VERTEX
  5
38C
  8
1
  6
CONTINUOUS
 62
     7
 10
702.4886172390519
 20
140.0925946670499
 30
0.0
  0
VERTEX
  5
38D
  8
1
  6
CONTINUOUS
 62
     7
 10
702.4873535658367
 20
140.0935785102884
 30
0.0
  0
VERTEX
  5
38E
  8
1
  6
CONTINUOUS
 62
     7
 10
702.4860961741447
 20
140.094571385038
 30
0.0
  0
VERTEX
  5
38F
  8
1
  6
CONTINUOUS
 62
     7
 10
702.4848451413359
 20
140.0955732139386
 30
0.0
  0
VERTEX
  5
390
  8
1
  6
CONTINUOUS
 62
     7
 10
702.4836005447702
 20
140.0965839196302
 30
0.0
  0
VERTEX
  5
391
  8
1
  6
CONTINUOUS
 62
     7
 10
702.4823624618074
 20
140.097603424753
 30
0.0
  0
VERTEX
  5
392
  8
1
  6
CONTINUOUS
 62
     7
 10
702.4811309698077
 20
140.098631651947
 30
0.0
  0
VERTEX
  5
393
  8
1
  6
CONTINUOUS
 62
     7
 10
702.479906146131
 20
140.0996685238522
 30
0.0
  0
VERTEX
  5
394
  8
1
  6
CONTINUOUS
 62
     7
 10
702.4786880681376
 20
140.1007139631086
 30
0.0
  0
VERTEX
  5
395
  8
1
  6
CONTINUOUS
 62
     7
 10
702.4774768131869
 20
140.1017678923563
 30
0.0
  0
VERTEX
  5
396
  8
1
  6
CONTINUOUS
 62
     7
 10
702.476272458639
 20
140.1028302342353
 30
0.0
  0
VERTEX
  5
397
  8
1
  6
CONTINUOUS
 62
     7
 10
702.4750750818542
 20
140.1039009113856
 30
0.0
  0
VERTEX
  5
398
  8
1
  6
CONTINUOUS
 62
     7
 10
702.4738847601918
 20
140.1049798464473
 30
0.0
  0
VERTEX
  5
399
  8
1
  6
CONTINUOUS
 62
     7
 10
702.4727015710127
 20
140.1060669620605
 30
0.0
  0
VERTEX
  5
39A
  8
1
  6
CONTINUOUS
 62
     7
 10
702.4715255916758
 20
140.107162180865
 30
0.0
  0
VERTEX
  5
39B
  8
1
  6
CONTINUOUS
 62
     7
 10
702.4703568995423
 20
140.1082654255012
 30
0.0
  0
VERTEX
  5
39C
  8
1
  6
CONTINUOUS
 62
     7
 10
702.4691955719709
 20
140.1093766186088
 30
0.0
  0
VERTEX
  5
39D
  8
1
  6
CONTINUOUS
 62
     7
 10
702.4680416863225
 20
140.110495682828
 30
0.0
  0
VERTEX
  5
39E
  8
1
  6
CONTINUOUS
 62
     7
 10
702.4668953199564
 20
140.1116225407987
 30
0.0
  0
VERTEX
  5
39F
  8
1
  6
CONTINUOUS
 62
     7
 10
702.4657565502329
 20
140.1127571151612
 30
0.0
  0
VERTEX
  5
3A0
  8
1
  6
CONTINUOUS
 62
     7
 10
702.4646254545121
 20
140.1138993285553
 30
0.0
  0
VERTEX
  5
3A1
  8
1
  6
CONTINUOUS
 62
     7
 10
702.4635021101537
 20
140.1150491036211
 30
0.0
  0
SEQEND
  5
42A
  8
1
  6
CONTINUOUS
 62
     7
  0
LINE
  5
1FE
  8
1
  6
CONTINUOUS
 62
     7
 10
652.8035132742372
 20
140.25
 30
0.0
 11
652.7720069313262
 21
140.1507527487249
 31
0.0
  0
ARC
  5
1FF
  8
1
  6
CONTINUOUS
 62
     7
 10
652.6071022042352
 20
140.2352644490924
 30
0.0
 40
0.185299208082535
 50
231.7738519195499
 51
332.8654030933483
  0
ARC
  5
200
  8
1
  6
CONTINUOUS
 62
     7
 10
718.5918919345473
 20
71.75468815561177
 30
0.0
 40
0.1946210792312782
 50
45.03888684319099
 51
181.3803104766928
  0
LINE
  5
201
  8
1
  6
CONTINUOUS
 62
     7
 10
682.8035132742372
 20
140.25
 30
0.0
 11
682.8152809775611
 21
140.1217844557837
 31
0.0
  0
ARC
  5
202
  8
1
  6
CONTINUOUS
 62
     7
 10
638.5918919345561
 20
71.75468815560424
 30
0.0
 40
0.1946210792399766
 50
45.03888679765959
 51
181.3803104744202
  0
ARC
  5
203
  8
1
  6
CONTINUOUS
 62
     7
 10
712.607102204235
 20
140.2352644490923
 30
0.0
 40
0.185299208082535
 50
231.7738519195393
 51
332.8654030933483
  0
LINE
  5
204
  8
1
  6
CONTINUOUS
 62
     7
 10
638.3973273291164
 20
71.75000000000006
 30
0.0
 11
638.396361921499
 21
71.76035804348311
 31
0.0
  0
LINE
  5
205
  8
1
  6
CONTINUOUS
 62
     7
 10
632.803513274237
 20
140.25
 30
0.0
 11
632.7720069313262
 21
140.150752748725
 31
0.0
  0
ARC
  5
206
  8
1
  6
CONTINUOUS
 62
     7
 10
708.5918919345755
 20
71.75468815558813
 30
0.0
 40
0.1946210792590114
 50
45.03888669936839
 51
181.3803104695363
  0
ARC
  5
207
  8
1
  6
CONTINUOUS
 62
     7
 10
702.607102204235
 20
140.2352644490925
 30
0.0
 40
0.1852992080826718
 50
231.7738519195711
 51
332.865403093341
  0
POLYLINE
  5
208
  8
1
  6
CONTINUOUS
 62
     7
 66
     1
 10
0.0
 20
0.0
 30
0.0
  0
VERTEX
  5
3A2
  8
1
  6
CONTINUOUS
 62
     7
 10
712.4924451742371
 20
140.0896981
 30
0.0
  0
VERTEX
  5
3A3
  8
1
  6
CONTINUOUS
 62
     7
 10
712.4911631256142
 20
140.0906543807878
 30
0.0
  0
VERTEX
  5
3A4
  8
1
  6
CONTINUOUS
 62
     7
 10
712.4898871263866
 20
140.0916199250944
 30
0.0
  0
VERTEX
  5
3A5
  8
1
  6
CONTINUOUS
 62
     7
 10
712.4886172539138
 20
140.0925946555607
 30
0.0
  0
VERTEX
  5
3A6
  8
1
  6
CONTINUOUS
 62
     7
 10
712.487353585555
 20
140.0935784948276
 30
0.0
  0
VERTEX
  5
3A7
  8
1
  6
CONTINUOUS
 62
     7
 10
712.4860961986691
 20
140.0945713655361
 30
0.0
  0
VERTEX
  5
3A8
  8
1
  6
CONTINUOUS
 62
     7
 10
712.4848451706149
 20
140.0955731903272
 30
0.0
  0
VERTEX
  5
3A9
  8
1
  6
CONTINUOUS
 62
     7
 10
712.4836005787517
 20
140.0965838918417
 30
0.0
  0
VERTEX
  5
3AA
  8
1
  6
CONTINUOUS
 62
     7
 10
712.4823625004386
 20
140.0976033927206
 30
0.0
  0
VERTEX
  5
3AB
  8
1
  6
CONTINUOUS
 62
     7
 10
712.4811310130345
 20
140.0986316156049
 30
0.0
  0
VERTEX
  5
3AC
  8
1
  6
CONTINUOUS
 62
     7
 10
712.4799061938986
 20
140.0996684831355
 30
0.0
  0
VERTEX
  5
3AD
  8
1
  6
CONTINUOUS
 62
     7
 10
712.47868812039
 20
140.1007139179533
 30
0.0
  0
VERTEX
  5
3AE
  8
1
  6
CONTINUOUS
 62
     7
 10
712.4774768698674
 20
140.1017678426994
 30
0.0
  0
VERTEX
  5
3AF
  8
1
  6
CONTINUOUS
 62
     7
 10
712.4762725196902
 20
140.1028301800146
 30
0.0
  0
VERTEX
  5
3B0
  8
1
  6
CONTINUOUS
 62
     7
 10
712.4750751472175
 20
140.1039008525399
 30
0.0
  0
VERTEX
  5
3B1
  8
1
  6
CONTINUOUS
 62
     7
 10
712.473884829808
 20
140.1049797829162
 30
0.0
  0
VERTEX
  5
3B2
  8
1
  6
CONTINUOUS
 62
     7
 10
712.4727016448212
 20
140.1060668937845
 30
0.0
  0
VERTEX
  5
3B3
  8
1
  6
CONTINUOUS
 62
     7
 10
712.4715256696156
 20
140.1071621077857
 30
0.0
  0
VERTEX
  5
3B4
  8
1
  6
CONTINUOUS
 62
     7
 10
712.4703569815507
 20
140.1082653475608
 30
0.0
  0
VERTEX
  5
3B5
  8
1
  6
CONTINUOUS
 62
     7
 10
712.4691956579852
 20
140.1093765357506
 30
0.0
  0
VERTEX
  5
3B6
  8
1
  6
CONTINUOUS
 62
     7
 10
712.4680417762787
 20
140.1104955949963
 30
0.0
  0
VERTEX
  5
3B7
  8
1
  6
CONTINUOUS
 62
     7
 10
712.4668954137899
 20
140.1116224479386
 30
0.0
  0
VERTEX
  5
3B8
  8
1
  6
CONTINUOUS
 62
     7
 10
712.4657566478778
 20
140.1127570172186
 30
0.0
  0
VERTEX
  5
3B9
  8
1
  6
CONTINUOUS
 62
     7
 10
712.4646255559018
 20
140.1138992254772
 30
0.0
  0
VERTEX
  5
3BA
  8
1
  6
CONTINUOUS
 62
     7
 10
712.4635022152205
 20
140.1150489953552
 30
0.0
  0
SEQEND
  5
42B
  8
1
  6
CONTINUOUS
 62
     7
  0
LINE
  5
209
  8
1
  6
CONTINUOUS
 62
     7
 10
658.7294163860095
 20
71.8923994105298
 30
0.0
 11
658.7956458339085
 21
71.7500000000017
 31
0.0
  0
ARC
  5
20A
  8
1
  6
CONTINUOUS
 62
     7
 10
658.5918919345471
 20
71.75468815561186
 30
0.0
 40
0.1946210792311693
 50
45.03888684394791
 51
181.3803104767181
  0
LINE
  5
20B
  8
1
  6
CONTINUOUS
 62
     7
 10
648.3973273291164
 20
71.75000000000003
 30
0.0
 11
648.396361921499
 21
71.7603580434831
 31
0.0
  0
ARC
  5
20C
  8
1
  6
CONTINUOUS
 62
     7
 10
648.5918919345623
 20
71.75468815559908
 30
0.0
 40
0.194621079246068
 50
45.0388867660505
 51
181.3803104728607
  0
ARC
  5
20D
  8
1
  6
CONTINUOUS
 62
     7
 10
642.607102204235
 20
140.2352644490923
 30
0.0
 40
0.1852992080824843
 50
231.7738519195341
 51
332.8654030933787
  0
LINE
  5
20E
  8
1
  6
CONTINUOUS
 62
     7
 10
712.803513274237
 20
140.25
 30
0.0
 11
712.7720069313262
 21
140.1507527487249
 31
0.0
  0
POLYLINE
  5
20F
  8
1
  6
CONTINUOUS
 62
     7
 66
     1
 10
0.0
 20
0.0
 30
0.0
  0
VERTEX
  5
3BB
  8
1
  6
CONTINUOUS
 62
     7
 10
632.4924451742372
 20
140.0896981
 30
0.0
  0
VERTEX
  5
3BC
  8
1
  6
CONTINUOUS
 62
     7
 10
632.4911631206319
 20
140.0906543845309
 30
0.0
  0
VERTEX
  5
3BD
  8
1
  6
CONTINUOUS
 62
     7
 10
632.4898871164697
 20
140.0916199326525
 30
0.0
  0
VERTEX
  5
3BE
  8
1
  6
CONTINUOUS
 62
     7
 10
632.4886172391105
 20
140.0925946670047
 30
0.0
  0
VERTEX
  5
3BF
  8
1
  6
CONTINUOUS
 62
     7
 10
632.4873535659144
 20
140.0935785102276
 30
0.0
  0
VERTEX
  5
3C0
  8
1
  6
CONTINUOUS
 62
     7
 10
632.4860961742413
 20
140.0945713849613
 30
0.0
  0
VERTEX
  5
3C1
  8
1
  6
CONTINUOUS
 62
     7
 10
632.484845141451
 20
140.0955732138457
 30
0.0
  0
VERTEX
  5
3C2
  8
1
  6
CONTINUOUS
 62
     7
 10
632.4836005449039
 20
140.0965839195209
 30
0.0
  0
VERTEX
  5
3C3
  8
1
  6
CONTINUOUS
 62
     7
 10
632.4823624619594
 20
140.097603424627
 30
0.0
  0
VERTEX
  5
3C4
  8
1
  6
CONTINUOUS
 62
     7
 10
632.4811309699779
 20
140.098631651804
 30
0.0
  0
VERTEX
  5
3C5
  8
1
  6
CONTINUOUS
 62
     7
 10
632.4799061463192
 20
140.099668523692
 30
0.0
  0
VERTEX
  5
3C6
  8
1
  6
CONTINUOUS
 62
     7
 10
632.4786880683431
 20
140.1007139629309
 30
0.0
  0
VERTEX
  5
3C7
  8
1
  6
CONTINUOUS
 62
     7
 10
632.4774768134098
 20
140.1017678921609
 30
0.0
  0
VERTEX
  5
3C8
  8
1
  6
CONTINUOUS
 62
     7
 10
632.4762724588793
 20
140.102830234022
 30
0.0
  0
VERTEX
  5
3C9
  8
1
  6
CONTINUOUS
 62
     7
 10
632.4750750821112
 20
140.1039009111541
 30
0.0
  0
VERTEX
  5
3CA
  8
1
  6
CONTINUOUS
 62
     7
 10
632.4738847604657
 20
140.1049798461974
 30
0.0
  0
VERTEX
  5
3CB
  8
1
  6
CONTINUOUS
 62
     7
 10
632.472701571303
 20
140.1060669617918
 30
0.0
  0
VERTEX
  5
3CC
  8
1
  6
CONTINUOUS
 62
     7
 10
632.4715255919828
 20
140.1071621805776
 30
0.0
  0
VERTEX
  5
3CD
  8
1
  6
CONTINUOUS
 62
     7
 10
632.4703568998648
 20
140.1082654251945
 30
0.0
  0
VERTEX
  5
3CE
  8
1
  6
CONTINUOUS
 62
     7
 10
632.4691955723092
 20
140.1093766182827
 30
0.0
  0
VERTEX
  5
3CF
  8
1
  6
CONTINUOUS
 62
     7
 10
632.4680416866763
 20
140.1104956824824
 30
0.0
  0
VERTEX
  5
3D0
  8
1
  6
CONTINUOUS
 62
     7
 10
632.4668953203256
 20
140.1116225404334
 30
0.0
  0
VERTEX
  5
3D1
  8
1
  6
CONTINUOUS
 62
     7
 10
632.4657565506172
 20
140.1127571147759
 30
0.0
  0
VERTEX
  5
3D2
  8
1
  6
CONTINUOUS
 62
     7
 10
632.464625454911
 20
140.1138993281498
 30
0.0
  0
VERTEX
  5
3D3
  8
1
  6
CONTINUOUS
 62
     7
 10
632.4635021105671
 20
140.1150491031952
 30
0.0
  0
SEQEND
  5
42C
  8
1
  6
CONTINUOUS
 62
     7
  0
LINE
  5
210
  8
1
  6
CONTINUOUS
 62
     7
 10
708.729416386405
 20
71.89239941017871
 30
0.0
 11
708.7956458339087
 21
71.75000000000173
 31
0.0
  0
LINE
  5
211
  8
1
  6
CONTINUOUS
 62
     7
 10
702.8035132742372
 20
140.25
 30
0.0
 11
702.8152809775611
 21
140.1217844557837
 31
0.0
  0
LINE
  5
212
  8
1
  6
CONTINUOUS
 62
     7
 10
702.8035132742372
 20
140.25
 30
0.0
 11
702.7720069313264
 21
140.150752748725
 31
0.0
  0
LINE
  5
213
  8
1
  6
CONTINUOUS
 62
     7
 10
712.8035132742372
 20
140.25
 30
0.0
 11
712.8152809775611
 21
140.1217844557837
 31
0.0
  0
ARC
  5
214
  8
1
  6
CONTINUOUS
 62
     7
 10
688.5918919345667
 20
71.75468815559547
 30
0.0
 40
0.194621079250309
 50
45.03888674383085
 51
181.3803104717599
  0
LINE
  5
215
  8
1
  6
CONTINUOUS
 62
     7
 10
672.8035132742372
 20
140.25
 30
0.0
 11
672.8152809775612
 21
140.1217844557836
 31
0.0
  0
LINE
  5
216
  8
1
  6
CONTINUOUS
 62
     7
 10
738.7294163861336
 20
71.8923994104195
 30
0.0
 11
738.7956458339086
 21
71.75000000000173
 31
0.0
  0
ARC
  5
217
  8
1
  6
CONTINUOUS
 62
     7
 10
678.5918919345554
 20
71.75468815560492
 30
0.0
 40
0.194621079239216
 50
45.0388868014992
 51
181.3803104746258
  0
LINE
  5
218
  8
1
  6
CONTINUOUS
 62
     7
 10
672.8035132742372
 20
140.25
 30
0.0
 11
672.7720069313264
 21
140.150752748725
 31
0.0
  0
ARC
  5
219
  8
1
  6
CONTINUOUS
 62
     7
 10
682.607102204235
 20
140.2352644490924
 30
0.0
 40
0.1852992080826464
 50
231.7738519195552
 51
332.8654030933563
  0
POLYLINE
  5
21A
  8
1
  6
CONTINUOUS
 62
     7
 66
     1
 10
0.0
 20
0.0
 30
0.0
  0
VERTEX
  5
3D4
  8
1
  6
CONTINUOUS
 62
     7
 10
672.4924451742371
 20
140.0896981
 30
0.0
  0
VERTEX
  5
3D5
  8
1
  6
CONTINUOUS
 62
     7
 10
672.4911631233359
 20
140.0906543824993
 30
0.0
  0
VERTEX
  5
3D6
  8
1
  6
CONTINUOUS
 62
     7
 10
672.4898871218521
 20
140.0916199285503
 30
0.0
  0
VERTEX
  5
3D7
  8
1
  6
CONTINUOUS
 62
     7
 10
672.4886172471452
 20
140.0925946607933
 30
0.0
  0
VERTEX
  5
3D8
  8
1
  6
CONTINUOUS
 62
     7
 10
672.4873535765747
 20
140.093578501869
 30
0.0
  0
VERTEX
  5
3D9
  8
1
  6
CONTINUOUS
 62
     7
 10
672.4860961874997
 20
140.094571374418
 30
0.0
  0
VERTEX
  5
3DA
  8
1
  6
CONTINUOUS
 62
     7
 10
672.4848451572801
 20
140.0955732010807
 30
0.0
  0
VERTEX
  5
3DB
  8
1
  6
CONTINUOUS
 62
     7
 10
672.4836005632751
 20
140.0965839044977
 30
0.0
  0
VERTEX
  5
3DC
  8
1
  6
CONTINUOUS
 62
     7
 10
672.4823624828446
 20
140.0976034073094
 30
0.0
  0
VERTEX
  5
3DD
  8
1
  6
CONTINUOUS
 62
     7
 10
672.4811309933476
 20
140.0986316321565
 30
0.0
  0
VERTEX
  5
3DE
  8
1
  6
CONTINUOUS
 62
     7
 10
672.4799061721435
 20
140.0996685016794
 30
0.0
  0
VERTEX
  5
3DF
  8
1
  6
CONTINUOUS
 62
     7
 10
672.4786880965921
 20
140.1007139385188
 30
0.0
  0
VERTEX
  5
3E0
  8
1
  6
CONTINUOUS
 62
     7
 10
672.477476844053
 20
140.1017678653151
 30
0.0
  0
VERTEX
  5
3E1
  8
1
  6
CONTINUOUS
 62
     7
 10
672.4762724918851
 20
140.1028302047087
 30
0.0
  0
VERTEX
  5
3E2
  8
1
  6
CONTINUOUS
 62
     7
 10
672.4750751174486
 20
140.1039008793405
 30
0.0
  0
VERTEX
  5
3E3
  8
1
  6
CONTINUOUS
 62
     7
 10
672.4738847981021
 20
140.1049798118507
 30
0.0
  0
VERTEX
  5
3E4
  8
1
  6
CONTINUOUS
 62
     7
 10
672.4727016112058
 20
140.10606692488
 30
0.0
  0
VERTEX
  5
3E5
  8
1
  6
CONTINUOUS
 62
     7
 10
672.4715256341188
 20
140.1071621410688
 30
0.0
  0
VERTEX
  5
3E6
  8
1
  6
CONTINUOUS
 62
     7
 10
672.4703569442008
 20
140.1082653830578
 30
0.0
  0
VERTEX
  5
3E7
  8
1
  6
CONTINUOUS
 62
     7
 10
672.4691956188111
 20
140.1093765734874
 30
0.0
  0
VERTEX
  5
3E8
  8
1
  6
CONTINUOUS
 62
     7
 10
672.468041735309
 20
140.1104956349982
 30
0.0
  0
VERTEX
  5
3E9
  8
1
  6
CONTINUOUS
 62
     7
 10
672.4668953710543
 20
140.1116224902307
 30
0.0
  0
VERTEX
  5
3EA
  8
1
  6
CONTINUOUS
 62
     7
 10
672.4657566034066
 20
140.1127570618254
 30
0.0
  0
VERTEX
  5
3EB
  8
1
  6
CONTINUOUS
 62
     7
 10
672.464625509725
 20
140.1138992724229
 30
0.0
  0
VERTEX
  5
3EC
  8
1
  6
CONTINUOUS
 62
     7
 10
672.463502167369
 20
140.1150490446637
 30
0.0
  0
SEQEND
  5
42D
  8
1
  6
CONTINUOUS
 62
     7
  0
LINE
  5
21B
  8
1
  6
CONTINUOUS
 62
     7
 10
738.3973273291164
 20
71.75000000000006
 30
0.0
 11
738.396361921499
 21
71.76035804348315
 31
0.0
  0
LINE
  5
21C
  8
1
  6
CONTINUOUS
 62
     7
 10
678.3973273291164
 20
71.75000000000004
 30
0.0
 11
678.396361921499
 21
71.76035804348314
 31
0.0
  0
ARC
  5
21D
  8
1
  6
CONTINUOUS
 62
     7
 10
672.607102204235
 20
140.2352644490924
 30
0.0
 40
0.1852992080826338
 50
231.7738519195552
 51
332.865403093364
  0
LINE
  5
21E
  8
1
  6
CONTINUOUS
 62
     7
 10
682.8035132742372
 20
140.25
 30
0.0
 11
682.7720069313264
 21
140.1507527487249
 31
0.0
  0
POLYLINE
  5
21F
  8
1
  6
CONTINUOUS
 62
     7
 66
     1
 10
0.0
 20
0.0
 30
0.0
  0
VERTEX
  5
3ED
  8
1
  6
CONTINUOUS
 62
     7
 10
732.4924451742371
 20
140.0896981
 30
0.0
  0
VERTEX
  5
3EE
  8
1
  6
CONTINUOUS
 62
     7
 10
732.4911631249747
 20
140.0906543812681
 30
0.0
  0
VERTEX
  5
3EF
  8
1
  6
CONTINUOUS
 62
     7
 10
732.489887125114
 20
140.0916199260643
 30
0.0
  0
VERTEX
  5
3F0
  8
1
  6
CONTINUOUS
 62
     7
 10
732.4886172520145
 20
140.0925946570291
 30
0.0
  0
VERTEX
  5
3F1
  8
1
  6
CONTINUOUS
 62
     7
 10
732.4873535830349
 20
140.0935784968036
 30
0.0
  0
VERTEX
  5
3F2
  8
1
  6
CONTINUOUS
 62
     7
 10
732.4860961955345
 20
140.0945713680286
 30
0.0
  0
VERTEX
  5
3F3
  8
1
  6
CONTINUOUS
 62
     7
 10
732.4848451668728
 20
140.0955731933449
 30
0.0
  0
VERTEX
  5
3F4
  8
1
  6
CONTINUOUS
 62
     7
 10
732.4836005744087
 20
140.0965838953933
 30
0.0
  0
VERTEX
  5
3F5
  8
1
  6
CONTINUOUS
 62
     7
 10
732.4823624955012
 20
140.0976033968146
 30
0.0
  0
VERTEX
  5
3F6
  8
1
  6
CONTINUOUS
 62
     7
 10
732.4811310075098
 20
140.0986316202497
 30
0.0
  0
VERTEX
  5
3F7
  8
1
  6
CONTINUOUS
 62
     7
 10
732.4799061877935
 20
140.0996684883394
 30
0.0
  0
VERTEX
  5
3F8
  8
1
  6
CONTINUOUS
 62
     7
 10
732.4786881137115
 20
140.1007139237246
 30
0.0
  0
VERTEX
  5
3F9
  8
1
  6
CONTINUOUS
 62
     7
 10
732.4774768626231
 20
140.101767849046
 30
0.0
  0
VERTEX
  5
3FA
  8
1
  6
CONTINUOUS
 62
     7
 10
732.4762725118873
 20
140.1028301869444
 30
0.0
  0
VERTEX
  5
3FB
  8
1
  6
CONTINUOUS
 62
     7
 10
732.4750751388633
 20
140.1039008600608
 30
0.0
  0
VERTEX
  5
3FC
  8
1
  6
CONTINUOUS
 62
     7
 10
732.4738848209104
 20
140.104979791036
 30
0.0
  0
VERTEX
  5
3FD
  8
1
  6
CONTINUOUS
 62
     7
 10
732.4727016353877
 20
140.1060669025107
 30
0.0
  0
VERTEX
  5
3FE
  8
1
  6
CONTINUOUS
 62
     7
 10
732.4715256596539
 20
140.1071621171258
 30
0.0
  0
VERTEX
  5
3FF
  8
1
  6
CONTINUOUS
 62
     7
 10
732.4703569710694
 20
140.1082653575222
 30
0.0
  0
VERTEX
  5
400
  8
1
  6
CONTINUOUS
 62
     7
 10
732.4691956469919
 20
140.1093765463406
 30
0.0
  0
VERTEX
  5
401
  8
1
  6
CONTINUOUS
 62
     7
 10
732.4680417647817
 20
140.1104956062219
 30
0.0
  0
VERTEX
  5
402
  8
1
  6
CONTINUOUS
 62
     7
 10
732.4668954017975
 20
140.1116224598069
 30
0.0
  0
VERTEX
  5
403
  8
1
  6
CONTINUOUS
 62
     7
 10
732.4657566353982
 20
140.1127570297365
 30
0.0
  0
VERTEX
  5
404
  8
1
  6
CONTINUOUS
 62
     7
 10
732.4646255429434
 20
140.1138992386514
 30
0.0
  0
VERTEX
  5
405
  8
1
  6
CONTINUOUS
 62
     7
 10
732.4635022017922
 20
140.1150490091925
 30
0.0
  0
SEQEND
  5
42E
  8
1
  6
CONTINUOUS
 62
     7
  0
LINE
  5
220
  8
1
  6
CONTINUOUS
 62
     7
 10
728.7294163860397
 20
71.89239941050273
 30
0.0
 11
728.7956458339087
 21
71.75000000000173
 31
0.0
  0
POLYLINE
  5
221
  8
1
  6
CONTINUOUS
 62
     7
 66
     1
 10
0.0
 20
0.0
 30
0.0
  0
VERTEX
  5
406
  8
1
  6
CONTINUOUS
 62
     7
 10
682.4924451742371
 20
140.0896981
 30
0.0
  0
VERTEX
  5
407
  8
1
  6
CONTINUOUS
 62
     7
 10
682.4911631209831
 20
140.0906543842669
 30
0.0
  0
VERTEX
  5
408
  8
1
  6
CONTINUOUS
 62
     7
 10
682.4898871171689
 20
140.0916199321194
 30
0.0
  0
VERTEX
  5
409
  8
1
  6
CONTINUOUS
 62
     7
 10
682.4886172401544
 20
140.0925946661976
 30
0.0
  0
VERTEX
  5
40A
  8
1
  6
CONTINUOUS
 62
     7
 10
682.4873535672996
 20
140.0935785091415
 30
0.0
  0
VERTEX
  5
40B
  8
1
  6
CONTINUOUS
 62
     7
 10
682.486096175964
 20
140.0945713835912
 30
0.0
  0
VERTEX
  5
40C
  8
1
  6
CONTINUOUS
 62
     7
 10
682.4848451435079
 20
140.0955732121869
 30
0.0
  0
VERTEX
  5
40D
  8
1
  6
CONTINUOUS
 62
     7
 10
682.4836005472911
 20
140.0965839175687
 30
0.0
  0
VERTEX
  5
40E
  8
1
  6
CONTINUOUS
 62
     7
 10
682.4823624646733
 20
140.0976034223767
 30
0.0
  0
VERTEX
  5
40F
  8
1
  6
CONTINUOUS
 62
     7
 10
682.4811309730146
 20
140.098631649251
 30
0.0
  0
VERTEX
  5
410
  8
1
  6
CONTINUOUS
 62
     7
 10
682.4799061496749
 20
140.0996685208316
 30
0.0
  0
VERTEX
  5
411
  8
1
  6
CONTINUOUS
 62
     7
 10
682.4786880720139
 20
140.1007139597587
 30
0.0
  0
VERTEX
  5
412
  8
1
  6
CONTINUOUS
 62
     7
 10
682.4774768173917
 20
140.1017678886724
 30
0.0
  0
VERTEX
  5
413
  8
1
  6
CONTINUOUS
 62
     7
 10
682.476272463168
 20
140.1028302302128
 30
0.0
  0
VERTEX
  5
414
  8
1
  6
CONTINUOUS
 62
     7
 10
682.4750750867031
 20
140.1039009070201
 30
0.0
  0
VERTEX
  5
415
  8
1
  6
CONTINUOUS
 62
     7
 10
682.4738847653564
 20
140.1049798417342
 30
0.0
  0
VERTEX
  5
416
  8
1
  6
CONTINUOUS
 62
     7
 10
682.4727015764882
 20
140.1060669569953
 30
0.0
  0
VERTEX
  5
417
  8
1
  6
CONTINUOUS
 62
     7
 10
682.4715255974578
 20
140.1071621754436
 30
0.0
  0
VERTEX
  5
418
  8
1
  6
CONTINUOUS
 62
     7
 10
682.4703569056261
 20
140.1082654197191
 30
0.0
  0
VERTEX
  5
419
  8
1
  6
CONTINUOUS
 62
     7
 10
682.469195578352
 20
140.1093766124619
 30
0.0
  0
VERTEX
  5
41A
  8
1
  6
CONTINUOUS
 62
     7
 10
682.4680416929958
 20
140.1104956763121
 30
0.0
  0
VERTEX
  5
41B
  8
1
  6
CONTINUOUS
 62
     7
 10
682.4668953269176
 20
140.1116225339098
 30
0.0
  0
VERTEX
  5
41C
  8
1
  6
CONTINUOUS
 62
     7
 10
682.465756557477
 20
140.1127571078952
 30
0.0
  0
VERTEX
  5
41D
  8
1
  6
CONTINUOUS
 62
     7
 10
682.4646254620338
 20
140.1138993209083
 30
0.0
  0
VERTEX
  5
41E
  8
1
  6
CONTINUOUS
 62
     7
 10
682.4635021179482
 20
140.1150490955893
 30
0.0
  0
SEQEND
  5
42F
  8
1
  6
CONTINUOUS
 62
     7
  0
LINE
  5
222
  8
1
  6
CONTINUOUS
 62
     7
 10
732.8035132742372
 20
140.25
 30
0.0
 11
732.7720069313262
 21
140.150752748725
 31
0.0
  0
LINE
  5
223
  8
1
  6
CONTINUOUS
 62
     7
 10
732.8035132742372
 20
140.25
 30
0.0
 11
732.815280977561
 21
140.1217844557836
 31
0.0
  0
ARC
  5
224
  8
1
  6
CONTINUOUS
 62
     7
 10
738.5918919345561
 20
71.75468815560441
 30
0.0
 40
0.1946210792398696
 50
45.03888679851764
 51
181.38031047447
  0
ARC
  5
225
  8
1
  6
CONTINUOUS
 62
     7
 10
732.607102204235
 20
140.2352644490925
 30
0.0
 40
0.1852992080826718
 50
231.7738519195711
 51
332.865403093341
  0
LINE
  5
226
  8
1
  6
CONTINUOUS
 62
     7
 10
678.7294163861255
 20
71.89239941042678
 30
0.0
 11
678.7956458339086
 21
71.75000000000173
 31
0.0
  0
LINE
  5
227
  8
1
  6
CONTINUOUS
 62
     7
 10
688.3973273291164
 20
71.75000000000004
 30
0.0
 11
688.396361921499
 21
71.76035804348308
 31
0.0
  0
LINE
  5
228
  8
1
  6
CONTINUOUS
 62
     7
 10
526.1000000000001
 20
71.5
 30
0.0
 11
531.6
 21
71.5
 31
0.0
  0
LINE
  5
229
  8
1
  6
CONTINUOUS
 62
     7
 10
622.682386885767
 20
139.9898791899873
 30
0.0
 11
622.4749540681163
 21
140.0661926941484
 31
0.0
  0
LINE
  5
22A
  8
1
  6
CONTINUOUS
 62
     7
 10
712.6823868857668
 20
139.9898791899873
 30
0.0
 11
712.4749540681161
 21
140.0661926941484
 31
0.0
  0
LINE
  5
22B
  8
1
  6
CONTINUOUS
 62
     7
 10
622.7846089981698
 20
140.0242314847078
 30
0.0
 11
622.682386885767
 21
139.9898791899873
 31
0.0
  0
LINE
  5
22C
  8
1
  6
CONTINUOUS
 62
     7
 10
710.7
 20
139.0360288873426
 30
0.0
 11
710.5
 21
139.0363203083299
 31
0.0
  0
LINE
  5
22D
  8
1
  6
CONTINUOUS
 62
     7
 10
680.7
 20
139.0797419306651
 30
0.0
 11
680.5
 21
139.0800333502471
 31
0.0
  0
LINE
  5
22E
  8
1
  6
CONTINUOUS
 62
     7
 10
632.7846089981698
 20
140.0242314847079
 30
0.0
 11
632.6823868857668
 21
139.9898791899873
 31
0.0
  0
ARC
  5
22F
  8
1
  6
CONTINUOUS
 62
     7
 10
526.1000000000001
 20
72.0
 30
0.0
 40
0.500000000000056
 50
180.0
 51
270.0
  0
LINE
  5
230
  8
1
  6
CONTINUOUS
 62
     7
 10
650.5
 20
72.87625381821275
 30
0.0
 11
650.7
 21
72.87654523639495
 31
0.0
  0
ARC
  5
231
  8
1
  6
CONTINUOUS
 62
     7
 10
531.6
 20
106.0
 30
0.0
 40
33.2
 50
253.0040266925238
 51
259.5881309835298
  0
LINE
  5
232
  8
1
  6
CONTINUOUS
 62
     7
 10
632.6823868857668
 20
139.9898791899873
 30
0.0
 11
632.4749540681163
 21
140.0661926941484
 31
0.0
  0
LINE
  5
233
  8
1
  6
CONTINUOUS
 62
     7
 10
640.5
 20
72.86168292097257
 30
0.0
 11
640.7
 21
72.86197433868941
 31
0.0
  0
LINE
  5
234
  8
1
  6
CONTINUOUS
 62
     7
 10
670.7
 20
139.0943128983131
 30
0.0
 11
670.5000000000001
 21
139.0946043174279
 31
0.0
  0
LINE
  5
235
  8
1
  6
CONTINUOUS
 62
     7
 10
720.7
 20
139.0214578260057
 30
0.0
 11
720.5
 21
139.0217492474626
 31
0.0
  0
LINE
  5
236
  8
1
  6
CONTINUOUS
 62
     7
 10
750.5
 20
73.02196407625883
 30
0.0
 11
750.7
 21
73.02225549912852
 31
0.0
  0
LINE
  5
237
  8
1
  6
CONTINUOUS
 62
     7
 10
740.5
 20
73.00739294480057
 30
0.0
 11
740.7
 21
73.00768436719875
 31
0.0
  0
LINE
  5
238
  8
1
  6
CONTINUOUS
 62
     7
 10
642.682386885767
 20
139.9898791899873
 30
0.0
 11
642.4749540681163
 21
140.0661926941484
 31
0.0
  0
LINE
  5
239
  8
1
  6
CONTINUOUS
 62
     7
 10
690.7
 20
139.0651709396413
 30
0.0
 11
690.5
 21
139.0654623596911
 31
0.0
  0
LINE
  5
23A
  8
1
  6
CONTINUOUS
 62
     7
 10
680.5
 20
72.91996664975294
 30
0.0
 11
680.7
 21
72.92025806933489
 31
0.0
  0
LINE
  5
23B
  8
1
  6
CONTINUOUS
 62
     7
 10
710.5
 20
72.96367969167014
 30
0.0
 11
710.7
 21
72.9639711126574
 31
0.0
  0
ARC
  5
23C
  8
1
  6
CONTINUOUS
 62
     7
 10
531.6
 20
106.0
 30
0.0
 40
33.2
 50
100.4118690164701
 51
106.9959733074761
  0
LINE
  5
23D
  8
1
  6
CONTINUOUS
 62
     7
 10
760.5
 20
73.03653523130981
 30
0.0
 11
760.7
 21
73.03682665465172
 31
0.0
  0
LINE
  5
23E
  8
1
  6
CONTINUOUS
 62
     7
 10
730.7
 20
139.006886741169
 30
0.0
 11
730.5
 21
139.0071781630962
 31
0.0
  0
LINE
  5
23F
  8
1
  6
CONTINUOUS
 62
     7
 10
702.7846089981697
 20
140.0242314847079
 30
0.0
 11
702.6823868857668
 21
139.9898791899873
 31
0.0
  0
LINE
  5
240
  8
1
  6
CONTINUOUS
 62
     7
 10
720.5
 20
72.97825075253739
 30
0.0
 11
720.7
 21
72.97854217399433
 31
0.0
  0
LINE
  5
241
  8
1
  6
CONTINUOUS
 62
     7
 10
712.7846089981697
 20
140.0242314847078
 30
0.0
 11
712.6823868857668
 21
139.9898791899873
 31
0.0
  0
LINE
  5
242
  8
1
  6
CONTINUOUS
 62
     7
 10
760.7
 20
138.9631733453483
 30
0.0
 11
760.5
 21
138.9634647686902
 31
0.0
  0
LINE
  5
243
  8
1
  6
CONTINUOUS
 62
     7
 10
670.5000000000001
 20
72.90539568257215
 30
0.0
 11
670.7
 21
72.90568710168691
 31
0.0
  0
LINE
  5
244
  8
1
  6
CONTINUOUS
 62
     7
 10
662.7846089981698
 20
140.0242314847078
 30
0.0
 11
662.6823868857668
 21
139.9898791899873
 31
0.0
  0
LINE
  5
245
  8
1
  6
CONTINUOUS
 62
     7
 10
700.7
 20
139.0505999252108
 30
0.0
 11
700.5
 21
139.050891345729
 31
0.0
  0
LINE
  5
246
  8
1
  6
CONTINUOUS
 62
     7
 10
642.7846089981698
 20
140.0242314847078
 30
0.0
 11
642.682386885767
 21
139.9898791899873
 31
0.0
  0
ARC
  5
247
  8
1
  6
CONTINUOUS
 62
     7
 10
521.2025597357343
 20
138.25
 30
0.0
 40
0.5000000000000004
 50
180.4999999999997
 51
270.0
  0
LINE
  5
248
  8
1
  6
CONTINUOUS
 62
     7
 10
662.6823868857668
 20
139.9898791899873
 30
0.0
 11
662.4749540681163
 21
140.0661926941484
 31
0.0
  0
LINE
  5
249
  8
1
  6
CONTINUOUS
 62
     7
 10
521.895490738837
 20
137.75
 30
0.0
 11
521.2025597357343
 21
137.75
 31
0.0
  0
ARC
  5
24A
  8
1
  6
CONTINUOUS
 62
     7
 10
531.6
 20
106.0
 30
0.0
 40
34.5
 50
269.9999999999999
 51
276.9017733188687
  0
LINE
  5
24B
  8
1
  6
CONTINUOUS
 62
     7
 10
740.7
 20
138.9923156328013
 30
0.0
 11
740.5
 21
138.9926070551994
 31
0.0
  0
LINE
  5
24C
  8
1
  6
CONTINUOUS
 62
     7
 10
702.6823868857668
 20
139.9898791899873
 30
0.0
 11
702.4749540681162
 21
140.0661926941484
 31
0.0
  0
LINE
  5
24D
  8
1
  6
CONTINUOUS
 62
     7
 10
650.7
 20
139.1234547636051
 30
0.0
 11
650.5
 21
139.1237461817873
 31
0.0
  0
LINE
  5
24E
  8
1
  6
CONTINUOUS
 62
     7
 10
660.5
 20
72.89082473873569
 30
0.0
 11
660.7
 21
72.89111615738383
 31
0.0
  0
LINE
  5
24F
  8
1
  6
CONTINUOUS
 62
     7
 10
730.5
 20
72.99282183690381
 30
0.0
 11
730.7
 21
72.99311325883106
 31
0.0
  0
LINE
  5
250
  8
1
  6
CONTINUOUS
 62
     7
 10
690.5
 20
72.9345376403089
 30
0.0
 11
690.7
 21
72.93482906035867
 31
0.0
  0
LINE
  5
251
  8
1
  6
CONTINUOUS
 62
     7
 10
520.6698149423261
 20
69.99999999999997
 30
0.0
 11
520.7025787742024
 21
73.75436326775514
 31
0.0
  0
LINE
  5
252
  8
1
  6
CONTINUOUS
 62
     7
 10
750.7
 20
138.9777445008715
 30
0.0
 11
750.5
 21
138.9780359237412
 31
0.0
  0
LINE
  5
253
  8
1
  6
CONTINUOUS
 62
     7
 10
660.7
 20
139.1088838426162
 30
0.0
 11
660.5
 21
139.1091752612643
 31
0.0
  0
LINE
  5
254
  8
1
  6
CONTINUOUS
 62
     7
 10
520.6
 20
150.0
 30
0.0
 11
519.4000000000001
 21
150.0
 31
0.0
  0
ARC
  5
255
  8
1
  6
CONTINUOUS
 62
     7
 10
521.2025597357343
 20
73.75000000000001
 30
0.0
 40
0.499999999999946
 50
90.0
 51
179.5000000000004
  0
LINE
  5
256
  8
1
  6
CONTINUOUS
 62
     7
 10
521.2025597357343
 20
74.25000000000001
 30
0.0
 11
521.895490738837
 21
74.25000000000001
 31
0.0
  0
ARC
  5
257
  8
1
  6
CONTINUOUS
 62
     7
 10
531.6
 20
106.0
 30
0.0
 40
34.5
 50
83.09822668113128
 51
90.00000000000009
  0
ARC
  5
258
  8
1
  6
CONTINUOUS
 62
     7
 10
526.1000000000001
 20
140.0
 30
0.0
 40
0.5000000000000004
 50
90.0
 51
180.0
  0
LINE
  5
259
  8
1
  6
CONTINUOUS
 62
     7
 10
531.6
 20
140.5
 30
0.0
 11
526.1000000000001
 21
140.5
 31
0.0
  0
LINE
  5
25A
  8
1
  6
CONTINUOUS
 62
     7
 10
700.5
 20
72.94910865427099
 30
0.0
 11
700.7
 21
72.94940007478917
 31
0.0
  0
LINE
  5
25B
  8
1
  6
CONTINUOUS
 62
     7
 10
752.4035132742372
 20
140.25
 30
0.0
 11
742.8035132742372
 21
140.25
 31
0.0
  0
LINE
  5
25C
  8
1
  6
CONTINUOUS
 62
     7
 10
762.784609032561
 20
140.0242303606647
 30
0.0
 11
762.682385666311
 21
139.989878631383
 31
0.0
  0
LINE
  5
25D
  8
1
  6
CONTINUOUS
 62
     7
 10
692.4035132742372
 20
140.25
 30
0.0
 11
682.8035132742372
 21
140.25
 31
0.0
  0
LINE
  5
25E
  8
1
  6
CONTINUOUS
 62
     7
 10
682.4035132742372
 20
140.25
 30
0.0
 11
672.8035132742372
 21
140.25
 31
0.0
  0
LINE
  5
25F
  8
1
  6
CONTINUOUS
 62
     7
 10
692.6823868857668
 20
139.9898791899873
 30
0.0
 11
692.4749540681162
 21
140.0661926941484
 31
0.0
  0
LINE
  5
260
  8
1
  6
CONTINUOUS
 62
     7
 10
668.7956458339247
 20
71.75
 30
0.0
 11
678.397327329856
 21
71.75
 31
0.0
  0
LINE
  5
261
  8
1
  6
CONTINUOUS
 62
     7
 10
708.7956458339246
 20
71.75
 30
0.0
 11
718.397327329856
 21
71.75
 31
0.0
  0
LINE
  5
262
  8
1
  6
CONTINUOUS
 62
     7
 10
748.7956458339246
 20
71.75
 30
0.0
 11
758.3973273298561
 21
71.75
 31
0.0
  0
LINE
  5
263
  8
1
  6
CONTINUOUS
 62
     7
 10
718.7956458339246
 20
71.75
 30
0.0
 11
728.3973273298559
 21
71.75
 31
0.0
  0
LINE
  5
264
  8
1
  6
CONTINUOUS
 62
     7
 10
648.7956458339247
 20
71.75
 30
0.0
 11
658.397327329856
 21
71.75
 31
0.0
  0
LINE
  5
265
  8
1
  6
CONTINUOUS
 62
     7
 10
672.7846089981697
 20
140.0242314847078
 30
0.0
 11
672.6823868857668
 21
139.9898791899873
 31
0.0
  0
LINE
  5
266
  8
1
  6
CONTINUOUS
 62
     7
 10
652.6823868857668
 20
139.9898791899873
 30
0.0
 11
652.4749540681163
 21
140.0661926941484
 31
0.0
  0
LINE
  5
267
  8
1
  6
CONTINUOUS
 62
     7
 10
642.4035132742372
 20
140.25
 30
0.0
 11
632.803513274237
 21
140.25
 31
0.0
  0
LINE
  5
268
  8
1
  6
CONTINUOUS
 62
     7
 10
722.6823868857667
 20
139.9898791899873
 30
0.0
 11
722.4749540681162
 21
140.0661926941484
 31
0.0
  0
LINE
  5
269
  8
1
  6
CONTINUOUS
 62
     7
 10
698.7956458339247
 20
71.75
 30
0.0
 11
708.397327329856
 21
71.75
 31
0.0
  0
LINE
  5
26A
  8
1
  6
CONTINUOUS
 62
     7
 10
768.795645833925
 20
71.75
 30
0.0
 11
770.6
 21
71.75
 31
0.0
  0
LINE
  5
26B
  8
1
  6
CONTINUOUS
 62
     7
 10
682.6823868857668
 20
139.9898791899873
 30
0.0
 11
682.4749540681163
 21
140.0661926941484
 31
0.0
  0
LINE
  5
26C
  8
1
  6
CONTINUOUS
 62
     7
 10
682.7846089981698
 20
140.0242314847078
 30
0.0
 11
682.6823868857668
 21
139.9898791899873
 31
0.0
  0
LINE
  5
26D
  8
1
  6
CONTINUOUS
 62
     7
 10
678.7956458339247
 20
71.75
 30
0.0
 11
688.397327329856
 21
71.75
 31
0.0
  0
LINE
  5
26E
  8
1
  6
CONTINUOUS
 62
     7
 10
672.6823868857668
 20
139.9898791899873
 30
0.0
 11
672.4749540681163
 21
140.0661926941484
 31
0.0
  0
LINE
  5
26F
  8
1
  6
CONTINUOUS
 62
     7
 10
732.682386885767
 20
139.9898791899873
 30
0.0
 11
732.4749540681162
 21
140.0661926941484
 31
0.0
  0
LINE
  5
270
  8
1
  6
CONTINUOUS
 62
     7
 10
742.6823868857668
 20
139.9898791899873
 30
0.0
 11
742.4749540681163
 21
140.0661926941484
 31
0.0
  0
LINE
  5
271
  8
1
  6
CONTINUOUS
 62
     7
 10
692.7846089981697
 20
140.0242314847078
 30
0.0
 11
692.6823868857668
 21
139.9898791899873
 31
0.0
  0
LINE
  5
272
  8
1
  6
CONTINUOUS
 62
     7
 10
752.7846089981698
 20
140.0242314847078
 30
0.0
 11
752.6823868857668
 21
139.9898791899873
 31
0.0
  0
LINE
  5
273
  8
1
  6
CONTINUOUS
 62
     7
 10
762.682385666311
 20
139.989878631383
 30
0.0
 11
762.4749533893616
 21
140.066193332548
 31
0.0
  0
LINE
  5
274
  8
1
  6
CONTINUOUS
 62
     7
 10
622.4035132742372
 20
140.25
 30
0.0
 11
535.7457809879444
 21
140.25
 31
0.0
  0
LINE
  5
275
  8
1
  6
CONTINUOUS
 62
     7
 10
722.7846089981698
 20
140.0242314847078
 30
0.0
 11
722.6823868857667
 21
139.9898791899873
 31
0.0
  0
LINE
  5
276
  8
1
  6
CONTINUOUS
 62
     7
 10
752.6823868857668
 20
139.9898791899873
 30
0.0
 11
752.4749540681162
 21
140.0661926941484
 31
0.0
  0
LINE
  5
277
  8
1
  6
CONTINUOUS
 62
     7
 10
535.7457809879444
 20
71.75
 30
0.0
 11
628.397327329856
 21
71.75
 31
0.0
  0
LINE
  5
278
  8
1
  6
CONTINUOUS
 62
     7
 10
658.7956458339247
 20
71.75
 30
0.0
 11
668.397327329856
 21
71.75
 31
0.0
  0
LINE
  5
279
  8
1
  6
CONTINUOUS
 62
     7
 10
652.4035132742372
 20
140.25
 30
0.0
 11
642.8035132742372
 21
140.25
 31
0.0
  0
LINE
  5
27A
  8
1
  6
CONTINUOUS
 62
     7
 10
628.7956458339247
 20
71.75
 30
0.0
 11
638.397327329856
 21
71.75
 31
0.0
  0
LINE
  5
27B
  8
1
  6
CONTINUOUS
 62
     7
 10
728.7956458339247
 20
71.75
 30
0.0
 11
738.3973273298559
 21
71.75
 31
0.0
  0
LINE
  5
27C
  8
1
  6
CONTINUOUS
 62
     7
 10
702.4035132742372
 20
140.25
 30
0.0
 11
692.8035132742372
 21
140.25
 31
0.0
  0
LINE
  5
27D
  8
1
  6
CONTINUOUS
 62
     7
 10
688.7956458339247
 20
71.75
 30
0.0
 11
698.397327329856
 21
71.75
 31
0.0
  0
LINE
  5
27E
  8
1
  6
CONTINUOUS
 62
     7
 10
652.7846089981697
 20
140.0242314847078
 30
0.0
 11
652.6823868857668
 21
139.9898791899873
 31
0.0
  0
LINE
  5
27F
  8
1
  6
CONTINUOUS
 62
     7
 10
672.4035132742372
 20
140.25
 30
0.0
 11
662.8035132742372
 21
140.25
 31
0.0
  0
LINE
  5
280
  8
1
  6
CONTINUOUS
 62
     7
 10
632.4035132742372
 20
140.25
 30
0.0
 11
622.803513274237
 21
140.25
 31
0.0
  0
LINE
  5
281
  8
1
  6
CONTINUOUS
 62
     7
 10
662.4035132742372
 20
140.25
 30
0.0
 11
652.8035132742372
 21
140.25
 31
0.0
  0
LINE
  5
282
  8
1
  6
CONTINUOUS
 62
     7
 10
742.7846089981698
 20
140.0242314847078
 30
0.0
 11
742.6823868857668
 21
139.9898791899873
 31
0.0
  0
LINE
  5
283
  8
1
  6
CONTINUOUS
 62
     7
 10
732.4035132742372
 20
140.25
 30
0.0
 11
722.8035132742372
 21
140.25
 31
0.0
  0
LINE
  5
284
  8
1
  6
CONTINUOUS
 62
     7
 10
638.7956458339247
 20
71.75
 30
0.0
 11
648.397327329856
 21
71.75
 31
0.0
  0
LINE
  5
285
  8
1
  6
CONTINUOUS
 62
     7
 10
732.7846089981698
 20
140.0242314847078
 30
0.0
 11
732.682386885767
 21
139.9898791899873
 31
0.0
  0
LINE
  5
286
  8
1
  6
CONTINUOUS
 62
     7
 10
722.4035132742372
 20
140.25
 30
0.0
 11
712.8035132742372
 21
140.25
 31
0.0
  0
LINE
  5
287
  8
1
  6
CONTINUOUS
 62
     7
 10
712.4035132742372
 20
140.25
 30
0.0
 11
702.8035132742372
 21
140.25
 31
0.0
  0
LINE
  5
288
  8
1
  6
CONTINUOUS
 62
     7
 10
770.6
 20
140.25
 30
0.0
 11
762.8035132742372
 21
140.25
 31
0.0
  0
LINE
  5
289
  8
1
  6
CONTINUOUS
 62
     7
 10
762.5793785038304
 20
139.9968006524122
 30
0.0
 11
762.4749379224893
 21
140.0662078812065
 31
0.0
  0
LINE
  5
28A
  8
1
  6
CONTINUOUS
 62
     7
 10
652.5793785038304
 20
139.9968006524122
 30
0.0
 11
652.4749379224892
 21
140.0662078812065
 31
0.0
  0
LINE
  5
28B
  8
1
  6
CONTINUOUS
 62
     7
 10
672.5793785038304
 20
139.9968006524122
 30
0.0
 11
672.4749379224893
 21
140.0662078812065
 31
0.0
  0
LINE
  5
28C
  8
1
  6
CONTINUOUS
 62
     7
 10
692.5793785038303
 20
139.9968006524122
 30
0.0
 11
692.4749379224893
 21
140.0662078812065
 31
0.0
  0
LINE
  5
28D
  8
1
  6
CONTINUOUS
 62
     7
 10
632.5793785038304
 20
139.9968006524122
 30
0.0
 11
632.4749379224892
 21
140.0662078812065
 31
0.0
  0
LINE
  5
28E
  8
1
  6
CONTINUOUS
 62
     7
 10
732.5793785038303
 20
139.9968006524122
 30
0.0
 11
732.4749379224893
 21
140.0662078812065
 31
0.0
  0
LINE
  5
28F
  8
1
  6
CONTINUOUS
 62
     7
 10
742.4035132742373
 20
140.25
 30
0.0
 11
732.8035132742372
 21
140.25
 31
0.0
  0
LINE
  5
290
  8
1
  6
CONTINUOUS
 62
     7
 10
742.5793785038304
 20
139.9968006524122
 30
0.0
 11
742.4749379224893
 21
140.0662078812065
 31
0.0
  0
LINE
  5
291
  8
1
  6
CONTINUOUS
 62
     7
 10
682.5793785038303
 20
139.9968006524122
 30
0.0
 11
682.4749379224893
 21
140.0662078812065
 31
0.0
  0
LINE
  5
292
  8
1
  6
CONTINUOUS
 62
     7
 10
762.4035132742372
 20
140.25
 30
0.0
 11
752.8035132742372
 21
140.25
 31
0.0
  0
LINE
  5
293
  8
1
  6
CONTINUOUS
 62
     7
 10
758.7956458339247
 20
71.75
 30
0.0
 11
768.397327329856
 21
71.75
 31
0.0
  0
LINE
  5
294
  8
1
  6
CONTINUOUS
 62
     7
 10
722.5793785038303
 20
139.9968006524122
 30
0.0
 11
722.4749379224893
 21
140.0662078812065
 31
0.0
  0
LINE
  5
295
  8
1
  6
CENTER
 62
     1
 10
449.0
 20
60.00000000000002
 30
0.0
 11
449.0
 21
152.0
 31
0.0
  0
LINE
  5
297
  8
1
  6
CENTER
 62
     1
 10
403.0
 20
106.0
 30
0.0
 11
495.0
 21
106.0
 31
0.0
  0
LINE
  5
298
  8
1
  6
CONTINUOUS
 62
     7
 10
752.5793785038304
 20
139.9968006524122
 30
0.0
 11
752.4749379224892
 21
140.0662078812065
 31
0.0
  0
LINE
  5
299
  8
1
  6
CENTER
 62
     1
 10
775.0
 20
106.0
 30
0.0
 11
515.0
 21
106.0
 31
0.0
  0
LINE
  5
29A
  8
1
  6
CONTINUOUS
 62
     7
 10
712.5793785038303
 20
139.9968006524122
 30
0.0
 11
712.4749379224893
 21
140.0662078812065
 31
0.0
  0
LINE
  5
29B
  8
1
  6
CONTINUOUS
 62
     7
 10
642.5793785038304
 20
139.9968006524122
 30
0.0
 11
642.4749379224892
 21
140.0662078812065
 31
0.0
  0
LINE
  5
29C
  8
1
  6
CONTINUOUS
 62
     7
 10
738.7956458339246
 20
71.75
 30
0.0
 11
748.3973273298561
 21
71.75
 31
0.0
  0
LINE
  5
29D
  8
1
  6
CONTINUOUS
 62
     7
 10
662.5793785038303
 20
139.9968006524122
 30
0.0
 11
662.4749379224892
 21
140.0662078812065
 31
0.0
  0
LINE
  5
29E
  8
1
  6
CONTINUOUS
 62
     7
 10
622.5793785038304
 20
139.9968006524122
 30
0.0
 11
622.4749379224892
 21
140.0662078812065
 31
0.0
  0
LINE
  5
29F
  8
1
  6
CONTINUOUS
 62
     7
 10
702.5793785038303
 20
139.9968006524122
 30
0.0
 11
702.4749379224893
 21
140.0662078812065
 31
0.0
  0
TEXT
  5
2A0
  8
1
  6
CONTINUOUS
 62
     7
 10
623.0764880580218
 20
58.32842003251219
 30
0.0
 40
3.0
  1
GKPA-65S
  0
ENDSEC
  0
EOF
