  0
SECTION
  2
HEADER
  9
$ACADVER
  1
AC1006
  9
$DWGCODEPAGE
  3
ansi_932
  9
$INSBASE
 10
0.0
 20
0.0
 30
0.0
  9
$EXTMIN
 10
-8.041250161699999
 20
-101.40247
  9
$EXTMAX
 10
289.3132265413
 20
11.392884803
  9
$LIMMIN
 10
0.0
 20
0.0
  9
$LIMMAX
 10
12.0
 20
9.0
  9
$ORTHOMODE
 70
     0
  9
$REGENMODE
 70
     1
  9
$FILLMODE
 70
     1
  9
$QTEXTMODE
 70
     0
  9
$MIRRTEXT
 70
     1
  9
$DRAGMODE
 70
     2
  9
$LTSCALE
 40
1.0
  9
$OSMODE
 70
    37
  9
$ATTMODE
 70
     1
  9
$TEXTSIZE
 40
0.2
  9
$TRACEWID
 40
0.05
  9
$TEXTSTYLE
  7
STANDARD
  9
$CLAYER
  8
0
  9
$CELTYPE
  6
BYLAYER
  9
$CECOLOR
 62
   256
  9
$DIMSCALE
 40
1.0
  9
$DIMASZ
 40
2.0
  9
$DIMEXO
 40
0.0625
  9
$DIMDLI
 40
0.38
  9
$DIMRND
 40
0.0
  9
$DIMDLE
 40
0.0
  9
$DIMEXE
 40
1.0
  9
$DIMTP
 40
0.0
  9
$DIMTM
 40
0.0
  9
$DIMTXT
 40
3.5
  9
$DIMCEN
 40
0.09
  9
$DIMTSZ
 40
0.0
  9
$DIMTOL
 70
     0
  9
$DIMLIM
 70
     0
  9
$DIMTIH
 70
     1
  9
$DIMTOH
 70
     1
  9
$DIMSE1
 70
     0
  9
$DIMSE2
 70
     0
  9
$DIMTAD
 70
     1
  9
$DIMZIN
 70
     0
  9
$DIMBLK
  1

  9
$DIMASO
 70
     1
  9
$DIMSHO
 70
     1
  9
$DIMPOST
  1

  9
$DIMAPOST
  1

  9
$DIMALT
 70
     0
  9
$DIMALTD
 70
     2
  9
$DIMALTF
 40
25.4
  9
$DIMLFAC
 40
1.0
  9
$DIMTOFL
 70
     0
  9
$DIMTVP
 40
0.0
  9
$DIMTIX
 70
     0
  9
$DIMSOXD
 70
     0
  9
$DIMSAH
 70
     0
  9
$DIMBLK1
  1

  9
$DIMBLK2
  1

  9
$LUNITS
 70
     2
  9
$LUPREC
 70
     4
  9
$SKETCHINC
 40
0.1
  9
$FILLETRAD
 40
0.5
  9
$AUNITS
 70
     0
  9
$AUPREC
 70
     0
  9
$MENU
  1
.
  9
$ELEVATION
 40
0.0
  9
$THICKNESS
 40
0.0
  9
$LIMCHECK
 70
     0
  9
$CHAMFERA
 40
0.0
  9
$CHAMFERB
 40
0.0
  9
$SKPOLY
 70
     0
  9
$TDCREATE
 40
2459767.706004306
  9
$TDUPDATE
 40
2459767.706004514
  9
$TDINDWG
 40
0.0000000116
  9
$TDUSRTIMER
 40
0.0000000116
  9
$USRTIMER
 70
     1
  9
$ANGBASE
 50
0.0
  9
$ANGDIR
 70
     0
  9
$PDMODE
 70
     0
  9
$PDSIZE
 40
0.0
  9
$PLINEWID
 40
0.0
  9
$COORDS
 70
     1
  9
$SPLFRAME
 70
     0
  9
$SPLINETYPE
 70
     6
  9
$SPLINESEGS
 70
     8
  9
$ATTDIA
 70
     0
  9
$ATTREQ
 70
     1
  9
$HANDLING
 70
     1
  9
$HANDSEED
  5
13F
  9
$SURFTAB1
 70
     6
  9
$SURFTAB2
 70
     6
  9
$SURFTYPE
 70
     6
  9
$SURFU
 70
     6
  9
$SURFV
 70
     6
  9
$UCSNAME
  2

  9
$UCSORG
 10
0.0
 20
0.0
 30
0.0
  9
$UCSXDIR
 10
1.0
 20
0.0
 30
0.0
  9
$UCSYDIR
 10
0.0
 20
1.0
 30
0.0
  9
$USERI1
 70
     0
  9
$USERI2
 70
     0
  9
$USERI3
 70
     0
  9
$USERI4
 70
     0
  9
$USERI5
 70
     0
  9
$USERR1
 40
0.0
  9
$USERR2
 40
0.0
  9
$USERR3
 40
0.0
  9
$USERR4
 40
0.0
  9
$USERR5
 40
0.0
  9
$WORLDVIEW
 70
     1
  0
ENDSEC
  0
SECTION
  2
TABLES
  0
TABLE
  2
VPORT
 70
     1
  0
VPORT
  2
*ACTIVE
 70
     0
 10
0.0
 20
0.0
 11
1.0
 21
1.0
 12
140.6359881898
 22
-45.0047925985
 13
0.0
 23
0.0
 14
0.5
 24
0.5
 15
0.5
 25
0.5
 16
0.0
 26
0.0
 36
1.0
 17
0.0
 27
0.0
 37
0.0
 40
112.795354803
 41
1.6
 42
50.0
 43
0.0
 44
0.0
 50
0.0
 51
0.0
 71
     0
 72
   100
 73
     1
 74
     3
 75
     0
 76
     0
 77
     0
 78
     0
  0
ENDTAB
  0
TABLE
  2
LTYPE
 70
     2
  0
LTYPE
  2
CONTINUOUS
 70
     0
  3
Solid line
 72
    65
 73
     0
 40
0.0
  0
LTYPE
  2
CENTER
 70
     0
  3

 72
    65
 73
     0
 40
0.0
  0
ENDTAB
  0
TABLE
  2
LAYER
 70
     2
  0
LAYER
  2
0
 70
     0
 62
     7
  6
CONTINUOUS
  0
LAYER
  2
1
 70
     0
 62
     7
  6
CONTINUOUS
  0
ENDTAB
  0
TABLE
  2
STYLE
 70
     2
  0
STYLE
  2
STANDARD
 70
     0
 40
0.0
 41
1.0
 50
0.0
 71
     0
 42
0.2
  3
txt
  4

  0
STYLE
  2
ＭＳ_ゴシック
 70
     0
 40
0.0
 41
1.0
 50
0.0
 71
     0
 42
0.2
  3
ＭＳ ゴシック.shx
  4

  0
ENDTAB
  0
TABLE
  2
VIEW
 70
     0
  0
ENDTAB
  0
TABLE
  2
UCS
 70
     0
  0
ENDTAB
  0
ENDSEC
  0
SECTION
  2
BLOCKS
  0
ENDSEC
  0
SECTION
  2
ENTITIES
  0
LINE
  5
70
  8
1
  6
CONTINUOUS
 62
     7
 10
196.8132265413
 20
-34.607115197
 30
0.0
 11
196.8132265413
 21
-64.357115197
 31
0.0
  0
LINE
  5
71
  8
1
  6
CONTINUOUS
 62
     7
 10
197.8132265413
 20
-34.607115197
 30
0.0
 11
196.8132265413
 21
-34.607115197
 31
0.0
  0
LINE
  5
72
  8
1
  6
CONTINUOUS
 62
     7
 10
197.4132265413
 20
-63.55711519699999
 30
0.0
 11
197.4132265413
 21
-34.607115197
 31
0.0
  0
LINE
  5
73
  8
1
  6
CONTINUOUS
 62
     7
 10
197.2132265413
 20
-63.55711519699999
 30
0.0
 11
197.2132265413
 21
-34.607115197
 31
0.0
  0
LINE
  5
74
  8
1
  6
CONTINUOUS
 62
     7
 10
197.2132265413
 20
-1.657115197
 30
0.0
 11
197.4132265413
 21
-1.657115197
 31
0.0
  0
LINE
  5
75
  8
1
  6
CONTINUOUS
 62
     7
 10
186.8132265413
 20
-53.9720263613
 30
0.0
 11
187.1128320445
 21
-53.0633229205
 31
0.0
  0
LINE
  5
76
  8
1
  6
CONTINUOUS
 62
     7
 10
186.8132265413
 20
-56.0933467104
 30
0.0
 11
187.8132265413
 21
-56.0933467104
 31
0.0
  0
LINE
  5
77
  8
1
  6
CONTINUOUS
 62
     7
 10
197.4132265413
 20
-63.55711519699999
 30
0.0
 11
197.8132265413
 21
-64.357115197
 31
0.0
  0
LINE
  5
78
  8
1
  6
CONTINUOUS
 62
     7
 10
197.8132265413
 20
-64.357115197
 30
0.0
 11
197.8132265413
 21
-34.607115197
 31
0.0
  0
LINE
  5
79
  8
1
  6
CONTINUOUS
 62
     7
 10
187.1128320395
 20
-56.0933467104
 30
0.0
 11
187.1128320442
 21
-63.75790419130001
 31
0.0
  0
LINE
  5
7A
  8
1
  6
CONTINUOUS
 62
     7
 10
187.1128320395
 20
-34.607115197
 30
0.0
 11
187.1128320445
 21
-53.0633229205
 31
0.0
  0
LINE
  5
7B
  8
1
  6
CONTINUOUS
 62
     7
 10
187.1128320395
 20
-53.0633229355
 30
0.0
 11
187.5136210432
 21
-53.0633229355
 31
0.0
  0
LINE
  5
7C
  8
1
  6
CONTINUOUS
 62
     7
 10
87.0252399042
 20
0.392884803
 30
0.0
 11
87.3132265413
 21
-32.607115197
 31
0.0
  0
LINE
  5
7D
  8
1
  6
CONTINUOUS
 62
     7
 10
187.1128320395
 20
-63.7579042007
 30
0.0
 11
187.5136210432
 21
-63.7579042007
 31
0.0
  0
LINE
  5
7E
  8
1
  6
CONTINUOUS
 62
     7
 10
86.9466980941
 20
-74.607115197
 30
0.0
 11
86.1132265413
 21
-74.607115197
 31
0.0
  0
LINE
  5
7F
  8
1
  6
CONTINUOUS
 62
     7
 10
187.5136210382
 20
-53.0633229205
 30
0.0
 11
187.8132265413
 21
-53.9720263613
 31
0.0
  0
LINE
  5
80
  8
1
  6
CONTINUOUS
 62
     7
 10
187.5136210432
 20
-53.0633229355
 30
0.0
 11
187.5136210432
 21
-34.607115197
 31
0.0
  0
LINE
  5
81
  8
1
  6
CONTINUOUS
 62
     7
 10
186.8132265413
 20
-56.0933467104
 30
0.0
 11
186.8132265413
 21
-64.357115197
 31
0.0
  0
LINE
  5
82
  8
1
  6
CONTINUOUS
 62
     7
 10
187.5136210432
 20
-63.7579042007
 30
0.0
 11
187.5136210432
 21
-56.0933467104
 31
0.0
  0
LINE
  5
83
  8
1
  6
CONTINUOUS
 62
     7
 10
87.3132265413
 20
-32.607115197
 30
0.0
 11
86.9466980941
 21
-74.607115197
 31
0.0
  0
LINE
  5
84
  8
1
  6
CONTINUOUS
 62
     7
 10
197.4132265413
 20
-1.657115197
 30
0.0
 11
197.4132265413
 21
-30.607115197
 31
0.0
  0
LINE
  5
85
  8
1
  6
CONTINUOUS
 62
     7
 10
197.2132265413
 20
-1.657115197
 30
0.0
 11
197.2132265413
 21
-30.607115197
 31
0.0
  0
LINE
  5
86
  8
1
  6
CONTINUOUS
 62
     7
 10
196.8132265413
 20
-64.357115197
 30
0.0
 11
197.2132265413
 21
-63.55711519699999
 31
0.0
  0
LINE
  5
87
  8
1
  6
CONTINUOUS
 62
     7
 10
187.8132265413
 20
-53.9720263613
 30
0.0
 11
186.8132265413
 21
-53.9720263613
 31
0.0
  0
LINE
  5
88
  8
1
  6
CONTINUOUS
 62
     7
 10
236.8132265413
 20
-64.357115197
 30
0.0
 11
237.2132265413
 21
-63.55711519699999
 31
0.0
  0
LINE
  5
89
  8
1
  6
CONTINUOUS
 62
     7
 10
247.4132265413
 20
-1.657115197
 30
0.0
 11
247.8132265413
 21
-0.8571151969999999
 31
0.0
  0
LINE
  5
8A
  8
1
  6
CONTINUOUS
 62
     7
 10
247.8132265413
 20
-34.607115197
 30
0.0
 11
246.8132265413
 21
-34.607115197
 31
0.0
  0
LINE
  5
8B
  8
1
  6
CONTINUOUS
 62
     7
 10
247.4132265413
 20
-63.55711519699999
 30
0.0
 11
247.4132265413
 21
-34.607115197
 31
0.0
  0
LINE
  5
8C
  8
1
  6
CONTINUOUS
 62
     7
 10
247.2132265413
 20
-1.657115197
 30
0.0
 11
247.4132265413
 21
-1.657115197
 31
0.0
  0
LINE
  5
8D
  8
1
  6
CONTINUOUS
 62
     7
 10
247.4132265413
 20
-63.55711519699999
 30
0.0
 11
247.8132265413
 21
-64.357115197
 31
0.0
  0
LINE
  5
8E
  8
1
  6
CONTINUOUS
 62
     7
 10
246.8132265413
 20
-34.607115197
 30
0.0
 11
246.8132265413
 21
-64.357115197
 31
0.0
  0
LINE
  5
8F
  8
1
  6
CONTINUOUS
 62
     7
 10
247.2132265413
 20
-63.55711519699999
 30
0.0
 11
247.2132265413
 21
-34.607115197
 31
0.0
  0
LINE
  5
90
  8
1
  6
CONTINUOUS
 62
     7
 10
237.8132265413
 20
-34.607115197
 30
0.0
 11
236.8132265413
 21
-34.607115197
 31
0.0
  0
LINE
  5
91
  8
1
  6
CONTINUOUS
 62
     7
 10
247.2132265413
 20
-63.55711519699999
 30
0.0
 11
247.4132265413
 21
-63.55711519699999
 31
0.0
  0
LINE
  5
92
  8
1
  6
CONTINUOUS
 62
     7
 10
256.8132265413
 20
-0.857115197
 30
0.0
 11
257.2132265413
 21
-1.657115197
 31
0.0
  0
LINE
  5
93
  8
1
  6
CONTINUOUS
 62
     7
 10
257.4132265413
 20
-1.657115197
 30
0.0
 11
257.8132265413
 21
-0.8571151969999999
 31
0.0
  0
LINE
  5
94
  8
1
  6
CONTINUOUS
 62
     7
 10
237.4132265413
 20
-63.55711519699999
 30
0.0
 11
237.8132265413
 21
-64.357115197
 31
0.0
  0
LINE
  5
95
  8
1
  6
CONTINUOUS
 62
     7
 10
257.8132265413
 20
-0.857115197
 30
0.0
 11
257.8132265413
 21
-30.607115197
 31
0.0
  0
LINE
  5
96
  8
1
  6
CONTINUOUS
 62
     7
 10
237.8132265413
 20
-64.357115197
 30
0.0
 11
237.8132265413
 21
-34.607115197
 31
0.0
  0
LINE
  5
97
  8
1
  6
CONTINUOUS
 62
     7
 10
237.4132265413
 20
-63.55711519699999
 30
0.0
 11
237.4132265413
 21
-34.607115197
 31
0.0
  0
LINE
  5
98
  8
1
  6
CONTINUOUS
 62
     7
 10
246.8132265413
 20
-0.857115197
 30
0.0
 11
247.2132265413
 21
-1.657115197
 31
0.0
  0
LINE
  5
99
  8
1
  6
CONTINUOUS
 62
     7
 10
237.2132265413
 20
-63.55711519699999
 30
0.0
 11
237.2132265413
 21
-34.607115197
 31
0.0
  0
LINE
  5
9A
  8
1
  6
CONTINUOUS
 62
     7
 10
247.2132265413
 20
-1.657115197
 30
0.0
 11
247.2132265413
 21
-30.607115197
 31
0.0
  0
LINE
  5
9B
  8
1
  6
CONTINUOUS
 62
     7
 10
237.2132265413
 20
-1.657115197
 30
0.0
 11
237.4132265413
 21
-1.657115197
 31
0.0
  0
LINE
  5
9C
  8
1
  6
CONTINUOUS
 62
     7
 10
247.8132265413
 20
-30.607115197
 30
0.0
 11
246.8132265413
 21
-30.607115197
 31
0.0
  0
LINE
  5
9D
  8
1
  6
CONTINUOUS
 62
     7
 10
246.8132265413
 20
-30.607115197
 30
0.0
 11
246.8132265413
 21
-0.8571151970000017
 31
0.0
  0
LINE
  5
9E
  8
1
  6
CONTINUOUS
 62
     7
 10
247.8132265413
 20
-0.857115197
 30
0.0
 11
247.8132265413
 21
-30.607115197
 31
0.0
  0
LINE
  5
9F
  8
1
  6
CONTINUOUS
 62
     7
 10
237.2132265413
 20
-63.55711519699999
 30
0.0
 11
237.4132265413
 21
-63.55711519699999
 31
0.0
  0
LINE
  5
A0
  8
1
  6
CONTINUOUS
 62
     7
 10
247.4132265413
 20
-1.657115197
 30
0.0
 11
247.4132265413
 21
-30.607115197
 31
0.0
  0
LINE
  5
A1
  8
1
  6
CONTINUOUS
 62
     7
 10
246.8132265413
 20
-64.357115197
 30
0.0
 11
247.2132265413
 21
-63.55711519699999
 31
0.0
  0
LINE
  5
A2
  8
1
  6
CONTINUOUS
 62
     7
 10
247.8132265413
 20
-64.357115197
 30
0.0
 11
247.8132265413
 21
-34.607115197
 31
0.0
  0
LINE
  5
A3
  8
1
  6
CONTINUOUS
 62
     7
 10
236.8132265413
 20
-34.607115197
 30
0.0
 11
236.8132265413
 21
-64.357115197
 31
0.0
  0
LINE
  5
A4
  8
1
  6
CONTINUOUS
 62
     7
 10
187.8132265413
 20
-11.2422040327
 30
0.0
 11
187.8132265413
 21
-30.607115197
 31
0.0
  0
LINE
  5
A5
  8
1
  6
CONTINUOUS
 62
     7
 10
186.8132265413
 20
-9.1208836836
 30
0.0
 11
186.8132265413
 21
-0.8571151969999999
 31
0.0
  0
LINE
  5
A6
  8
1
  6
CONTINUOUS
 62
     7
 10
197.8132265413
 20
-30.607115197
 30
0.0
 11
196.8132265413
 21
-30.607115197
 31
0.0
  0
ARC
  5
A7
  8
1
  6
CONTINUOUS
 62
     7
 10
65.9587498472
 20
-57.526986775
 30
0.0
 40
3.0
 50
320.2848627887
 51
0.0
  0
LINE
  5
A8
  8
1
  6
CONTINUOUS
 62
     7
 10
187.8132265413
 20
-30.607115197
 30
0.0
 11
186.8132265413
 21
-30.607115197
 31
0.0
  0
LINE
  5
A9
  8
1
  6
CONTINUOUS
 62
     7
 10
187.5136210382
 20
-12.1509074735
 30
0.0
 11
187.8132265413
 21
-11.2422040327
 31
0.0
  0
LINE
  5
AA
  8
1
  6
CONTINUOUS
 62
     7
 10
287.3132265413
 20
-64.357115197
 30
0.0
 11
287.3132265413
 21
-0.8571151970000052
 31
0.0
  0
ARC
  5
AB
  8
1
  6
CONTINUOUS
 62
     7
 10
35.9587498383
 20
-32.607115197
 30
0.0
 40
42.0
 50
129.7151372318
 51
320.2848627887
  0
LINE
  5
AC
  8
1
  6
CONTINUOUS
 62
     7
 10
11.0388782495
 20
0.392884803
 30
0.0
 11
65.9587498407
 21
0.392884803
 31
0.0
  0
ARC
  5
AD
  8
1
  6
CONTINUOUS
 62
     7
 10
65.9587498407
 20
-2.6071151536
 30
0.0
 40
3.0
 50
0.0
 51
90.0
  0
LINE
  5
AE
  8
1
  6
CONTINUOUS
 62
     7
 10
187.1128320395
 20
-12.1509074585
 30
0.0
 11
187.5136210432
 21
-12.1509074585
 31
0.0
  0
LINE
  5
AF
  8
1
  6
CONTINUOUS
 62
     7
 10
186.8132265413
 20
-64.357115197
 30
0.0
 11
187.1128320442
 21
-63.75790419130001
 31
0.0
  0
LINE
  5
B0
  8
1
  6
CONTINUOUS
 62
     7
 10
187.5136210385
 20
-63.75790419130001
 30
0.0
 11
187.8132265413
 21
-64.357115197
 31
0.0
  0
LINE
  5
B1
  8
1
  6
CONTINUOUS
 62
     7
 10
86.5230581873
 20
-66.357115197
 30
0.0
 11
87.0230581873
 21
-66.857115197
 31
0.0
  0
LINE
  5
B2
  8
1
  6
CONTINUOUS
 62
     7
 10
187.5136210385
 20
-1.4563262027
 30
0.0
 11
187.8132265413
 21
-0.8571151969999999
 31
0.0
  0
LINE
  5
B3
  8
1
  6
CONTINUOUS
 62
     7
 10
197.8132265413
 20
-0.857115197
 30
0.0
 11
197.8132265413
 21
-30.607115197
 31
0.0
  0
LINE
  5
B4
  8
1
  6
CONTINUOUS
 62
     7
 10
187.5136210432
 20
-1.4563261933
 30
0.0
 11
187.5136210432
 21
-9.120883683599999
 31
0.0
  0
LINE
  5
B5
  8
1
  6
CONTINUOUS
 62
     7
 10
187.5136210432
 20
-12.1509074585
 30
0.0
 11
187.5136210432
 21
-30.607115197
 31
0.0
  0
LINE
  5
B6
  8
1
  6
CONTINUOUS
 62
     7
 10
187.8132265413
 20
-53.9720263613
 30
0.0
 11
187.8132265413
 21
-34.607115197
 31
0.0
  0
LINE
  5
B7
  8
1
  6
CONTINUOUS
 62
     7
 10
87.036148489
 20
-64.357115197
 30
0.0
 11
287.3132265413
 21
-64.357115197
 31
0.0
  0
LINE
  5
B8
  8
1
  6
CONTINUOUS
 62
     7
 10
186.8132265413
 20
-34.607115197
 30
0.0
 11
186.8132265413
 21
-53.9720263613
 31
0.0
  0
ARC
  5
B9
  8
1
  6
CONTINUOUS
 62
     7
 10
11.0388782495
 20
-2.607115197
 30
0.0
 40
3.0
 50
90.0
 51
129.7151372318
  0
LINE
  5
BA
  8
1
  6
CONTINUOUS
 62
     7
 10
196.8132265413
 20
-30.607115197
 30
0.0
 11
196.8132265413
 21
-0.8571151970000017
 31
0.0
  0
LINE
  5
BB
  8
1
  6
CONTINUOUS
 62
     7
 10
186.8132265413
 20
-11.2422040327
 30
0.0
 11
187.1128320445
 21
-12.1509074735
 31
0.0
  0
LINE
  5
BC
  8
1
  6
CONTINUOUS
 62
     7
 10
187.1128320395
 20
-9.1208836836
 30
0.0
 11
187.1128320442
 21
-1.4563262027
 31
0.0
  0
CIRCLE
  5
BD
  8
1
  6
CONTINUOUS
 62
     7
 10
35.9587498383
 20
-32.607115197
 30
0.0
 40
30.75
  0
LINE
  5
BE
  8
1
  6
CONTINUOUS
 62
     7
 10
68.9587498383
 20
-2.6071151536
 30
0.0
 11
68.9587498383
 21
-57.526986775
 31
0.0
  0
LINE
  5
BF
  8
1
  6
CONTINUOUS
 62
     7
 10
197.4132265413
 20
-1.657115197
 30
0.0
 11
197.8132265413
 21
-0.8571151969999999
 31
0.0
  0
LINE
  5
C0
  8
1
  6
CONTINUOUS
 62
     7
 10
186.8132265413
 20
-9.1208836836
 30
0.0
 11
187.8132265413
 21
-9.1208836836
 31
0.0
  0
LINE
  5
C1
  8
1
  6
CONTINUOUS
 62
     7
 10
187.1128320395
 20
-30.607115197
 30
0.0
 11
187.1128320445
 21
-12.1509074735
 31
0.0
  0
LINE
  5
C2
  8
1
  6
CONTINUOUS
 62
     7
 10
187.8132265413
 20
-64.357115197
 30
0.0
 11
187.8132265413
 21
-56.0933467104
 31
0.0
  0
LINE
  5
C3
  8
1
  6
CONTINUOUS
 62
     7
 10
186.8132265413
 20
-0.857115197
 30
0.0
 11
187.1128320442
 21
-1.4563262027
 31
0.0
  0
LINE
  5
C4
  8
1
  6
CONTINUOUS
 62
     7
 10
187.1128320395
 20
-1.4563261934
 30
0.0
 11
187.5136210432
 21
-1.4563261933
 31
0.0
  0
LINE
  5
C5
  8
1
  6
CONTINUOUS
 62
     7
 10
187.8132265413
 20
-34.607115197
 30
0.0
 11
186.8132265413
 21
-34.607115197
 31
0.0
  0
LINE
  5
C6
  8
1
  6
CONTINUOUS
 62
     7
 10
86.1132265413
 20
0.392884803
 30
0.0
 11
86.1132265413
 21
-74.607115197
 31
0.0
  0
LINE
  5
C7
  8
1
  6
CONTINUOUS
 62
     7
 10
186.8132265413
 20
-30.607115197
 30
0.0
 11
186.8132265413
 21
-11.2422040327
 31
0.0
  0
LINE
  5
C8
  8
1
  6
CONTINUOUS
 62
     7
 10
87.036148489
 20
-0.857115197
 30
0.0
 11
287.3132265413
 21
-0.857115197
 31
0.0
  0
LINE
  5
C9
  8
1
  6
CONTINUOUS
 62
     7
 10
196.8132265413
 20
-0.857115197
 30
0.0
 11
197.2132265413
 21
-1.657115197
 31
0.0
  0
LINE
  5
CA
  8
1
  6
CONTINUOUS
 62
     7
 10
86.1132265413
 20
0.392884803
 30
0.0
 11
87.0252399042
 21
0.392884803
 31
0.0
  0
LINE
  5
CB
  8
1
  6
CONTINUOUS
 62
     7
 10
187.8132265413
 20
-11.2422040327
 30
0.0
 11
186.8132265413
 21
-11.2422040327
 31
0.0
  0
LINE
  5
CC
  8
1
  6
CONTINUOUS
 62
     7
 10
87.0230581873
 20
-65.857115197
 30
0.0
 11
86.5230581873
 21
-66.357115197
 31
0.0
  0
LINE
  5
CD
  8
1
  6
CONTINUOUS
 62
     7
 10
187.8132265413
 20
-0.857115197
 30
0.0
 11
187.8132265413
 21
-9.1208836836
 31
0.0
  0
TEXT
  5
CE
  8
1
  6
CONTINUOUS
 62
     7
 10
137.4947565802801
 20
-101.7683790909091
 30
0.0
 40
3.5
  1
ＧＫＰＴ－６０Ｓ
 41
0.749172
  0
LINE
  5
CF
  8
1
  6
CONTINUOUS
 62
     7
 10
267.8132265413
 20
-64.357115197
 30
0.0
 11
267.8132265413
 21
-34.607115197
 31
0.0
  0
LINE
  5
D0
  8
1
  6
CONTINUOUS
 62
     7
 10
267.2132265413
 20
-63.55711519699999
 30
0.0
 11
267.2132265413
 21
-34.607115197
 31
0.0
  0
LINE
  5
D1
  8
1
  6
CONTINUOUS
 62
     7
 10
277.8132265413
 20
-64.357115197
 30
0.0
 11
277.8132265413
 21
-34.607115197
 31
0.0
  0
LINE
  5
D2
  8
1
  6
CONTINUOUS
 62
     7
 10
257.2132265413
 20
-1.657115197
 30
0.0
 11
257.2132265413
 21
-30.607115197
 31
0.0
  0
LINE
  5
D3
  8
1
  6
CONTINUOUS
 62
     7
 10
257.8132265413
 20
-64.357115197
 30
0.0
 11
257.8132265413
 21
-34.607115197
 31
0.0
  0
LINE
  5
D4
  8
1
  6
CONTINUOUS
 62
     7
 10
256.8132265413
 20
-30.607115197
 30
0.0
 11
256.8132265413
 21
-0.8571151970000017
 31
0.0
  0
LINE
  5
D5
  8
1
  6
CONTINUOUS
 62
     7
 10
257.4132265413
 20
-63.55711519699999
 30
0.0
 11
257.4132265413
 21
-34.607115197
 31
0.0
  0
LINE
  5
D6
  8
1
  6
CONTINUOUS
 62
     7
 10
276.8132265413
 20
-64.357115197
 30
0.0
 11
277.2132265413
 21
-63.55711519699999
 31
0.0
  0
LINE
  5
D7
  8
1
  6
CONTINUOUS
 62
     7
 10
277.8132265413
 20
-30.607115197
 30
0.0
 11
276.8132265413
 21
-30.607115197
 31
0.0
  0
LINE
  5
D8
  8
1
  6
CONTINUOUS
 62
     7
 10
277.2132265413
 20
-63.55711519699999
 30
0.0
 11
277.2132265413
 21
-34.607115197
 31
0.0
  0
LINE
  5
D9
  8
1
  6
CONTINUOUS
 62
     7
 10
257.2132265413
 20
-63.55711519699999
 30
0.0
 11
257.4132265413
 21
-63.55711519699999
 31
0.0
  0
LINE
  5
DA
  8
1
  6
CONTINUOUS
 62
     7
 10
276.8132265413
 20
-30.607115197
 30
0.0
 11
276.8132265413
 21
-0.8571151970000017
 31
0.0
  0
LINE
  5
DB
  8
1
  6
CONTINUOUS
 62
     7
 10
277.2132265413
 20
-1.657115197
 30
0.0
 11
277.2132265413
 21
-30.607115197
 31
0.0
  0
LINE
  5
DC
  8
1
  6
CONTINUOUS
 62
     7
 10
277.4132265413
 20
-1.657115197
 30
0.0
 11
277.8132265413
 21
-0.8571151969999999
 31
0.0
  0
LINE
  5
DD
  8
1
  6
CONTINUOUS
 62
     7
 10
277.8132265413
 20
-34.607115197
 30
0.0
 11
276.8132265413
 21
-34.607115197
 31
0.0
  0
LINE
  5
DE
  8
1
  6
CONTINUOUS
 62
     7
 10
257.8132265413
 20
-34.607115197
 30
0.0
 11
256.8132265413
 21
-34.607115197
 31
0.0
  0
LINE
  5
DF
  8
1
  6
CONTINUOUS
 62
     7
 10
267.2132265413
 20
-63.55711519699999
 30
0.0
 11
267.4132265413
 21
-63.55711519699999
 31
0.0
  0
LINE
  5
E0
  8
1
  6
CONTINUOUS
 62
     7
 10
267.2132265413
 20
-1.657115197
 30
0.0
 11
267.2132265413
 21
-30.607115197
 31
0.0
  0
LINE
  5
E1
  8
1
  6
CONTINUOUS
 62
     7
 10
257.4132265413
 20
-63.55711519699999
 30
0.0
 11
257.8132265413
 21
-64.357115197
 31
0.0
  0
LINE
  5
E2
  8
1
  6
CONTINUOUS
 62
     7
 10
256.8132265413
 20
-34.607115197
 30
0.0
 11
256.8132265413
 21
-64.357115197
 31
0.0
  0
LINE
  5
E3
  8
1
  6
CONTINUOUS
 62
     7
 10
267.4132265413
 20
-63.55711519699999
 30
0.0
 11
267.8132265413
 21
-64.357115197
 31
0.0
  0
LINE
  5
E4
  8
1
  6
CONTINUOUS
 62
     7
 10
276.8132265413
 20
-0.857115197
 30
0.0
 11
277.2132265413
 21
-1.657115197
 31
0.0
  0
LINE
  5
E5
  8
1
  6
CONTINUOUS
 62
     7
 10
267.4132265413
 20
-1.657115197
 30
0.0
 11
267.4132265413
 21
-30.607115197
 31
0.0
  0
LINE
  5
E6
  8
1
  6
CONTINUOUS
 62
     7
 10
267.2132265413
 20
-1.657115197
 30
0.0
 11
267.4132265413
 21
-1.657115197
 31
0.0
  0
LINE
  5
E7
  8
1
  6
CONTINUOUS
 62
     7
 10
277.2132265413
 20
-1.657115197
 30
0.0
 11
277.4132265413
 21
-1.657115197
 31
0.0
  0
LINE
  5
E8
  8
1
  6
CONTINUOUS
 62
     7
 10
276.8132265413
 20
-34.607115197
 30
0.0
 11
276.8132265413
 21
-64.357115197
 31
0.0
  0
LINE
  5
E9
  8
1
  6
CONTINUOUS
 62
     7
 10
256.8132265413
 20
-64.357115197
 30
0.0
 11
257.2132265413
 21
-63.55711519699999
 31
0.0
  0
LINE
  5
EA
  8
1
  6
CONTINUOUS
 62
     7
 10
266.8132265413
 20
-30.607115197
 30
0.0
 11
266.8132265413
 21
-0.8571151970000017
 31
0.0
  0
LINE
  5
EB
  8
1
  6
CONTINUOUS
 62
     7
 10
266.8132265413
 20
-34.607115197
 30
0.0
 11
266.8132265413
 21
-64.357115197
 31
0.0
  0
LINE
  5
EC
  8
1
  6
CONTINUOUS
 62
     7
 10
267.4132265413
 20
-63.55711519699999
 30
0.0
 11
267.4132265413
 21
-34.607115197
 31
0.0
  0
LINE
  5
ED
  8
1
  6
CONTINUOUS
 62
     7
 10
277.4132265413
 20
-63.55711519699999
 30
0.0
 11
277.8132265413
 21
-64.357115197
 31
0.0
  0
LINE
  5
EE
  8
1
  6
CONTINUOUS
 62
     7
 10
257.2132265413
 20
-1.657115197
 30
0.0
 11
257.4132265413
 21
-1.657115197
 31
0.0
  0
LINE
  5
EF
  8
1
  6
CONTINUOUS
 62
     7
 10
257.4132265413
 20
-1.657115197
 30
0.0
 11
257.4132265413
 21
-30.607115197
 31
0.0
  0
LINE
  5
F0
  8
1
  6
CONTINUOUS
 62
     7
 10
267.8132265413
 20
-34.607115197
 30
0.0
 11
266.8132265413
 21
-34.607115197
 31
0.0
  0
LINE
  5
F1
  8
1
  6
CONTINUOUS
 62
     7
 10
277.4132265413
 20
-63.55711519699999
 30
0.0
 11
277.4132265413
 21
-34.607115197
 31
0.0
  0
LINE
  5
F2
  8
1
  6
CONTINUOUS
 62
     7
 10
266.8132265413
 20
-0.857115197
 30
0.0
 11
267.2132265413
 21
-1.657115197
 31
0.0
  0
LINE
  5
F3
  8
1
  6
CONTINUOUS
 62
     7
 10
267.4132265413
 20
-1.657115197
 30
0.0
 11
267.8132265413
 21
-0.8571151969999999
 31
0.0
  0
LINE
  5
F4
  8
1
  6
CONTINUOUS
 62
     7
 10
257.8132265413
 20
-30.607115197
 30
0.0
 11
256.8132265413
 21
-30.607115197
 31
0.0
  0
LINE
  5
F5
  8
1
  6
CONTINUOUS
 62
     7
 10
267.8132265413
 20
-30.607115197
 30
0.0
 11
266.8132265413
 21
-30.607115197
 31
0.0
  0
LINE
  5
F6
  8
1
  6
CONTINUOUS
 62
     7
 10
266.8132265413
 20
-64.357115197
 30
0.0
 11
267.2132265413
 21
-63.55711519699999
 31
0.0
  0
LINE
  5
F7
  8
1
  6
CONTINUOUS
 62
     7
 10
277.2132265413
 20
-63.55711519699999
 30
0.0
 11
277.4132265413
 21
-63.55711519699999
 31
0.0
  0
LINE
  5
F8
  8
1
  6
CONTINUOUS
 62
     7
 10
257.2132265413
 20
-63.55711519699999
 30
0.0
 11
257.2132265413
 21
-34.607115197
 31
0.0
  0
LINE
  5
F9
  8
1
  6
CONTINUOUS
 62
     7
 10
267.8132265413
 20
-0.857115197
 30
0.0
 11
267.8132265413
 21
-30.607115197
 31
0.0
  0
LINE
  5
FA
  8
1
  6
CONTINUOUS
 62
     7
 10
277.8132265413
 20
-0.857115197
 30
0.0
 11
277.8132265413
 21
-30.607115197
 31
0.0
  0
LINE
  5
FB
  8
1
  6
CONTINUOUS
 62
     7
 10
277.4132265413
 20
-1.657115197
 30
0.0
 11
277.4132265413
 21
-30.607115197
 31
0.0
  0
LINE
  5
FC
  8
1
  6
CONTINUOUS
 62
     7
 10
237.8132265413
 20
-30.607115197
 30
0.0
 11
236.8132265413
 21
-30.607115197
 31
0.0
  0
LINE
  5
FD
  8
1
  6
CONTINUOUS
 62
     7
 10
227.8132265413
 20
-0.857115197
 30
0.0
 11
227.8132265413
 21
-30.607115197
 31
0.0
  0
LINE
  5
FE
  8
1
  6
CONTINUOUS
 62
     7
 10
217.2132265413
 20
-63.55711519699999
 30
0.0
 11
217.2132265413
 21
-34.607115197
 31
0.0
  0
LINE
  5
FF
  8
1
  6
CONTINUOUS
 62
     7
 10
227.8132265413
 20
-64.357115197
 30
0.0
 11
227.8132265413
 21
-34.607115197
 31
0.0
  0
LINE
  5
100
  8
1
  6
CONTINUOUS
 62
     7
 10
227.8132265413
 20
-34.607115197
 30
0.0
 11
226.8132265413
 21
-34.607115197
 31
0.0
  0
LINE
  5
101
  8
1
  6
CONTINUOUS
 62
     7
 10
226.8132265413
 20
-30.607115197
 30
0.0
 11
226.8132265413
 21
-0.8571151970000017
 31
0.0
  0
LINE
  5
102
  8
1
  6
CONTINUOUS
 62
     7
 10
227.2132265413
 20
-63.55711519699999
 30
0.0
 11
227.4132265413
 21
-63.55711519699999
 31
0.0
  0
LINE
  5
103
  8
1
  6
CONTINUOUS
 62
     7
 10
227.4132265413
 20
-63.55711519699999
 30
0.0
 11
227.4132265413
 21
-34.607115197
 31
0.0
  0
LINE
  5
104
  8
1
  6
CONTINUOUS
 62
     7
 10
227.2132265413
 20
-63.55711519699999
 30
0.0
 11
227.2132265413
 21
-34.607115197
 31
0.0
  0
LINE
  5
105
  8
1
  6
CONTINUOUS
 62
     7
 10
216.8132265413
 20
-34.607115197
 30
0.0
 11
216.8132265413
 21
-64.357115197
 31
0.0
  0
LINE
  5
106
  8
1
  6
CONTINUOUS
 62
     7
 10
227.2132265413
 20
-1.657115197
 30
0.0
 11
227.4132265413
 21
-1.657115197
 31
0.0
  0
LINE
  5
107
  8
1
  6
CONTINUOUS
 62
     7
 10
227.4132265413
 20
-63.55711519699999
 30
0.0
 11
227.8132265413
 21
-64.357115197
 31
0.0
  0
LINE
  5
108
  8
1
  6
CONTINUOUS
 62
     7
 10
236.8132265413
 20
-0.857115197
 30
0.0
 11
237.2132265413
 21
-1.657115197
 31
0.0
  0
LINE
  5
109
  8
1
  6
CONTINUOUS
 62
     7
 10
217.4132265413
 20
-63.55711519699999
 30
0.0
 11
217.4132265413
 21
-34.607115197
 31
0.0
  0
LINE
  5
10A
  8
1
  6
CONTINUOUS
 62
     7
 10
226.8132265413
 20
-64.357115197
 30
0.0
 11
227.2132265413
 21
-63.55711519699999
 31
0.0
  0
LINE
  5
10B
  8
1
  6
CONTINUOUS
 62
     7
 10
217.2132265413
 20
-63.55711519699999
 30
0.0
 11
217.4132265413
 21
-63.55711519699999
 31
0.0
  0
LINE
  5
10C
  8
1
  6
CONTINUOUS
 62
     7
 10
227.8132265413
 20
-30.607115197
 30
0.0
 11
226.8132265413
 21
-30.607115197
 31
0.0
  0
LINE
  5
10D
  8
1
  6
CONTINUOUS
 62
     7
 10
227.4132265413
 20
-1.657115197
 30
0.0
 11
227.4132265413
 21
-30.607115197
 31
0.0
  0
LINE
  5
10E
  8
1
  6
CONTINUOUS
 62
     7
 10
226.8132265413
 20
-34.607115197
 30
0.0
 11
226.8132265413
 21
-64.357115197
 31
0.0
  0
LINE
  5
10F
  8
1
  6
CONTINUOUS
 62
     7
 10
237.8132265413
 20
-0.857115197
 30
0.0
 11
237.8132265413
 21
-30.607115197
 31
0.0
  0
LINE
  5
110
  8
1
  6
CONTINUOUS
 62
     7
 10
227.4132265413
 20
-1.657115197
 30
0.0
 11
227.8132265413
 21
-0.8571151969999999
 31
0.0
  0
LINE
  5
111
  8
1
  6
CONTINUOUS
 62
     7
 10
227.2132265413
 20
-1.657115197
 30
0.0
 11
227.2132265413
 21
-30.607115197
 31
0.0
  0
LINE
  5
112
  8
1
  6
CONTINUOUS
 62
     7
 10
226.8132265413
 20
-0.857115197
 30
0.0
 11
227.2132265413
 21
-1.657115197
 31
0.0
  0
LINE
  5
113
  8
1
  6
CONTINUOUS
 62
     7
 10
237.4132265413
 20
-1.657115197
 30
0.0
 11
237.8132265413
 21
-0.8571151970000002
 31
0.0
  0
LINE
  5
114
  8
1
  6
CONTINUOUS
 62
     7
 10
236.8132265413
 20
-30.607115197
 30
0.0
 11
236.8132265413
 21
-0.8571151970000017
 31
0.0
  0
LINE
  5
115
  8
1
  6
CONTINUOUS
 62
     7
 10
237.2132265413
 20
-1.657115197
 30
0.0
 11
237.2132265413
 21
-30.607115197
 31
0.0
  0
LINE
  5
116
  8
1
  6
CONTINUOUS
 62
     7
 10
237.4132265413
 20
-1.657115197
 30
0.0
 11
237.4132265413
 21
-30.607115197
 31
0.0
  0
LINE
  5
117
  8
1
  6
CONTINUOUS
 62
     7
 10
217.8132265413
 20
-34.607115197
 30
0.0
 11
216.8132265413
 21
-34.607115197
 31
0.0
  0
LINE
  5
118
  8
0
  6
CENTER
 62
     1
 10
35.9587498383
 20
-76.607115197
 30
0.0
 11
35.9587498383
 21
11.392884803
 31
0.0
  0
LINE
  5
11A
  8
0
  6
CENTER
 62
     1
 10
-8.041250161699999
 20
-32.607115197
 30
0.0
 11
79.95874983830001
 21
-32.607115197
 31
0.0
  0
LINE
  5
11B
  8
0
  6
CENTER
 62
     1
 10
85.036148489
 20
-32.60711519700001
 30
0.0
 11
289.3132265413
 21
-32.60711519700001
 31
0.0
  0
LINE
  5
11C
  8
1
  6
CONTINUOUS
 62
     7
 10
207.4132265413
 20
-63.55711519699999
 30
0.0
 11
207.4132265413
 21
-34.607115197
 31
0.0
  0
LINE
  5
11D
  8
1
  6
CONTINUOUS
 62
     7
 10
216.8132265413
 20
-64.357115197
 30
0.0
 11
217.2132265413
 21
-63.55711519699999
 31
0.0
  0
LINE
  5
11E
  8
1
  6
CONTINUOUS
 62
     7
 10
217.8132265413
 20
-64.357115197
 30
0.0
 11
217.8132265413
 21
-34.607115197
 31
0.0
  0
LINE
  5
11F
  8
1
  6
CONTINUOUS
 62
     7
 10
216.8132265413
 20
-30.607115197
 30
0.0
 11
216.8132265413
 21
-0.8571151970000017
 31
0.0
  0
LINE
  5
120
  8
1
  6
CONTINUOUS
 62
     7
 10
217.4132265413
 20
-1.657115197
 30
0.0
 11
217.4132265413
 21
-30.607115197
 31
0.0
  0
LINE
  5
121
  8
1
  6
CONTINUOUS
 62
     7
 10
207.2132265413
 20
-1.657115197
 30
0.0
 11
207.4132265413
 21
-1.657115197
 31
0.0
  0
LINE
  5
122
  8
1
  6
CONTINUOUS
 62
     7
 10
217.4132265413
 20
-63.55711519699999
 30
0.0
 11
217.8132265413
 21
-64.357115197
 31
0.0
  0
LINE
  5
123
  8
1
  6
CONTINUOUS
 62
     7
 10
207.2132265413
 20
-63.55711519699999
 30
0.0
 11
207.4132265413
 21
-63.55711519699999
 31
0.0
  0
LINE
  5
124
  8
1
  6
CONTINUOUS
 62
     7
 10
207.4132265413
 20
-63.55711519699999
 30
0.0
 11
207.8132265413
 21
-64.357115197
 31
0.0
  0
LINE
  5
125
  8
1
  6
CONTINUOUS
 62
     7
 10
217.2132265413
 20
-1.657115197
 30
0.0
 11
217.4132265413
 21
-1.657115197
 31
0.0
  0
LINE
  5
126
  8
1
  6
CONTINUOUS
 62
     7
 10
206.8132265413
 20
-0.857115197
 30
0.0
 11
207.2132265413
 21
-1.657115197
 31
0.0
  0
LINE
  5
127
  8
1
  6
CONTINUOUS
 62
     7
 10
207.4132265413
 20
-1.657115197
 30
0.0
 11
207.8132265413
 21
-0.8571151969999999
 31
0.0
  0
LINE
  5
128
  8
1
  6
CONTINUOUS
 62
     7
 10
207.8132265413
 20
-0.857115197
 30
0.0
 11
207.8132265413
 21
-30.607115197
 31
0.0
  0
LINE
  5
129
  8
1
  6
CONTINUOUS
 62
     7
 10
217.4132265413
 20
-1.657115197
 30
0.0
 11
217.8132265413
 21
-0.8571151969999999
 31
0.0
  0
LINE
  5
12A
  8
1
  6
CONTINUOUS
 62
     7
 10
217.8132265413
 20
-30.607115197
 30
0.0
 11
216.8132265413
 21
-30.607115197
 31
0.0
  0
LINE
  5
12B
  8
1
  6
CONTINUOUS
 62
     7
 10
217.8132265413
 20
-0.857115197
 30
0.0
 11
217.8132265413
 21
-30.607115197
 31
0.0
  0
LINE
  5
12C
  8
1
  6
CONTINUOUS
 62
     7
 10
207.4132265413
 20
-1.657115197
 30
0.0
 11
207.4132265413
 21
-30.607115197
 31
0.0
  0
LINE
  5
12D
  8
1
  6
CONTINUOUS
 62
     7
 10
206.8132265413
 20
-30.607115197
 30
0.0
 11
206.8132265413
 21
-0.8571151970000017
 31
0.0
  0
LINE
  5
12E
  8
1
  6
CONTINUOUS
 62
     7
 10
197.2132265413
 20
-63.55711519699999
 30
0.0
 11
197.4132265413
 21
-63.55711519699999
 31
0.0
  0
LINE
  5
12F
  8
1
  6
CONTINUOUS
 62
     7
 10
206.8132265413
 20
-64.357115197
 30
0.0
 11
207.2132265413
 21
-63.55711519699999
 31
0.0
  0
LINE
  5
130
  8
1
  6
CONTINUOUS
 62
     7
 10
207.8132265413
 20
-64.357115197
 30
0.0
 11
207.8132265413
 21
-34.607115197
 31
0.0
  0
LINE
  5
131
  8
1
  6
CONTINUOUS
 62
     7
 10
206.8132265413
 20
-34.607115197
 30
0.0
 11
206.8132265413
 21
-64.357115197
 31
0.0
  0
LINE
  5
132
  8
1
  6
CONTINUOUS
 62
     7
 10
207.2132265413
 20
-63.55711519699999
 30
0.0
 11
207.2132265413
 21
-34.607115197
 31
0.0
  0
LINE
  5
133
  8
1
  6
CONTINUOUS
 62
     7
 10
216.8132265413
 20
-0.857115197
 30
0.0
 11
217.2132265413
 21
-1.657115197
 31
0.0
  0
LINE
  5
134
  8
1
  6
CONTINUOUS
 62
     7
 10
217.2132265413
 20
-1.657115197
 30
0.0
 11
217.2132265413
 21
-30.607115197
 31
0.0
  0
LINE
  5
135
  8
1
  6
CONTINUOUS
 62
     7
 10
207.2132265413
 20
-1.657115197
 30
0.0
 11
207.2132265413
 21
-30.607115197
 31
0.0
  0
LINE
  5
136
  8
1
  6
CONTINUOUS
 62
     7
 10
207.8132265413
 20
-30.607115197
 30
0.0
 11
206.8132265413
 21
-30.607115197
 31
0.0
  0
LINE
  5
137
  8
1
  6
CONTINUOUS
 62
     7
 10
207.8132265413
 20
-34.607115197
 30
0.0
 11
206.8132265413
 21
-34.607115197
 31
0.0
  0
ENDSEC
  0
EOF
