  0
SECTION
  2
HEADER
  9
$ACADVER
  1
AC1006
  9
$DWGCODEPAGE
  3
ansi_932
  9
$INSBASE
 10
0.0
 20
0.0
 30
0.0
  9
$EXTMIN
 10
-367.25
 20
140.6136361818182
  9
$EXTMAX
 10
-57.6500125
 20
263.5
  9
$LIMMIN
 10
0.0
 20
0.0
  9
$LIMMAX
 10
12.0
 20
9.0
  9
$ORTHOMODE
 70
     0
  9
$REGENMODE
 70
     1
  9
$FILLMODE
 70
     1
  9
$QTEXTMODE
 70
     0
  9
$MIRRTEXT
 70
     1
  9
$DRAGMODE
 70
     2
  9
$LTSCALE
 40
1.0
  9
$OSMODE
 70
    37
  9
$ATTMODE
 70
     1
  9
$TEXTSIZE
 40
0.2
  9
$TRACEWID
 40
0.05
  9
$TEXTSTYLE
  7
STANDARD
  9
$CLAYER
  8
0
  9
$CELTYPE
  6
BYLAYER
  9
$CECOLOR
 62
   256
  9
$DIMSCALE
 40
1.0
  9
$DIMASZ
 40
3.0
  9
$DIMEXO
 40
0.0625
  9
$DIMDLI
 40
0.38
  9
$DIMRND
 40
0.0
  9
$DIMDLE
 40
0.0
  9
$DIMEXE
 40
1.5
  9
$DIMTP
 40
0.0
  9
$DIMTM
 40
0.0
  9
$DIMTXT
 40
3.0
  9
$DIMCEN
 40
0.09
  9
$DIMTSZ
 40
0.0
  9
$DIMTOL
 70
     0
  9
$DIMLIM
 70
     0
  9
$DIMTIH
 70
     1
  9
$DIMTOH
 70
     1
  9
$DIMSE1
 70
     0
  9
$DIMSE2
 70
     0
  9
$DIMTAD
 70
     1
  9
$DIMZIN
 70
     0
  9
$DIMBLK
  1

  9
$DIMASO
 70
     1
  9
$DIMSHO
 70
     1
  9
$DIMPOST
  1

  9
$DIMAPOST
  1

  9
$DIMALT
 70
     0
  9
$DIMALTD
 70
     2
  9
$DIMALTF
 40
25.4
  9
$DIMLFAC
 40
1.0
  9
$DIMTOFL
 70
     0
  9
$DIMTVP
 40
0.0
  9
$DIMTIX
 70
     0
  9
$DIMSOXD
 70
     0
  9
$DIMSAH
 70
     0
  9
$DIMBLK1
  1

  9
$DIMBLK2
  1

  9
$LUNITS
 70
     2
  9
$LUPREC
 70
     4
  9
$SKETCHINC
 40
0.1
  9
$FILLETRAD
 40
0.5
  9
$AUNITS
 70
     0
  9
$AUPREC
 70
     0
  9
$MENU
  1
.
  9
$ELEVATION
 40
0.0
  9
$THICKNESS
 40
0.0
  9
$LIMCHECK
 70
     0
  9
$CHAMFERA
 40
0.0
  9
$CHAMFERB
 40
0.0
  9
$SKPOLY
 70
     0
  9
$TDCREATE
 40
2459767.706599526
  9
$TDUPDATE
 40
2459767.706599711
  9
$TDINDWG
 40
0.0000000116
  9
$TDUSRTIMER
 40
0.0000000116
  9
$USRTIMER
 70
     1
  9
$ANGBASE
 50
0.0
  9
$ANGDIR
 70
     0
  9
$PDMODE
 70
     0
  9
$PDSIZE
 40
0.0
  9
$PLINEWID
 40
0.0
  9
$COORDS
 70
     1
  9
$SPLFRAME
 70
     0
  9
$SPLINETYPE
 70
     6
  9
$SPLINESEGS
 70
     8
  9
$ATTDIA
 70
     0
  9
$ATTREQ
 70
     1
  9
$HANDLING
 70
     1
  9
$HANDSEED
  5
154
  9
$SURFTAB1
 70
     6
  9
$SURFTAB2
 70
     6
  9
$SURFTYPE
 70
     6
  9
$SURFU
 70
     6
  9
$SURFV
 70
     6
  9
$UCSNAME
  2

  9
$UCSORG
 10
0.0
 20
0.0
 30
0.0
  9
$UCSXDIR
 10
1.0
 20
0.0
 30
0.0
  9
$UCSYDIR
 10
0.0
 20
1.0
 30
0.0
  9
$USERI1
 70
     0
  9
$USERI2
 70
     0
  9
$USERI3
 70
     0
  9
$USERI4
 70
     0
  9
$USERI5
 70
     0
  9
$USERR1
 40
0.0
  9
$USERR2
 40
0.0
  9
$USERR3
 40
0.0
  9
$USERR4
 40
0.0
  9
$USERR5
 40
0.0
  9
$WORLDVIEW
 70
     1
  0
ENDSEC
  0
SECTION
  2
TABLES
  0
TABLE
  2
VPORT
 70
     1
  0
VPORT
  2
*ACTIVE
 70
     0
 10
0.0
 20
0.0
 11
1.0
 21
1.0
 12
-212.45000625
 22
202.0568180909091
 13
0.0
 23
0.0
 14
0.5
 24
0.5
 15
0.5
 25
0.5
 16
0.0
 26
0.0
 36
1.0
 17
0.0
 27
0.0
 37
0.0
 40
122.8863638181818
 41
1.6
 42
50.0
 43
0.0
 44
0.0
 50
0.0
 51
0.0
 71
     0
 72
   100
 73
     1
 74
     3
 75
     0
 76
     0
 77
     0
 78
     0
  0
ENDTAB
  0
TABLE
  2
LTYPE
 70
     2
  0
LTYPE
  2
CONTINUOUS
 70
     0
  3
Solid line
 72
    65
 73
     0
 40
0.0
  0
LTYPE
  2
CENTER
 70
     0
  3

 72
    65
 73
     0
 40
0.0
  0
ENDTAB
  0
TABLE
  2
LAYER
 70
     2
  0
LAYER
  2
0
 70
     0
 62
     7
  6
CONTINUOUS
  0
LAYER
  2
1
 70
     0
 62
     7
  6
CONTINUOUS
  0
ENDTAB
  0
TABLE
  2
STYLE
 70
     2
  0
STYLE
  2
STANDARD
 70
     0
 40
0.0
 41
1.0
 50
0.0
 71
     0
 42
0.2
  3
txt
  4

  0
STYLE
  2
ＭＳ_ゴシック
 70
     0
 40
0.0
 41
1.0
 50
0.0
 71
     0
 42
0.2
  3
ＭＳ ゴシック.shx
  4

  0
ENDTAB
  0
TABLE
  2
VIEW
 70
     0
  0
ENDTAB
  0
TABLE
  2
UCS
 70
     0
  0
ENDTAB
  0
ENDSEC
  0
SECTION
  2
BLOCKS
  0
ENDSEC
  0
SECTION
  2
ENTITIES
  0
TEXT
  5
70
  8
1
  6
CONTINUOUS
 62
     7
 10
-255.3217865850006
 20
140.2145959167188
 30
0.0
 40
3.5
  1
GKPT-65S
 41
0.886082
  0
LINE
  5
71
  8
1
  6
CONTINUOUS
 62
     7
 10
-288.5
 20
252.75
 30
0.0
 11
-346.4030017911
 21
252.75
 31
0.0
  0
LINE
  5
72
  8
0
  6
CENTER
 62
     1
 10
-367.25
 20
217.25
 30
0.0
 11
-274.75
 21
217.25
 31
0.0
  0
LINE
  5
74
  8
0
  6
CENTER
 62
     1
 10
-57.6500125
 20
217.25
 30
0.0
 11
-261.6500125
 21
217.25
 31
0.0
  0
LINE
  5
75
  8
0
  6
CENTER
 62
     1
 10
-321.0
 20
171.0
 30
0.0
 11
-321.0
 21
263.5
 31
0.0
  0
LINE
  5
76
  8
1
  6
CONTINUOUS
 62
     7
 10
-69.4775857108
 20
250.5399759688
 30
0.0
 11
-69.8224392892
 21
250.5399759688
 31
0.0
  0
LINE
  5
77
  8
1
  6
CONTINUOUS
 62
     7
 10
-79.8224392892
 20
250.5399759688
 30
0.0
 11
-80.1500125
 21
251.4415559751
 31
0.0
  0
LINE
  5
78
  8
1
  6
CONTINUOUS
 62
     7
 10
-129.4775857108
 20
250.5399759688
 30
0.0
 11
-129.8224392892
 21
250.5399759688
 31
0.0
  0
LINE
  5
79
  8
1
  6
CONTINUOUS
 62
     7
 10
-79.4775857108
 20
215.25
 30
0.0
 11
-79.4775857108
 21
183.9600240312
 31
0.0
  0
LINE
  5
7A
  8
1
  6
CONTINUOUS
 62
     7
 10
-70.1500125
 20
183.0584440249
 30
0.0
 11
-69.8224392892
 21
183.9600240312
 31
0.0
  0
LINE
  5
7B
  8
1
  6
CONTINUOUS
 62
     7
 10
-79.1500125
 20
251.4415559751
 30
0.0
 11
-79.4775857108
 21
250.5399759688
 31
0.0
  0
LINE
  5
7C
  8
1
  6
CONTINUOUS
 62
     7
 10
-89.8224392892
 20
183.9600240312
 30
0.0
 11
-89.4775857108
 21
183.9600240312
 31
0.0
  0
LINE
  5
7D
  8
1
  6
CONTINUOUS
 62
     7
 10
-109.4775857108
 20
250.5399759688
 30
0.0
 11
-109.8224392892
 21
250.5399759688
 31
0.0
  0
LINE
  5
7E
  8
1
  6
CONTINUOUS
 62
     7
 10
-99.8224392892
 20
183.9600240312
 30
0.0
 11
-99.4775857108
 21
183.9600240312
 31
0.0
  0
LINE
  5
7F
  8
1
  6
CONTINUOUS
 62
     7
 10
-69.8224392892
 20
183.9600240312
 30
0.0
 11
-69.4775857108
 21
183.9600240312
 31
0.0
  0
LINE
  5
80
  8
1
  6
CONTINUOUS
 62
     7
 10
-59.6500125
 20
251.5
 30
0.0
 11
-259.6500125
 21
251.5
 31
0.0
  0
LINE
  5
81
  8
1
  6
CONTINUOUS
 62
     7
 10
-79.8224392892
 20
215.25
 30
0.0
 11
-79.8224392892
 21
183.9600240312
 31
0.0
  0
LINE
  5
82
  8
1
  6
CONTINUOUS
 62
     7
 10
-159.4775857108
 20
250.5399759688
 30
0.0
 11
-159.8224392892
 21
250.5399759688
 31
0.0
  0
LINE
  5
83
  8
1
  6
CONTINUOUS
 62
     7
 10
-79.4775857108
 20
250.5399759688
 30
0.0
 11
-79.8224392892
 21
250.5399759688
 31
0.0
  0
LINE
  5
84
  8
1
  6
CONTINUOUS
 62
     7
 10
-79.4775857108
 20
183.9600240312
 30
0.0
 11
-79.1500125
 21
183.0584440249
 31
0.0
  0
LINE
  5
85
  8
1
  6
CONTINUOUS
 62
     7
 10
-69.8224392892
 20
250.5399759688
 30
0.0
 11
-69.8224392892
 21
219.25
 31
0.0
  0
LINE
  5
86
  8
1
  6
CONTINUOUS
 62
     7
 10
-89.4775857108
 20
250.5399759688
 30
0.0
 11
-89.4775857108
 21
219.25
 31
0.0
  0
LINE
  5
87
  8
1
  6
CONTINUOUS
 62
     7
 10
-159.8224392892
 20
183.9600240312
 30
0.0
 11
-159.4775857108
 21
183.9600240312
 31
0.0
  0
LINE
  5
88
  8
1
  6
CONTINUOUS
 62
     7
 10
-79.8224392892
 20
183.9600240312
 30
0.0
 11
-79.4775857108
 21
183.9600240312
 31
0.0
  0
LINE
  5
89
  8
1
  6
CONTINUOUS
 62
     7
 10
-149.8224392892
 20
183.9600240312
 30
0.0
 11
-149.4775857108
 21
183.9600240312
 31
0.0
  0
LINE
  5
8A
  8
1
  6
CONTINUOUS
 62
     7
 10
-69.8224392892
 20
250.5399759688
 30
0.0
 11
-70.1500125
 21
251.4415559751
 31
0.0
  0
LINE
  5
8B
  8
1
  6
CONTINUOUS
 62
     7
 10
-259.6500125
 20
183.0
 30
0.0
 11
-59.65001250000002
 21
183.0
 31
0.0
  0
LINE
  5
8C
  8
1
  6
CONTINUOUS
 62
     7
 10
-79.8224392892
 20
250.5399759688
 30
0.0
 11
-79.8224392892
 21
219.25
 31
0.0
  0
LINE
  5
8D
  8
1
  6
CONTINUOUS
 62
     7
 10
-99.4775857108
 20
250.5399759688
 30
0.0
 11
-99.8224392892
 21
250.5399759688
 31
0.0
  0
LINE
  5
8E
  8
1
  6
CONTINUOUS
 62
     7
 10
-109.8224392892
 20
183.9600240312
 30
0.0
 11
-109.4775857108
 21
183.9600240312
 31
0.0
  0
LINE
  5
8F
  8
1
  6
CONTINUOUS
 62
     7
 10
-69.4775857108
 20
250.5399759688
 30
0.0
 11
-69.4775857108
 21
219.25
 31
0.0
  0
LINE
  5
90
  8
1
  6
CONTINUOUS
 62
     7
 10
-79.4775857108
 20
250.5399759688
 30
0.0
 11
-79.4775857108
 21
219.25
 31
0.0
  0
LINE
  5
91
  8
1
  6
CONTINUOUS
 62
     7
 10
-69.1500125
 20
251.4415559751
 30
0.0
 11
-69.4775857108
 21
250.5399759688
 31
0.0
  0
LINE
  5
92
  8
1
  6
CONTINUOUS
 62
     7
 10
-119.8224392892
 20
183.9600240312
 30
0.0
 11
-119.4775857108
 21
183.9600240312
 31
0.0
  0
LINE
  5
93
  8
1
  6
CONTINUOUS
 62
     7
 10
-139.4775857108
 20
250.5399759688
 30
0.0
 11
-139.8224392892
 21
250.5399759688
 31
0.0
  0
LINE
  5
94
  8
1
  6
CONTINUOUS
 62
     7
 10
-149.4775857108
 20
250.5399759688
 30
0.0
 11
-149.8224392892
 21
250.5399759688
 31
0.0
  0
LINE
  5
95
  8
1
  6
CONTINUOUS
 62
     7
 10
-119.4775857108
 20
250.5399759688
 30
0.0
 11
-119.8224392892
 21
250.5399759688
 31
0.0
  0
LINE
  5
96
  8
1
  6
CONTINUOUS
 62
     7
 10
-80.1500125
 20
183.0584440249
 30
0.0
 11
-79.8224392892
 21
183.9600240312
 31
0.0
  0
LINE
  5
97
  8
1
  6
CONTINUOUS
 62
     7
 10
-129.8224392892
 20
183.9600240312
 30
0.0
 11
-129.4775857108
 21
183.9600240312
 31
0.0
  0
LINE
  5
98
  8
1
  6
CONTINUOUS
 62
     7
 10
-139.8224392892
 20
183.9600240312
 30
0.0
 11
-139.4775857108
 21
183.9600240312
 31
0.0
  0
LINE
  5
99
  8
1
  6
CONTINUOUS
 62
     7
 10
-89.1500125
 20
251.4415559751
 30
0.0
 11
-89.4775857108
 21
250.5399759688
 31
0.0
  0
LINE
  5
9A
  8
1
  6
CONTINUOUS
 62
     7
 10
-69.8224392892
 20
215.25
 30
0.0
 11
-69.8224392892
 21
183.9600240312
 31
0.0
  0
LINE
  5
9B
  8
1
  6
CONTINUOUS
 62
     7
 10
-89.4775857108
 20
250.5399759688
 30
0.0
 11
-89.8224392892
 21
250.5399759688
 31
0.0
  0
ARC
  5
9C
  8
1
  6
CONTINUOUS
 62
     7
 10
-288.5
 20
191.8469982089
 30
0.0
 40
3.0
 50
321.9877204556
 51
0.0
  0
LINE
  5
9D
  8
1
  6
CONTINUOUS
 62
     7
 10
-259.6500125
 20
183.0
 30
0.0
 11
-259.6500125
 21
173.0
 31
0.0
  0
LINE
  5
9E
  8
1
  6
CONTINUOUS
 62
     7
 10
-261.0500125
 20
189.9995071695
 30
0.0
 11
-259.9542628453
 21
189.9995071695
 31
0.0
  0
LINE
  5
9F
  8
1
  6
CONTINUOUS
 62
     7
 10
-100.1500125
 20
183.0584440249
 30
0.0
 11
-99.1500125
 21
183.0584440249
 31
0.0
  0
LINE
  5
A0
  8
1
  6
CONTINUOUS
 62
     7
 10
-109.1500125
 20
215.25
 30
0.0
 11
-110.1500125
 21
215.25
 31
0.0
  0
LINE
  5
A1
  8
1
  6
CONTINUOUS
 62
     7
 10
-261.0500125
 20
191.8469982089
 30
0.0
 11
-259.9598163066
 21
191.8469982089
 31
0.0
  0
LINE
  5
A2
  8
1
  6
CONTINUOUS
 62
     7
 10
-259.9598163066
 20
191.8469982089
 30
0.0
 11
-259.9598163066
 21
249.75
 31
0.0
  0
ARC
  5
A3
  8
1
  6
CONTINUOUS
 62
     7
 10
-321.0
 20
217.25
 30
0.0
 40
44.25
 50
128.0122795444
 51
321.9877204556
  0
LINE
  5
A4
  8
1
  6
CONTINUOUS
 62
     7
 10
-259.9500125
 20
181.25
 30
0.0
 11
-259.6631028017
 21
181.7281828305
 31
0.0
  0
LINE
  5
A5
  8
1
  6
CONTINUOUS
 62
     7
 10
-79.1500125
 20
215.25
 30
0.0
 11
-79.1500125
 21
183.0584440249
 31
0.0
  0
LINE
  5
A6
  8
1
  6
CONTINUOUS
 62
     7
 10
-80.1500125
 20
183.0584440249
 30
0.0
 11
-80.1500125
 21
215.25
 31
0.0
  0
LINE
  5
A7
  8
1
  6
CONTINUOUS
 62
     7
 10
-120.1500125
 20
183.0584440249
 30
0.0
 11
-119.1500125
 21
183.0584440249
 31
0.0
  0
LINE
  5
A8
  8
1
  6
CONTINUOUS
 62
     7
 10
-119.1500125
 20
215.25
 30
0.0
 11
-119.1500125
 21
183.0584440249
 31
0.0
  0
LINE
  5
A9
  8
1
  6
CONTINUOUS
 62
     7
 10
-261.0500125
 20
173.0
 30
0.0
 11
-261.0500125
 21
252.75
 31
0.0
  0
LINE
  5
AA
  8
1
  6
CONTINUOUS
 62
     7
 10
-119.1500125
 20
215.25
 30
0.0
 11
-120.1500125
 21
215.25
 31
0.0
  0
LINE
  5
AB
  8
1
  6
CONTINUOUS
 62
     7
 10
-80.1500125
 20
183.0584440249
 30
0.0
 11
-79.1500125
 21
183.0584440249
 31
0.0
  0
LINE
  5
AC
  8
1
  6
CONTINUOUS
 62
     7
 10
-69.1500125
 20
215.25
 30
0.0
 11
-70.1500125
 21
215.25
 31
0.0
  0
LINE
  5
AD
  8
1
  6
CONTINUOUS
 62
     7
 10
-259.6631028017
 20
180.7718171695
 30
0.0
 11
-259.9500125
 21
181.25
 31
0.0
  0
LINE
  5
AE
  8
1
  6
CONTINUOUS
 62
     7
 10
-90.1500125
 20
183.0584440249
 30
0.0
 11
-89.1500125
 21
183.0584440249
 31
0.0
  0
LINE
  5
AF
  8
1
  6
CONTINUOUS
 62
     7
 10
-70.1500125
 20
183.0584440249
 30
0.0
 11
-69.1500125
 21
183.0584440249
 31
0.0
  0
LINE
  5
B0
  8
1
  6
CONTINUOUS
 62
     7
 10
-90.1500125
 20
183.0584440249
 30
0.0
 11
-90.1500125
 21
215.25
 31
0.0
  0
LINE
  5
B1
  8
1
  6
CONTINUOUS
 62
     7
 10
-110.1500125
 20
183.0584440249
 30
0.0
 11
-109.1500125
 21
183.0584440249
 31
0.0
  0
LINE
  5
B2
  8
1
  6
CONTINUOUS
 62
     7
 10
-130.1500125
 20
183.0584440249
 30
0.0
 11
-129.1500125
 21
183.0584440249
 31
0.0
  0
LINE
  5
B3
  8
1
  6
CONTINUOUS
 62
     7
 10
-120.1500125
 20
183.0584440249
 30
0.0
 11
-120.1500125
 21
215.25
 31
0.0
  0
LINE
  5
B4
  8
1
  6
CONTINUOUS
 62
     7
 10
-261.0500125
 20
252.75
 30
0.0
 11
-259.6500125
 21
252.75
 31
0.0
  0
LINE
  5
B5
  8
1
  6
CONTINUOUS
 62
     7
 10
-59.6500125
 20
251.5
 30
0.0
 11
-59.6500125
 21
183.0
 31
0.0
  0
LINE
  5
B6
  8
1
  6
CONTINUOUS
 62
     7
 10
-259.6500125
 20
252.75
 30
0.0
 11
-259.6500125
 21
251.5
 31
0.0
  0
LINE
  5
B7
  8
1
  6
CONTINUOUS
 62
     7
 10
-129.1500125
 20
215.25
 30
0.0
 11
-130.1500125
 21
215.25
 31
0.0
  0
ARC
  5
B8
  8
1
  6
CONTINUOUS
 62
     7
 10
-288.5
 20
249.75
 30
0.0
 40
3.0
 50
0.0
 51
90.0
  0
LINE
  5
B9
  8
1
  6
CONTINUOUS
 62
     7
 10
-261.0500125
 20
249.75
 30
0.0
 11
-259.9598163066
 21
249.75
 31
0.0
  0
LINE
  5
BA
  8
1
  6
CONTINUOUS
 62
     7
 10
-99.1500125
 20
215.25
 30
0.0
 11
-100.1500125
 21
215.25
 31
0.0
  0
LINE
  5
BB
  8
1
  6
CONTINUOUS
 62
     7
 10
-259.6500125
 20
173.0
 30
0.0
 11
-261.0500125
 21
173.0
 31
0.0
  0
LINE
  5
BC
  8
1
  6
CONTINUOUS
 62
     7
 10
-140.1500125
 20
183.0584440249
 30
0.0
 11
-139.1500125
 21
183.0584440249
 31
0.0
  0
LINE
  5
BD
  8
1
  6
CONTINUOUS
 62
     7
 10
-285.5
 20
191.8469982089
 30
0.0
 11
-285.5
 21
249.75
 31
0.0
  0
LINE
  5
BE
  8
1
  6
CONTINUOUS
 62
     7
 10
-129.1500125
 20
215.25
 30
0.0
 11
-129.1500125
 21
183.0584440249
 31
0.0
  0
LINE
  5
BF
  8
1
  6
CONTINUOUS
 62
     7
 10
-110.1500125
 20
183.0584440249
 30
0.0
 11
-110.1500125
 21
215.25
 31
0.0
  0
LINE
  5
C0
  8
1
  6
CONTINUOUS
 62
     7
 10
-139.1500125
 20
215.25
 30
0.0
 11
-139.1500125
 21
183.0584440249
 31
0.0
  0
LINE
  5
C1
  8
1
  6
CONTINUOUS
 62
     7
 10
-139.1500125
 20
215.25
 30
0.0
 11
-140.1500125
 21
215.25
 31
0.0
  0
LINE
  5
C2
  8
1
  6
CONTINUOUS
 62
     7
 10
-140.1500125
 20
183.0584440249
 30
0.0
 11
-140.1500125
 21
215.25
 31
0.0
  0
CIRCLE
  5
C3
  8
1
  6
CONTINUOUS
 62
     7
 10
-321.0
 20
217.25
 30
0.0
 40
32.830022068
  0
LINE
  5
C4
  8
1
  6
CONTINUOUS
 62
     7
 10
-130.1500125
 20
183.0584440249
 30
0.0
 11
-130.1500125
 21
215.25
 31
0.0
  0
LINE
  5
C5
  8
1
  6
CONTINUOUS
 62
     7
 10
-259.9598163066
 20
249.75
 30
0.0
 11
-259.9336357032
 21
252.75
 31
0.0
  0
LINE
  5
C6
  8
1
  6
CONTINUOUS
 62
     7
 10
-69.1500125
 20
215.25
 30
0.0
 11
-69.1500125
 21
183.0584440249
 31
0.0
  0
ARC
  5
C7
  8
1
  6
CONTINUOUS
 62
     7
 10
-203.3059359759844
 20
247.6066893372916
 30
0.0
 40
56.47842798149117
 50
176.0472108312905
 51
179.7185417932274
  0
ARC
  5
C8
  8
1
  6
CONTINUOUS
 62
     7
 10
529.3474990539817
 20
235.1210915341665
 30
0.0
 40
789.2343865390807
 50
179.0734055673684
 51
179.5392011183746
  0
ARC
  5
C9
  8
1
  6
CONTINUOUS
 62
     7
 10
1828.958218370619
 20
223.8789469678401
 30
0.0
 40
2088.893638758259
 50
179.5175370685554
 51
179.7616949191724
  0
ARC
  5
CA
  8
1
  6
CONTINUOUS
 62
     7
 10
3312.388904789181
 20
217.5490706280178
 30
0.0
 40
3572.337825030248
 50
179.759129648976
 51
180.0047967145385
  0
ARC
  5
CB
  8
1
  6
CONTINUOUS
 62
     7
 10
3312.388904789181
 20
216.9509293719822
 30
0.0
 40
3572.337825030248
 50
179.9952032854615
 51
180.240870351024
  0
ARC
  5
CC
  8
1
  6
CONTINUOUS
 62
     7
 10
1828.958218370619
 20
210.6210530321599
 30
0.0
 40
2088.893638758259
 50
180.2383050808276
 51
180.4824629314446
  0
ARC
  5
CD
  8
1
  6
CONTINUOUS
 62
     7
 10
529.3474990539817
 20
199.3789084658335
 30
0.0
 40
789.2343865390806
 50
180.4607988816254
 51
180.9265944326316
  0
ARC
  5
CE
  8
1
  6
CONTINUOUS
 62
     7
 10
-203.3059359759844
 20
186.8933106627084
 30
0.0
 40
56.47842798149119
 50
180.2814582067726
 51
183.9527891687096
  0
LINE
  5
CF
  8
1
  6
CONTINUOUS
 62
     7
 10
-99.1500125
 20
215.25
 30
0.0
 11
-99.1500125
 21
183.0584440249
 31
0.0
  0
ARC
  5
D0
  8
1
  6
CONTINUOUS
 62
     7
 10
-346.4030017911
 20
249.75
 30
0.0
 40
3.0
 50
90.0
 51
128.0122795444
  0
LINE
  5
D1
  8
1
  6
CONTINUOUS
 62
     7
 10
-259.9542628453
 20
189.9995071695
 30
0.0
 11
-259.9598163066
 21
191.8469982089
 31
0.0
  0
LINE
  5
D2
  8
1
  6
CONTINUOUS
 62
     7
 10
-259.6631028017
 20
181.7281828305
 30
0.0
 11
-259.6631028017
 21
180.7718171695
 31
0.0
  0
LINE
  5
D3
  8
1
  6
CONTINUOUS
 62
     7
 10
-70.1500125
 20
183.0584440249
 30
0.0
 11
-70.1500125
 21
215.25
 31
0.0
  0
LINE
  5
D4
  8
1
  6
CONTINUOUS
 62
     7
 10
-79.1500125
 20
215.25
 30
0.0
 11
-80.1500125
 21
215.25
 31
0.0
  0
LINE
  5
D5
  8
1
  6
CONTINUOUS
 62
     7
 10
-100.1500125
 20
183.0584440249
 30
0.0
 11
-100.1500125
 21
215.25
 31
0.0
  0
LINE
  5
D6
  8
1
  6
CONTINUOUS
 62
     7
 10
-109.1500125
 20
215.25
 30
0.0
 11
-109.1500125
 21
183.0584440249
 31
0.0
  0
ARC
  5
D7
  8
1
  6
CONTINUOUS
 62
     7
 10
429.7684759300528
 20
189.4457004292944
 30
0.0
 40
689.6916945768792
 50
180.6915355212324
 51
180.9781750642145
  0
ARC
  5
D8
  8
1
  6
CONTINUOUS
 62
     7
 10
-186.8551120790231
 20
178.0300436513417
 30
0.0
 40
72.96847858105822
 50
180.2814581715489
 51
183.952789202223
  0
LINE
  5
D9
  8
1
  6
CONTINUOUS
 62
     7
 10
-89.1500125
 20
215.25
 30
0.0
 11
-90.1500125
 21
215.25
 31
0.0
  0
LINE
  5
DA
  8
1
  6
CONTINUOUS
 62
     7
 10
-89.1500125
 20
215.25
 30
0.0
 11
-89.1500125
 21
183.0584440249
 31
0.0
  0
ARC
  5
DB
  8
1
  6
CONTINUOUS
 62
     7
 10
1869.365763621005
 20
204.4236711395411
 30
0.0
 40
2129.368881057948
 50
180.3881197129939
 51
180.4968014792363
  0
ARC
  5
DC
  8
1
  6
CONTINUOUS
 62
     7
 10
304.3601655950909
 20
189.4499268223661
 30
0.0
 40
564.2940259466146
 50
180.3542998266226
 51
180.8200951484466
  0
LINE
  5
DD
  8
1
  6
CONTINUOUS
 62
     7
 10
-120.1500125
 20
219.25
 30
0.0
 11
-119.1500125
 21
219.25
 31
0.0
  0
LINE
  5
DE
  8
1
  6
CONTINUOUS
 62
     7
 10
-80.1500125
 20
219.25
 30
0.0
 11
-79.1500125
 21
219.25
 31
0.0
  0
LINE
  5
DF
  8
1
  6
CONTINUOUS
 62
     7
 10
-90.1500125
 20
219.25
 30
0.0
 11
-89.1500125
 21
219.25
 31
0.0
  0
LINE
  5
E0
  8
1
  6
CONTINUOUS
 62
     7
 10
-129.1500125
 20
251.4415559751
 30
0.0
 11
-130.1500125
 21
251.4415559751
 31
0.0
  0
LINE
  5
E1
  8
1
  6
CONTINUOUS
 62
     7
 10
-159.1500125
 20
215.25
 30
0.0
 11
-159.1500125
 21
183.0584440249
 31
0.0
  0
LINE
  5
E2
  8
1
  6
CONTINUOUS
 62
     7
 10
-69.1500125
 20
251.4415559751
 30
0.0
 11
-69.1500125
 21
219.25
 31
0.0
  0
LINE
  5
E3
  8
1
  6
CONTINUOUS
 62
     7
 10
-69.1500125
 20
251.4415559751
 30
0.0
 11
-70.1500125
 21
251.4415559751
 31
0.0
  0
LINE
  5
E4
  8
1
  6
CONTINUOUS
 62
     7
 10
-79.1500125
 20
251.4415559751
 30
0.0
 11
-80.1500125
 21
251.4415559751
 31
0.0
  0
LINE
  5
E5
  8
1
  6
CONTINUOUS
 62
     7
 10
-100.1500125
 20
219.25
 30
0.0
 11
-99.1500125
 21
219.25
 31
0.0
  0
LINE
  5
E6
  8
1
  6
CONTINUOUS
 62
     7
 10
-120.1500125
 20
219.25
 30
0.0
 11
-120.1500125
 21
251.4415559751
 31
0.0
  0
LINE
  5
E7
  8
1
  6
CONTINUOUS
 62
     7
 10
-140.1500125
 20
219.25
 30
0.0
 11
-140.1500125
 21
251.4415559751
 31
0.0
  0
LINE
  5
E8
  8
1
  6
CONTINUOUS
 62
     7
 10
-159.1500125
 20
251.4415559751
 30
0.0
 11
-159.1500125
 21
219.25
 31
0.0
  0
LINE
  5
E9
  8
1
  6
CONTINUOUS
 62
     7
 10
-160.1500125
 20
183.0584440249
 30
0.0
 11
-159.1500125
 21
183.0584440249
 31
0.0
  0
LINE
  5
EA
  8
1
  6
CONTINUOUS
 62
     7
 10
-149.1500125
 20
215.25
 30
0.0
 11
-150.1500125
 21
215.25
 31
0.0
  0
LINE
  5
EB
  8
1
  6
CONTINUOUS
 62
     7
 10
-79.1500125
 20
251.4415559751
 30
0.0
 11
-79.1500125
 21
219.25
 31
0.0
  0
LINE
  5
EC
  8
1
  6
CONTINUOUS
 62
     7
 10
-80.1500125
 20
219.25
 30
0.0
 11
-80.1500125
 21
251.4415559751
 31
0.0
  0
LINE
  5
ED
  8
1
  6
CONTINUOUS
 62
     7
 10
-89.1500125
 20
251.4415559751
 30
0.0
 11
-90.1500125
 21
251.4415559751
 31
0.0
  0
LINE
  5
EE
  8
1
  6
CONTINUOUS
 62
     7
 10
-110.1500125
 20
219.25
 30
0.0
 11
-109.1500125
 21
219.25
 31
0.0
  0
LINE
  5
EF
  8
1
  6
CONTINUOUS
 62
     7
 10
-140.1500125
 20
219.25
 30
0.0
 11
-139.1500125
 21
219.25
 31
0.0
  0
LINE
  5
F0
  8
1
  6
CONTINUOUS
 62
     7
 10
-150.1500125
 20
219.25
 30
0.0
 11
-150.1500125
 21
251.4415559751
 31
0.0
  0
LINE
  5
F1
  8
1
  6
CONTINUOUS
 62
     7
 10
-160.1500125
 20
219.25
 30
0.0
 11
-160.1500125
 21
251.4415559751
 31
0.0
  0
LINE
  5
F2
  8
1
  6
CONTINUOUS
 62
     7
 10
-160.1500125
 20
219.25
 30
0.0
 11
-159.1500125
 21
219.25
 31
0.0
  0
LINE
  5
F3
  8
1
  6
CONTINUOUS
 62
     7
 10
-149.1500125
 20
251.4415559751
 30
0.0
 11
-150.1500125
 21
251.4415559751
 31
0.0
  0
LINE
  5
F4
  8
1
  6
CONTINUOUS
 62
     7
 10
-159.4775857108
 20
183.9600240312
 30
0.0
 11
-159.1500125
 21
183.0584440249
 31
0.0
  0
LINE
  5
F5
  8
1
  6
CONTINUOUS
 62
     7
 10
-130.1500125
 20
219.25
 30
0.0
 11
-129.1500125
 21
219.25
 31
0.0
  0
LINE
  5
F6
  8
1
  6
CONTINUOUS
 62
     7
 10
-70.1500125
 20
219.25
 30
0.0
 11
-69.1500125
 21
219.25
 31
0.0
  0
LINE
  5
F7
  8
1
  6
CONTINUOUS
 62
     7
 10
-150.1500125
 20
219.25
 30
0.0
 11
-149.1500125
 21
219.25
 31
0.0
  0
LINE
  5
F8
  8
1
  6
CONTINUOUS
 62
     7
 10
-159.1500125
 20
251.4415559751
 30
0.0
 11
-160.1500125
 21
251.4415559751
 31
0.0
  0
LINE
  5
F9
  8
1
  6
CONTINUOUS
 62
     7
 10
-160.1500125
 20
183.0584440249
 30
0.0
 11
-160.1500125
 21
215.25
 31
0.0
  0
LINE
  5
FA
  8
1
  6
CONTINUOUS
 62
     7
 10
-159.4775857108
 20
215.25
 30
0.0
 11
-159.4775857108
 21
183.9600240312
 31
0.0
  0
LINE
  5
FB
  8
1
  6
CONTINUOUS
 62
     7
 10
-129.1500125
 20
251.4415559751
 30
0.0
 11
-129.4775857108
 21
250.5399759688
 31
0.0
  0
LINE
  5
FC
  8
1
  6
CONTINUOUS
 62
     7
 10
-129.4775857108
 20
250.5399759688
 30
0.0
 11
-129.4775857108
 21
219.25
 31
0.0
  0
LINE
  5
FD
  8
1
  6
CONTINUOUS
 62
     7
 10
-149.1500125
 20
251.4415559751
 30
0.0
 11
-149.4775857108
 21
250.5399759688
 31
0.0
  0
LINE
  5
FE
  8
1
  6
CONTINUOUS
 62
     7
 10
-149.4775857108
 20
250.5399759688
 30
0.0
 11
-149.4775857108
 21
219.25
 31
0.0
  0
LINE
  5
FF
  8
1
  6
CONTINUOUS
 62
     7
 10
-140.1500125
 20
183.0584440249
 30
0.0
 11
-139.8224392892
 21
183.9600240312
 31
0.0
  0
LINE
  5
100
  8
1
  6
CONTINUOUS
 62
     7
 10
-99.1500125
 20
251.4415559751
 30
0.0
 11
-99.1500125
 21
219.25
 31
0.0
  0
LINE
  5
101
  8
1
  6
CONTINUOUS
 62
     7
 10
-109.1500125
 20
251.4415559751
 30
0.0
 11
-110.1500125
 21
251.4415559751
 31
0.0
  0
LINE
  5
102
  8
1
  6
CONTINUOUS
 62
     7
 10
-139.8224392892
 20
215.25
 30
0.0
 11
-139.8224392892
 21
183.9600240312
 31
0.0
  0
LINE
  5
103
  8
1
  6
CONTINUOUS
 62
     7
 10
-150.1500125
 20
183.0584440249
 30
0.0
 11
-149.1500125
 21
183.0584440249
 31
0.0
  0
LINE
  5
104
  8
1
  6
CONTINUOUS
 62
     7
 10
-100.1500125
 20
219.25
 30
0.0
 11
-100.1500125
 21
251.4415559751
 31
0.0
  0
LINE
  5
105
  8
1
  6
CONTINUOUS
 62
     7
 10
-70.1500125
 20
219.25
 30
0.0
 11
-70.1500125
 21
251.4415559751
 31
0.0
  0
LINE
  5
106
  8
1
  6
CONTINUOUS
 62
     7
 10
-110.1500125
 20
219.25
 30
0.0
 11
-110.1500125
 21
251.4415559751
 31
0.0
  0
LINE
  5
107
  8
1
  6
CONTINUOUS
 62
     7
 10
-149.1500125
 20
215.25
 30
0.0
 11
-149.1500125
 21
183.0584440249
 31
0.0
  0
LINE
  5
108
  8
1
  6
CONTINUOUS
 62
     7
 10
-150.1500125
 20
183.0584440249
 30
0.0
 11
-150.1500125
 21
215.25
 31
0.0
  0
LINE
  5
109
  8
1
  6
CONTINUOUS
 62
     7
 10
-159.1500125
 20
215.25
 30
0.0
 11
-160.1500125
 21
215.25
 31
0.0
  0
LINE
  5
10A
  8
1
  6
CONTINUOUS
 62
     7
 10
-109.1500125
 20
251.4415559751
 30
0.0
 11
-109.1500125
 21
219.25
 31
0.0
  0
LINE
  5
10B
  8
1
  6
CONTINUOUS
 62
     7
 10
-119.1500125
 20
251.4415559751
 30
0.0
 11
-119.1500125
 21
219.25
 31
0.0
  0
LINE
  5
10C
  8
1
  6
CONTINUOUS
 62
     7
 10
-119.1500125
 20
251.4415559751
 30
0.0
 11
-120.1500125
 21
251.4415559751
 31
0.0
  0
LINE
  5
10D
  8
1
  6
CONTINUOUS
 62
     7
 10
-139.1500125
 20
251.4415559751
 30
0.0
 11
-139.1500125
 21
219.25
 31
0.0
  0
LINE
  5
10E
  8
1
  6
CONTINUOUS
 62
     7
 10
-89.1500125
 20
251.4415559751
 30
0.0
 11
-89.1500125
 21
219.25
 31
0.0
  0
LINE
  5
10F
  8
1
  6
CONTINUOUS
 62
     7
 10
-90.1500125
 20
219.25
 30
0.0
 11
-90.1500125
 21
251.4415559751
 31
0.0
  0
LINE
  5
110
  8
1
  6
CONTINUOUS
 62
     7
 10
-129.1500125
 20
251.4415559751
 30
0.0
 11
-129.1500125
 21
219.25
 31
0.0
  0
LINE
  5
111
  8
1
  6
CONTINUOUS
 62
     7
 10
-99.1500125
 20
251.4415559751
 30
0.0
 11
-100.1500125
 21
251.4415559751
 31
0.0
  0
LINE
  5
112
  8
1
  6
CONTINUOUS
 62
     7
 10
-130.1500125
 20
219.25
 30
0.0
 11
-130.1500125
 21
251.4415559751
 31
0.0
  0
LINE
  5
113
  8
1
  6
CONTINUOUS
 62
     7
 10
-139.1500125
 20
251.4415559751
 30
0.0
 11
-140.1500125
 21
251.4415559751
 31
0.0
  0
LINE
  5
114
  8
1
  6
CONTINUOUS
 62
     7
 10
-149.1500125
 20
251.4415559751
 30
0.0
 11
-149.1500125
 21
219.25
 31
0.0
  0
LINE
  5
115
  8
1
  6
CONTINUOUS
 62
     7
 10
-139.1500125
 20
251.4415559751
 30
0.0
 11
-139.4775857108
 21
250.5399759688
 31
0.0
  0
LINE
  5
116
  8
1
  6
CONTINUOUS
 62
     7
 10
-100.1500125
 20
183.0584440249
 30
0.0
 11
-99.8224392892
 21
183.9600240312
 31
0.0
  0
LINE
  5
117
  8
1
  6
CONTINUOUS
 62
     7
 10
-99.8224392892
 20
215.25
 30
0.0
 11
-99.8224392892
 21
183.9600240312
 31
0.0
  0
LINE
  5
118
  8
1
  6
CONTINUOUS
 62
     7
 10
-99.8224392892
 20
250.5399759688
 30
0.0
 11
-99.8224392892
 21
219.25
 31
0.0
  0
LINE
  5
119
  8
1
  6
CONTINUOUS
 62
     7
 10
-109.8224392892
 20
250.5399759688
 30
0.0
 11
-109.8224392892
 21
219.25
 31
0.0
  0
LINE
  5
11A
  8
1
  6
CONTINUOUS
 62
     7
 10
-119.1500125
 20
251.4415559751
 30
0.0
 11
-119.4775857108
 21
250.5399759688
 31
0.0
  0
LINE
  5
11B
  8
1
  6
CONTINUOUS
 62
     7
 10
-149.8224392892
 20
250.5399759688
 30
0.0
 11
-149.8224392892
 21
219.25
 31
0.0
  0
LINE
  5
11C
  8
1
  6
CONTINUOUS
 62
     7
 10
-149.8224392892
 20
215.25
 30
0.0
 11
-149.8224392892
 21
183.9600240312
 31
0.0
  0
LINE
  5
11D
  8
1
  6
CONTINUOUS
 62
     7
 10
-99.4775857108
 20
183.9600240312
 30
0.0
 11
-99.1500125
 21
183.0584440249
 31
0.0
  0
LINE
  5
11E
  8
1
  6
CONTINUOUS
 62
     7
 10
-99.8224392892
 20
250.5399759688
 30
0.0
 11
-100.1500125
 21
251.4415559751
 31
0.0
  0
LINE
  5
11F
  8
1
  6
CONTINUOUS
 62
     7
 10
-109.4775857108
 20
215.25
 30
0.0
 11
-109.4775857108
 21
183.9600240312
 31
0.0
  0
LINE
  5
120
  8
1
  6
CONTINUOUS
 62
     7
 10
-89.4775857108
 20
183.9600240312
 30
0.0
 11
-89.1500125
 21
183.0584440249
 31
0.0
  0
LINE
  5
121
  8
1
  6
CONTINUOUS
 62
     7
 10
-109.8224392892
 20
215.25
 30
0.0
 11
-109.8224392892
 21
183.9600240312
 31
0.0
  0
LINE
  5
122
  8
1
  6
CONTINUOUS
 62
     7
 10
-139.4775857108
 20
183.9600240312
 30
0.0
 11
-139.1500125
 21
183.0584440249
 31
0.0
  0
LINE
  5
123
  8
1
  6
CONTINUOUS
 62
     7
 10
-159.8224392892
 20
250.5399759688
 30
0.0
 11
-159.8224392892
 21
219.25
 31
0.0
  0
LINE
  5
124
  8
1
  6
CONTINUOUS
 62
     7
 10
-109.4775857108
 20
183.9600240312
 30
0.0
 11
-109.1500125
 21
183.0584440249
 31
0.0
  0
LINE
  5
125
  8
1
  6
CONTINUOUS
 62
     7
 10
-149.8224392892
 20
250.5399759688
 30
0.0
 11
-150.1500125
 21
251.4415559751
 31
0.0
  0
LINE
  5
126
  8
1
  6
CONTINUOUS
 62
     7
 10
-149.4775857108
 20
215.25
 30
0.0
 11
-149.4775857108
 21
183.9600240312
 31
0.0
  0
LINE
  5
127
  8
1
  6
CONTINUOUS
 62
     7
 10
-89.4775857108
 20
215.25
 30
0.0
 11
-89.4775857108
 21
183.9600240312
 31
0.0
  0
LINE
  5
128
  8
1
  6
CONTINUOUS
 62
     7
 10
-119.8224392892
 20
250.5399759688
 30
0.0
 11
-119.8224392892
 21
219.25
 31
0.0
  0
LINE
  5
129
  8
1
  6
CONTINUOUS
 62
     7
 10
-69.4775857108
 20
183.9600240312
 30
0.0
 11
-69.1500125
 21
183.0584440249
 31
0.0
  0
LINE
  5
12A
  8
1
  6
CONTINUOUS
 62
     7
 10
-119.4775857108
 20
250.5399759688
 30
0.0
 11
-119.4775857108
 21
219.25
 31
0.0
  0
LINE
  5
12B
  8
1
  6
CONTINUOUS
 62
     7
 10
-109.1500125
 20
251.4415559751
 30
0.0
 11
-109.4775857108
 21
250.5399759688
 31
0.0
  0
LINE
  5
12C
  8
1
  6
CONTINUOUS
 62
     7
 10
-120.1500125
 20
183.0584440249
 30
0.0
 11
-119.8224392892
 21
183.9600240312
 31
0.0
  0
LINE
  5
12D
  8
1
  6
CONTINUOUS
 62
     7
 10
-159.4775857108
 20
250.5399759688
 30
0.0
 11
-159.4775857108
 21
219.25
 31
0.0
  0
LINE
  5
12E
  8
1
  6
CONTINUOUS
 62
     7
 10
-139.8224392892
 20
250.5399759688
 30
0.0
 11
-139.8224392892
 21
219.25
 31
0.0
  0
LINE
  5
12F
  8
1
  6
CONTINUOUS
 62
     7
 10
-109.4775857108
 20
250.5399759688
 30
0.0
 11
-109.4775857108
 21
219.25
 31
0.0
  0
LINE
  5
130
  8
1
  6
CONTINUOUS
 62
     7
 10
-160.1500125
 20
183.0584440249
 30
0.0
 11
-159.8224392892
 21
183.9600240312
 31
0.0
  0
LINE
  5
131
  8
1
  6
CONTINUOUS
 62
     7
 10
-69.4775857108
 20
215.25
 30
0.0
 11
-69.4775857108
 21
183.9600240312
 31
0.0
  0
LINE
  5
132
  8
1
  6
CONTINUOUS
 62
     7
 10
-139.4775857108
 20
250.5399759688
 30
0.0
 11
-139.4775857108
 21
219.25
 31
0.0
  0
LINE
  5
133
  8
1
  6
CONTINUOUS
 62
     7
 10
-99.1500125
 20
251.4415559751
 30
0.0
 11
-99.4775857108
 21
250.5399759688
 31
0.0
  0
LINE
  5
134
  8
1
  6
CONTINUOUS
 62
     7
 10
-99.4775857108
 20
250.5399759688
 30
0.0
 11
-99.4775857108
 21
219.25
 31
0.0
  0
LINE
  5
135
  8
1
  6
CONTINUOUS
 62
     7
 10
-90.1500125
 20
183.0584440249
 30
0.0
 11
-89.8224392892
 21
183.9600240312
 31
0.0
  0
LINE
  5
136
  8
1
  6
CONTINUOUS
 62
     7
 10
-89.8224392892
 20
215.25
 30
0.0
 11
-89.8224392892
 21
183.9600240312
 31
0.0
  0
LINE
  5
137
  8
1
  6
CONTINUOUS
 62
     7
 10
-89.8224392892
 20
250.5399759688
 30
0.0
 11
-90.1500125
 21
251.4415559751
 31
0.0
  0
LINE
  5
138
  8
1
  6
CONTINUOUS
 62
     7
 10
-89.8224392892
 20
250.5399759688
 30
0.0
 11
-89.8224392892
 21
219.25
 31
0.0
  0
LINE
  5
139
  8
1
  6
CONTINUOUS
 62
     7
 10
-159.8224392892
 20
215.25
 30
0.0
 11
-159.8224392892
 21
183.9600240312
 31
0.0
  0
LINE
  5
13A
  8
1
  6
CONTINUOUS
 62
     7
 10
-119.4775857108
 20
183.9600240312
 30
0.0
 11
-119.1500125
 21
183.0584440249
 31
0.0
  0
LINE
  5
13B
  8
1
  6
CONTINUOUS
 62
     7
 10
-129.8224392892
 20
250.5399759688
 30
0.0
 11
-129.8224392892
 21
219.25
 31
0.0
  0
LINE
  5
13C
  8
1
  6
CONTINUOUS
 62
     7
 10
-119.8224392892
 20
215.25
 30
0.0
 11
-119.8224392892
 21
183.9600240312
 31
0.0
  0
LINE
  5
13D
  8
1
  6
CONTINUOUS
 62
     7
 10
-129.8224392892
 20
215.25
 30
0.0
 11
-129.8224392892
 21
183.9600240312
 31
0.0
  0
LINE
  5
13E
  8
1
  6
CONTINUOUS
 62
     7
 10
-159.8224392892
 20
250.5399759688
 30
0.0
 11
-160.1500125
 21
251.4415559751
 31
0.0
  0
LINE
  5
13F
  8
1
  6
CONTINUOUS
 62
     7
 10
-109.8224392892
 20
250.5399759688
 30
0.0
 11
-110.1500125
 21
251.4415559751
 31
0.0
  0
LINE
  5
140
  8
1
  6
CONTINUOUS
 62
     7
 10
-119.4775857108
 20
215.25
 30
0.0
 11
-119.4775857108
 21
183.9600240312
 31
0.0
  0
LINE
  5
141
  8
1
  6
CONTINUOUS
 62
     7
 10
-159.1500125
 20
251.4415559751
 30
0.0
 11
-159.4775857108
 21
250.5399759688
 31
0.0
  0
LINE
  5
142
  8
1
  6
CONTINUOUS
 62
     7
 10
-130.1500125
 20
183.0584440249
 30
0.0
 11
-129.8224392892
 21
183.9600240312
 31
0.0
  0
LINE
  5
143
  8
1
  6
CONTINUOUS
 62
     7
 10
-139.4775857108
 20
215.25
 30
0.0
 11
-139.4775857108
 21
183.9600240312
 31
0.0
  0
LINE
  5
144
  8
1
  6
CONTINUOUS
 62
     7
 10
-150.1500125
 20
183.0584440249
 30
0.0
 11
-149.8224392892
 21
183.9600240312
 31
0.0
  0
LINE
  5
145
  8
1
  6
CONTINUOUS
 62
     7
 10
-99.4775857108
 20
215.25
 30
0.0
 11
-99.4775857108
 21
183.9600240312
 31
0.0
  0
LINE
  5
146
  8
1
  6
CONTINUOUS
 62
     7
 10
-129.8224392892
 20
250.5399759688
 30
0.0
 11
-130.1500125
 21
251.4415559751
 31
0.0
  0
LINE
  5
147
  8
1
  6
CONTINUOUS
 62
     7
 10
-129.4775857108
 20
183.9600240312
 30
0.0
 11
-129.1500125
 21
183.0584440249
 31
0.0
  0
LINE
  5
148
  8
1
  6
CONTINUOUS
 62
     7
 10
-110.1500125
 20
183.0584440249
 30
0.0
 11
-109.8224392892
 21
183.9600240312
 31
0.0
  0
LINE
  5
149
  8
1
  6
CONTINUOUS
 62
     7
 10
-129.4775857108
 20
215.25
 30
0.0
 11
-129.4775857108
 21
183.9600240312
 31
0.0
  0
LINE
  5
14A
  8
1
  6
CONTINUOUS
 62
     7
 10
-139.8224392892
 20
250.5399759688
 30
0.0
 11
-140.1500125
 21
251.4415559751
 31
0.0
  0
LINE
  5
14B
  8
1
  6
CONTINUOUS
 62
     7
 10
-119.8224392892
 20
250.5399759688
 30
0.0
 11
-120.1500125
 21
251.4415559751
 31
0.0
  0
LINE
  5
14C
  8
1
  6
CONTINUOUS
 62
     7
 10
-149.4775857108
 20
183.9600240312
 30
0.0
 11
-149.1500125
 21
183.0584440249
 31
0.0
  0
ENDSEC
  0
EOF
