  0
SECTION
  2
HEADER
  9
$ACADVER
  1
AC1006
  9
$DWGCODEPAGE
  3
ansi_932
  9
$INSBASE
 10
0.0
 20
0.0
 30
0.0
  9
$EXTMIN
 10
-434.149245871223
 20
153.3704545454545
  9
$EXTMAX
 10
-316.1924036235296
 20
200.4
  9
$LIMMIN
 10
0.0
 20
0.0
  9
$LIMMAX
 10
12.0
 20
9.0
  9
$ORTHOMODE
 70
     0
  9
$REGENMODE
 70
     1
  9
$FILLMODE
 70
     1
  9
$QTEXTMODE
 70
     0
  9
$MIRRTEXT
 70
     1
  9
$DRAGMODE
 70
     2
  9
$LTSCALE
 40
1.0
  9
$OSMODE
 70
    37
  9
$ATTMODE
 70
     1
  9
$TEXTSIZE
 40
0.2
  9
$TRACEWID
 40
0.05
  9
$TEXTSTYLE
  7
STANDARD
  9
$CLAYER
  8
0
  9
$CELTYPE
  6
BYLAYER
  9
$CECOLOR
 62
   256
  9
$DIMSCALE
 40
1.0
  9
$DIMASZ
 40
3.0
  9
$DIMEXO
 40
0.0625
  9
$DIMDLI
 40
0.38
  9
$DIMRND
 40
0.0
  9
$DIMDLE
 40
0.0
  9
$DIMEXE
 40
1.5
  9
$DIMTP
 40
0.0
  9
$DIMTM
 40
0.0
  9
$DIMTXT
 40
3.0
  9
$DIMCEN
 40
0.09
  9
$DIMTSZ
 40
0.0
  9
$DIMTOL
 70
     0
  9
$DIMLIM
 70
     0
  9
$DIMTIH
 70
     1
  9
$DIMTOH
 70
     1
  9
$DIMSE1
 70
     0
  9
$DIMSE2
 70
     0
  9
$DIMTAD
 70
     1
  9
$DIMZIN
 70
     0
  9
$DIMBLK
  1

  9
$DIMASO
 70
     1
  9
$DIMSHO
 70
     1
  9
$DIMPOST
  1

  9
$DIMAPOST
  1

  9
$DIMALT
 70
     0
  9
$DIMALTD
 70
     2
  9
$DIMALTF
 40
25.4
  9
$DIMLFAC
 40
1.0
  9
$DIMTOFL
 70
     0
  9
$DIMTVP
 40
0.0
  9
$DIMTIX
 70
     0
  9
$DIMSOXD
 70
     0
  9
$DIMSAH
 70
     0
  9
$DIMBLK1
  1

  9
$DIMBLK2
  1

  9
$LUNITS
 70
     2
  9
$LUPREC
 70
     4
  9
$SKETCHINC
 40
0.1
  9
$FILLETRAD
 40
0.5
  9
$AUNITS
 70
     0
  9
$AUPREC
 70
     0
  9
$MENU
  1
.
  9
$ELEVATION
 40
0.0
  9
$THICKNESS
 40
0.0
  9
$LIMCHECK
 70
     0
  9
$CHAMFERA
 40
0.0
  9
$CHAMFERB
 40
0.0
  9
$SKPOLY
 70
     0
  9
$TDCREATE
 40
2459289.412891273
  9
$TDUPDATE
 40
2459289.412891458
  9
$TDINDWG
 40
0.0000000116
  9
$TDUSRTIMER
 40
0.0000000116
  9
$USRTIMER
 70
     1
  9
$ANGBASE
 50
0.0
  9
$ANGDIR
 70
     0
  9
$PDMODE
 70
     0
  9
$PDSIZE
 40
0.0
  9
$PLINEWID
 40
0.0
  9
$COORDS
 70
     1
  9
$SPLFRAME
 70
     0
  9
$SPLINETYPE
 70
     6
  9
$SPLINESEGS
 70
     8
  9
$ATTDIA
 70
     0
  9
$ATTREQ
 70
     1
  9
$HANDLING
 70
     1
  9
$HANDSEED
  5
651
  9
$SURFTAB1
 70
     6
  9
$SURFTAB2
 70
     6
  9
$SURFTYPE
 70
     6
  9
$SURFU
 70
     6
  9
$SURFV
 70
     6
  9
$UCSNAME
  2

  9
$UCSORG
 10
0.0
 20
0.0
 30
0.0
  9
$UCSXDIR
 10
1.0
 20
0.0
 30
0.0
  9
$UCSYDIR
 10
0.0
 20
1.0
 30
0.0
  9
$USERI1
 70
     0
  9
$USERI2
 70
     0
  9
$USERI3
 70
     0
  9
$USERI4
 70
     0
  9
$USERI5
 70
     0
  9
$USERR1
 40
0.0
  9
$USERR2
 40
0.0
  9
$USERR3
 40
0.0
  9
$USERR4
 40
0.0
  9
$USERR5
 40
0.0
  9
$WORLDVIEW
 70
     1
  0
ENDSEC
  0
SECTION
  2
TABLES
  0
TABLE
  2
VPORT
 70
     1
  0
VPORT
  2
*ACTIVE
 70
     0
 10
0.0
 20
0.0
 11
1.0
 21
1.0
 12
-375.1708247473763
 22
176.8852272727273
 13
0.0
 23
0.0
 14
0.5
 24
0.5
 15
0.5
 25
0.5
 16
0.0
 26
0.0
 36
1.0
 17
0.0
 27
0.0
 37
0.0
 40
47.02954545454548
 41
1.6
 42
50.0
 43
0.0
 44
0.0
 50
0.0
 51
0.0
 71
     0
 72
   100
 73
     1
 74
     3
 75
     0
 76
     0
 77
     0
 78
     0
  0
ENDTAB
  0
TABLE
  2
LTYPE
 70
     1
  0
LTYPE
  2
CONTINUOUS
 70
     0
  3
Solid line
 72
    65
 73
     0
 40
0.0
  0
ENDTAB
  0
TABLE
  2
LAYER
 70
     2
  0
LAYER
  2
0
 70
     0
 62
     7
  6
CONTINUOUS
  0
LAYER
  2
1
 70
     0
 62
     7
  6
CONTINUOUS
  0
ENDTAB
  0
TABLE
  2
STYLE
 70
     2
  0
STYLE
  2
STANDARD
 70
     0
 40
0.0
 41
1.0
 50
0.0
 71
     0
 42
0.2
  3
txt
  4

  0
STYLE
  2
ＭＳ_ゴシック
 70
     0
 40
0.0
 41
1.0
 50
0.0
 71
     0
 42
0.2
  3
ＭＳ ゴシック.shx
  4

  0
ENDTAB
  0
TABLE
  2
VIEW
 70
     0
  0
ENDTAB
  0
TABLE
  2
UCS
 70
     0
  0
ENDTAB
  0
ENDSEC
  0
SECTION
  2
BLOCKS
  0
BLOCK
  8
0
  2
D_FRAME_VIEW_3550
 70
     0
 10
0.0
 20
0.0
 30
0.0
  0
ARC
  5
71
  8
1
  6
CONTINUOUS
 62
     7
 10
-377.2756032437581
 20
184.7
 30
0.0
 40
5.329076665235455
 50
332.0225242534897
 51
27.97747574648338
  0
ARC
  5
72
  8
1
  6
CONTINUOUS
 62
     7
 10
-364.6550024616678
 20
177.95
 30
0.0
 40
8.98326198358439
 50
151.7641510756417
 51
208.2358489243734
  0
POLYLINE
  5
73
  8
1
  6
CONTINUOUS
 62
     7
 66
     1
 10
0.0
 20
0.0
 30
0.0
  0
VERTEX
  5
17F
  8
1
  6
CONTINUOUS
 62
     7
 10
-372.569324660423
 20
171.2
 30
0.0
  0
VERTEX
  5
180
  8
1
  6
CONTINUOUS
 62
     7
 10
-372.3907856623254
 20
171.2178284507932
 30
0.0
  0
VERTEX
  5
181
  8
1
  6
CONTINUOUS
 62
     7
 10
-372.2536797632311
 20
171.2641737793344
 30
0.0
  0
VERTEX
  5
182
  8
1
  6
CONTINUOUS
 62
     7
 10
-372.1526380195945
 20
171.3285053399603
 30
0.0
  0
VERTEX
  5
183
  8
1
  6
CONTINUOUS
 62
     7
 10
-372.0702140846309
 20
171.4155628764927
 30
0.0
  0
VERTEX
  5
184
  8
1
  6
CONTINUOUS
 62
     7
 10
-372.0080978753873
 20
171.5248528816398
 30
0.0
  0
VERTEX
  5
185
  8
1
  6
CONTINUOUS
 62
     7
 10
-371.9665196705597
 20
171.6590078339201
 30
0.0
  0
VERTEX
  5
186
  8
1
  6
CONTINUOUS
 62
     7
 10
-371.9475182369184
 20
171.8184940968166
 30
0.0
  0
SEQEND
  5
63B
  8
1
  6
CONTINUOUS
 62
     7
  0
ARC
  5
74
  8
1
  6
CONTINUOUS
 62
     7
 10
-376.4622596770217
 20
171.3699483970776
 30
0.0
 40
4.536968538103459
 50
5.673794378608214
 51
30.90192948553968
  0
ARC
  5
75
  8
1
  6
CONTINUOUS
 62
     7
 10
-375.851281185289
 20
197.7826604567861
 30
0.0
 40
3.886992823426626
 50
327.6016489035866
 51
359.2476667009153
  0
POLYLINE
  5
76
  8
1
  6
CONTINUOUS
 62
     7
 66
     1
 10
0.0
 20
0.0
 30
0.0
  0
VERTEX
  5
187
  8
1
  6
CONTINUOUS
 62
     7
 10
-371.9646234451807
 20
197.7316230134126
 30
0.0
  0
VERTEX
  5
188
  8
1
  6
CONTINUOUS
 62
     7
 10
-371.992518165181
 20
197.8351472556404
 30
0.0
  0
VERTEX
  5
189
  8
1
  6
CONTINUOUS
 62
     7
 10
-372.0585952857587
 20
197.9680141783084
 30
0.0
  0
VERTEX
  5
18A
  8
1
  6
CONTINUOUS
 62
     7
 10
-372.1545563318967
 20
198.0730464625861
 30
0.0
  0
VERTEX
  5
18B
  8
1
  6
CONTINUOUS
 62
     7
 10
-372.2532779902411
 20
198.1356238874915
 30
0.0
  0
VERTEX
  5
18C
  8
1
  6
CONTINUOUS
 62
     7
 10
-372.3684652438261
 20
198.1769767279658
 30
0.0
  0
VERTEX
  5
18D
  8
1
  6
CONTINUOUS
 62
     7
 10
-372.4987793992437
 20
198.1974549674314
 30
0.0
  0
VERTEX
  5
18E
  8
1
  6
CONTINUOUS
 62
     7
 10
-372.5693246604231
 20
198.2
 30
0.0
  0
SEQEND
  5
63C
  8
1
  6
CONTINUOUS
 62
     7
  0
ARC
  5
77
  8
1
  6
CONTINUOUS
 62
     7
 10
-364.6535034864053
 20
191.45
 30
0.0
 40
8.984582620190507
 50
151.7686735285681
 51
208.2313264714319
  0
LINE
  5
78
  8
1
  6
CONTINUOUS
 62
     9
 10
-372.5693246604232
 20
173.7
 30
0.0
 11
-357.7924036235296
 21
173.7
 31
0.0
  0
LINE
  5
79
  8
1
  6
CONTINUOUS
 62
     9
 10
-357.7924036235296
 20
182.1999999999999
 30
0.0
 11
-372.5693246604243
 21
182.1999999999979
 31
0.0
  0
LINE
  5
7A
  8
1
  6
CONTINUOUS
 62
     9
 10
-372.5693246604231
 20
187.2
 30
0.0
 11
-357.7924036235296
 21
187.1999999999999
 31
0.0
  0
LINE
  5
7B
  8
1
  6
CONTINUOUS
 62
     9
 10
-357.7924036235296
 20
195.7
 30
0.0
 11
-372.5693246604231
 21
195.7
 31
0.0
  0
POLYLINE
  5
7C
  8
1
  6
CONTINUOUS
 62
     7
 66
     1
 10
0.0
 20
0.0
 30
0.0
  0
VERTEX
  5
18F
  8
1
  6
CONTINUOUS
 62
     7
 10
-317.4424036235296
 20
187.6074074074074
 30
0.0
  0
VERTEX
  5
190
  8
1
  6
CONTINUOUS
 62
     7
 10
-317.4426780137279
 20
187.5914599657369
 30
0.0
  0
VERTEX
  5
191
  8
1
  6
CONTINUOUS
 62
     7
 10
-317.4434975386803
 20
187.5756364998604
 30
0.0
  0
VERTEX
  5
192
  8
1
  6
CONTINUOUS
 62
     7
 10
-317.4448567299233
 20
187.5599876505849
 30
0.0
  0
VERTEX
  5
193
  8
1
  6
CONTINUOUS
 62
     7
 10
-317.4467929958412
 20
187.5442350952653
 30
0.0
  0
VERTEX
  5
194
  8
1
  6
CONTINUOUS
 62
     7
 10
-317.4492725727049
 20
187.5287201926009
 30
0.0
  0
VERTEX
  5
195
  8
1
  6
CONTINUOUS
 62
     7
 10
-317.4523456838788
 20
187.5131855841776
 30
0.0
  0
VERTEX
  5
196
  8
1
  6
CONTINUOUS
 62
     7
 10
-317.4559541157871
 20
187.4979476937716
 30
0.0
  0
VERTEX
  5
197
  8
1
  6
CONTINUOUS
 62
     7
 10
-317.4600756002184
 20
187.4830466814538
 30
0.0
  0
VERTEX
  5
198
  8
1
  6
CONTINUOUS
 62
     7
 10
-317.4644978709626
 20
187.4690762352834
 30
0.0
  0
VERTEX
  5
199
  8
1
  6
CONTINUOUS
 62
     7
 10
-317.4693573196775
 20
187.4554447285222
 30
0.0
  0
VERTEX
  5
19A
  8
1
  6
CONTINUOUS
 62
     7
 10
-317.4766006716108
 20
187.437551932712
 30
0.0
  0
VERTEX
  5
19B
  8
1
  6
CONTINUOUS
 62
     7
 10
-317.4845661273
 20
187.4203177746683
 30
0.0
  0
VERTEX
  5
19C
  8
1
  6
CONTINUOUS
 62
     7
 10
-317.493194523137
 20
187.4037825213323
 30
0.0
  0
VERTEX
  5
19D
  8
1
  6
CONTINUOUS
 62
     7
 10
-317.5001803795764
 20
187.3916677295612
 30
0.0
  0
VERTEX
  5
19E
  8
1
  6
CONTINUOUS
 62
     7
 10
-317.5075050828635
 20
187.3799611106282
 30
0.0
  0
VERTEX
  5
19F
  8
1
  6
CONTINUOUS
 62
     7
 10
-317.5181888712841
 20
187.3644021934544
 30
0.0
  0
VERTEX
  5
1A0
  8
1
  6
CONTINUOUS
 62
     7
 10
-317.5294421856532
 20
187.3496206447368
 30
0.0
  0
VERTEX
  5
1A1
  8
1
  6
CONTINUOUS
 62
     7
 10
-317.5412068860703
 20
187.3356252857599
 30
0.0
  0
VERTEX
  5
1A2
  8
1
  6
CONTINUOUS
 62
     7
 10
-317.553646978092
 20
187.3221930919302
 30
0.0
  0
VERTEX
  5
1A3
  8
1
  6
CONTINUOUS
 62
     7
 10
-317.5665330604321
 20
187.3095449323135
 30
0.0
  0
VERTEX
  5
1A4
  8
1
  6
CONTINUOUS
 62
     7
 10
-317.5800200831613
 20
187.2975025235798
 30
0.0
  0
VERTEX
  5
1A5
  8
1
  6
CONTINUOUS
 62
     7
 10
-317.5938933607118
 20
187.2862342991251
 30
0.0
  0
VERTEX
  5
1A6
  8
1
  6
CONTINUOUS
 62
     7
 10
-317.6081091887148
 20
187.27573230693
 30
0.0
  0
VERTEX
  5
1A7
  8
1
  6
CONTINUOUS
 62
     7
 10
-317.627868419365
 20
187.2626916509933
 30
0.0
  0
VERTEX
  5
1A8
  8
1
  6
CONTINUOUS
 62
     7
 10
-317.6482377178752
 20
187.2509288631807
 30
0.0
  0
VERTEX
  5
1A9
  8
1
  6
CONTINUOUS
 62
     7
 10
-317.6690585918087
 20
187.2404730458309
 30
0.0
  0
VERTEX
  5
1AA
  8
1
  6
CONTINUOUS
 62
     7
 10
-317.6905794317893
 20
187.231166474446
 30
0.0
  0
VERTEX
  5
1AB
  8
1
  6
CONTINUOUS
 62
     7
 10
-317.7124543251886
 20
187.223132617101
 30
0.0
  0
VERTEX
  5
1AC
  8
1
  6
CONTINUOUS
 62
     7
 10
-317.7349337098633
 20
187.2162571094957
 30
0.0
  0
VERTEX
  5
1AD
  8
1
  6
CONTINUOUS
 62
     7
 10
-317.7576840020509
 20
187.2106255184682
 30
0.0
  0
VERTEX
  5
1AE
  8
1
  6
CONTINUOUS
 62
     7
 10
-317.7807480383815
 20
187.20619711777
 30
0.0
  0
VERTEX
  5
1AF
  8
1
  6
CONTINUOUS
 62
     7
 10
-317.7996981083199
 20
187.203476870386
 30
0.0
  0
VERTEX
  5
1B0
  8
1
  6
CONTINUOUS
 62
     7
 10
-317.8187989110259
 20
187.2015406000872
 30
0.0
  0
VERTEX
  5
1B1
  8
1
  6
CONTINUOUS
 62
     7
 10
-317.8379932130288
 20
187.2003846124813
 30
0.0
  0
VERTEX
  5
1B2
  8
1
  6
CONTINUOUS
 62
     7
 10
-317.857303561165
 20
187.2
 30
0.0
  0
SEQEND
  5
63D
  8
1
  6
CONTINUOUS
 62
     7
  0
LINE
  5
7D
  8
1
  6
CONTINUOUS
 62
     7
 10
-317.4424036235296
 20
187.6074074074074
 30
0.0
 11
-317.4424036235296
 21
183.2462962962963
 31
0.0
  0
POLYLINE
  5
7E
  8
1
  6
CONTINUOUS
 62
     7
 66
     1
 10
0.0
 20
0.0
 30
0.0
  0
VERTEX
  5
1B3
  8
1
  6
CONTINUOUS
 62
     7
 10
-317.9037773275119
 20
183.7
 30
0.0
  0
VERTEX
  5
1B4
  8
1
  6
CONTINUOUS
 62
     7
 10
-317.876060975862
 20
183.6992255794342
 30
0.0
  0
VERTEX
  5
1B5
  8
1
  6
CONTINUOUS
 62
     7
 10
-317.8484371140209
 20
183.6968945115685
 30
0.0
  0
VERTEX
  5
1B6
  8
1
  6
CONTINUOUS
 62
     7
 10
-317.8207729626519
 20
183.6929607130872
 30
0.0
  0
VERTEX
  5
1B7
  8
1
  6
CONTINUOUS
 62
     7
 10
-317.7932991114396
 20
183.6874132370981
 30
0.0
  0
VERTEX
  5
1B8
  8
1
  6
CONTINUOUS
 62
     7
 10
-317.7654733248266
 20
183.6800490386095
 30
0.0
  0
VERTEX
  5
1B9
  8
1
  6
CONTINUOUS
 62
     7
 10
-317.7379647177998
 20
183.6709376734322
 30
0.0
  0
VERTEX
  5
1BA
  8
1
  6
CONTINUOUS
 62
     7
 10
-317.710615690159
 20
183.6599395112509
 30
0.0
  0
VERTEX
  5
1BB
  8
1
  6
CONTINUOUS
 62
     7
 10
-317.6837391104852
 20
183.6470762127583
 30
0.0
  0
VERTEX
  5
1BC
  8
1
  6
CONTINUOUS
 62
     7
 10
-317.6610029849566
 20
183.6344408184431
 30
0.0
  0
VERTEX
  5
1BD
  8
1
  6
CONTINUOUS
 62
     7
 10
-317.6387396512536
 20
183.6203327079662
 30
0.0
  0
VERTEX
  5
1BE
  8
1
  6
CONTINUOUS
 62
     7
 10
-317.6170472278629
 20
183.604726892705
 30
0.0
  0
VERTEX
  5
1BF
  8
1
  6
CONTINUOUS
 62
     7
 10
-317.6008399821155
 20
183.5917110904646
 30
0.0
  0
VERTEX
  5
1C0
  8
1
  6
CONTINUOUS
 62
     7
 10
-317.5850392096727
 20
183.5777539127662
 30
0.0
  0
VERTEX
  5
1C1
  8
1
  6
CONTINUOUS
 62
     7
 10
-317.5697081172485
 20
183.5628501156758
 30
0.0
  0
VERTEX
  5
1C2
  8
1
  6
CONTINUOUS
 62
     7
 10
-317.5549099115572
 20
183.5469944552594
 30
0.0
  0
VERTEX
  5
1C3
  8
1
  6
CONTINUOUS
 62
     7
 10
-317.5444390921696
 20
183.5347666227655
 30
0.0
  0
VERTEX
  5
1C4
  8
1
  6
CONTINUOUS
 62
     7
 10
-317.5343015183685
 20
183.5220087311316
 30
0.0
  0
VERTEX
  5
1C5
  8
1
  6
CONTINUOUS
 62
     7
 10
-317.5244734010002
 20
183.5086461299969
 30
0.0
  0
VERTEX
  5
1C6
  8
1
  6
CONTINUOUS
 62
     7
 10
-317.5150367382088
 20
183.4947420797383
 30
0.0
  0
VERTEX
  5
1C7
  8
1
  6
CONTINUOUS
 62
     7
 10
-317.5058597262157
 20
183.4800247995437
 30
0.0
  0
VERTEX
  5
1C8
  8
1
  6
CONTINUOUS
 62
     7
 10
-317.4971533914375
 20
183.4647484836121
 30
0.0
  0
VERTEX
  5
1C9
  8
1
  6
CONTINUOUS
 62
     7
 10
-317.4888939396511
 20
183.4487982036439
 30
0.0
  0
VERTEX
  5
1CA
  8
1
  6
CONTINUOUS
 62
     7
 10
-317.4811851562284
 20
183.4322965510412
 30
0.0
  0
VERTEX
  5
1CB
  8
1
  6
CONTINUOUS
 62
     7
 10
-317.4755874599307
 20
183.4190709008817
 30
0.0
  0
VERTEX
  5
1CC
  8
1
  6
CONTINUOUS
 62
     7
 10
-317.4703654084216
 20
183.4055285987322
 30
0.0
  0
VERTEX
  5
1CD
  8
1
  6
CONTINUOUS
 62
     7
 10
-317.4655099200984
 20
183.3915966873884
 30
0.0
  0
VERTEX
  5
1CE
  8
1
  6
CONTINUOUS
 62
     7
 10
-317.4610715403257
 20
183.3773695701302
 30
0.0
  0
VERTEX
  5
1CF
  8
1
  6
CONTINUOUS
 62
     7
 10
-317.4569919019962
 20
183.3625656115723
 30
0.0
  0
VERTEX
  5
1D0
  8
1
  6
CONTINUOUS
 62
     7
 10
-317.4533832528424
 20
183.3474913214961
 30
0.0
  0
VERTEX
  5
1D1
  8
1
  6
CONTINUOUS
 62
     7
 10
-317.4502411289106
 20
183.3320506527742
 30
0.0
  0
VERTEX
  5
1D2
  8
1
  6
CONTINUOUS
 62
     7
 10
-317.4476100996494
 20
183.3163846857124
 30
0.0
  0
VERTEX
  5
1D3
  8
1
  6
CONTINUOUS
 62
     7
 10
-317.4453539979245
 20
183.2991979754717
 30
0.0
  0
VERTEX
  5
1D4
  8
1
  6
CONTINUOUS
 62
     7
 10
-317.4437274671355
 20
183.281820255424
 30
0.0
  0
VERTEX
  5
1D5
  8
1
  6
CONTINUOUS
 62
     7
 10
-317.4427354841885
 20
183.2641114345444
 30
0.0
  0
VERTEX
  5
1D6
  8
1
  6
CONTINUOUS
 62
     7
 10
-317.4424036235296
 20
183.2462962962963
 30
0.0
  0
SEQEND
  5
63E
  8
1
  6
CONTINUOUS
 62
     7
  0
LINE
  5
7F
  8
1
  6
CONTINUOUS
 62
     7
 10
-316.1924036235296
 20
199.15
 30
0.0
 11
-316.1924036235296
 21
170.25
 31
0.0
  0
ARC
  5
80
  8
1
  6
CONTINUOUS
 62
     9
 10
-360.0459570141228
 20
184.7
 30
0.0
 40
14.6
 50
354.3002695485969
 51
5.699730451402785
  0
ARC
  5
81
  8
1
  6
CONTINUOUS
 62
     9
 10
-344.8762826454042
 20
185.0592243909081
 30
0.0
 40
1.391184521506338
 50
88.61077993321975
 51
108.6379317341844
  0
POLYLINE
  5
82
  8
1
  6
CONTINUOUS
 62
     9
 66
     1
 10
0.0
 20
0.0
 30
0.0
  0
VERTEX
  5
1D7
  8
1
  6
CONTINUOUS
 62
     9
 10
-345.3208867072878
 20
186.3774510789384
 30
0.0
  0
VERTEX
  5
1D8
  8
1
  6
CONTINUOUS
 62
     9
 10
-345.4244283675426
 20
186.3262088071185
 30
0.0
  0
VERTEX
  5
1D9
  8
1
  6
CONTINUOUS
 62
     9
 10
-345.5001065150568
 20
186.254245763894
 30
0.0
  0
VERTEX
  5
1DA
  8
1
  6
CONTINUOUS
 62
     9
 10
-345.5192081551272
 20
186.1543006302921
 30
0.0
  0
VERTEX
  5
1DB
  8
1
  6
CONTINUOUS
 62
     9
 10
-345.518138870988
 20
186.15
 30
0.0
  0
SEQEND
  5
63F
  8
1
  6
CONTINUOUS
 62
     9
  0
POLYLINE
  5
83
  8
1
  6
CONTINUOUS
 62
     9
 66
     1
 10
0.0
 20
0.0
 30
0.0
  0
VERTEX
  5
1DC
  8
1
  6
CONTINUOUS
 62
     9
 10
-345.5181388709879
 20
183.25
 30
0.0
  0
VERTEX
  5
1DD
  8
1
  6
CONTINUOUS
 62
     9
 10
-345.5196187202861
 20
183.2438634403645
 30
0.0
  0
VERTEX
  5
1DE
  8
1
  6
CONTINUOUS
 62
     9
 10
-345.5202671915789
 20
183.2406709357722
 30
0.0
  0
VERTEX
  5
1DF
  8
1
  6
CONTINUOUS
 62
     9
 10
-345.5208361399449
 20
183.237456291213
 30
0.0
  0
VERTEX
  5
1E0
  8
1
  6
CONTINUOUS
 62
     9
 10
-345.521324703953
 20
183.2342120056349
 30
0.0
  0
VERTEX
  5
1E1
  8
1
  6
CONTINUOUS
 62
     9
 10
-345.5217291944247
 20
183.2309492911764
 30
0.0
  0
VERTEX
  5
1E2
  8
1
  6
CONTINUOUS
 62
     9
 10
-345.5222355961962
 20
183.2251009963312
 30
0.0
  0
VERTEX
  5
1E3
  8
1
  6
CONTINUOUS
 62
     9
 10
-345.5224609725431
 20
183.2191994873873
 30
0.0
  0
VERTEX
  5
1E4
  8
1
  6
CONTINUOUS
 62
     9
 10
-345.5224482423578
 20
183.2151231412899
 30
0.0
  0
VERTEX
  5
1E5
  8
1
  6
CONTINUOUS
 62
     9
 10
-345.5222965704837
 20
183.2110357807782
 30
0.0
  0
VERTEX
  5
1E6
  8
1
  6
CONTINUOUS
 62
     9
 10
-345.5219993597947
 20
183.2068848269448
 30
0.0
  0
VERTEX
  5
1E7
  8
1
  6
CONTINUOUS
 62
     9
 10
-345.5215578284274
 20
183.2027395344787
 30
0.0
  0
VERTEX
  5
1E8
  8
1
  6
CONTINUOUS
 62
     9
 10
-345.5209686024274
 20
183.1985823364889
 30
0.0
  0
VERTEX
  5
1E9
  8
1
  6
CONTINUOUS
 62
     9
 10
-345.5202352439367
 20
183.1944425931054
 30
0.0
  0
VERTEX
  5
1EA
  8
1
  6
CONTINUOUS
 62
     9
 10
-345.5194842512508
 20
183.1908724403895
 30
0.0
  0
VERTEX
  5
1EB
  8
1
  6
CONTINUOUS
 62
     9
 10
-345.518628100992
 20
183.1873232187576
 30
0.0
  0
VERTEX
  5
1EC
  8
1
  6
CONTINUOUS
 62
     9
 10
-345.5176646195452
 20
183.1837839983735
 30
0.0
  0
VERTEX
  5
1ED
  8
1
  6
CONTINUOUS
 62
     9
 10
-345.5165995491303
 20
183.1802724591224
 30
0.0
  0
VERTEX
  5
1EE
  8
1
  6
CONTINUOUS
 62
     9
 10
-345.5155528309016
 20
183.1771283260664
 30
0.0
  0
VERTEX
  5
1EF
  8
1
  6
CONTINUOUS
 62
     9
 10
-345.5144266593596
 20
183.174008814243
 30
0.0
  0
VERTEX
  5
1F0
  8
1
  6
CONTINUOUS
 62
     9
 10
-345.5132316320538
 20
183.1709369529737
 30
0.0
  0
VERTEX
  5
1F1
  8
1
  6
CONTINUOUS
 62
     9
 10
-345.5119624928248
 20
183.1678930610176
 30
0.0
  0
VERTEX
  5
1F2
  8
1
  6
CONTINUOUS
 62
     9
 10
-345.5091322755309
 20
183.1617337034552
 30
0.0
  0
VERTEX
  5
1F3
  8
1
  6
CONTINUOUS
 62
     9
 10
-345.5060150432585
 20
183.1557020766031
 30
0.0
  0
VERTEX
  5
1F4
  8
1
  6
CONTINUOUS
 62
     9
 10
-345.5026178810338
 20
183.1497856922376
 30
0.0
  0
VERTEX
  5
1F5
  8
1
  6
CONTINUOUS
 62
     9
 10
-345.4989727893422
 20
183.1440145018451
 30
0.0
  0
VERTEX
  5
1F6
  8
1
  6
CONTINUOUS
 62
     9
 10
-345.4951851951561
 20
183.1385115805322
 30
0.0
  0
VERTEX
  5
1F7
  8
1
  6
CONTINUOUS
 62
     9
 10
-345.4903533776999
 20
183.1320685450291
 30
0.0
  0
VERTEX
  5
1F8
  8
1
  6
CONTINUOUS
 62
     9
 10
-345.4852593297105
 20
183.1258352302291
 30
0.0
  0
VERTEX
  5
1F9
  8
1
  6
CONTINUOUS
 62
     9
 10
-345.4803981110507
 20
183.1203207132393
 30
0.0
  0
VERTEX
  5
1FA
  8
1
  6
CONTINUOUS
 62
     9
 10
-345.4753606245246
 20
183.1149776360018
 30
0.0
  0
VERTEX
  5
1FB
  8
1
  6
CONTINUOUS
 62
     9
 10
-345.4700193776511
 20
183.1096621152192
 30
0.0
  0
VERTEX
  5
1FC
  8
1
  6
CONTINUOUS
 62
     9
 10
-345.4645269750424
 20
183.1045179194886
 30
0.0
  0
VERTEX
  5
1FD
  8
1
  6
CONTINUOUS
 62
     9
 10
-345.454504856267
 20
183.0958353629597
 30
0.0
  0
VERTEX
  5
1FE
  8
1
  6
CONTINUOUS
 62
     9
 10
-345.4440913755572
 20
183.0876083512629
 30
0.0
  0
VERTEX
  5
1FF
  8
1
  6
CONTINUOUS
 62
     9
 10
-345.4333703897427
 20
183.0798287105073
 30
0.0
  0
VERTEX
  5
200
  8
1
  6
CONTINUOUS
 62
     9
 10
-345.4223244226142
 20
183.0724239027364
 30
0.0
  0
VERTEX
  5
201
  8
1
  6
CONTINUOUS
 62
     9
 10
-345.4110566198221
 20
183.0654124472057
 30
0.0
  0
VERTEX
  5
202
  8
1
  6
CONTINUOUS
 62
     9
 10
-345.399534769595
 20
183.0587307621039
 30
0.0
  0
VERTEX
  5
203
  8
1
  6
CONTINUOUS
 62
     9
 10
-345.3878497070168
 20
183.0523943718034
 30
0.0
  0
VERTEX
  5
204
  8
1
  6
CONTINUOUS
 62
     9
 10
-345.3759981241457
 20
183.0463673469694
 30
0.0
  0
VERTEX
  5
205
  8
1
  6
CONTINUOUS
 62
     9
 10
-345.3529757666821
 20
183.0356539550071
 30
0.0
  0
VERTEX
  5
206
  8
1
  6
CONTINUOUS
 62
     9
 10
-345.322580310624
 20
183.0231940058556
 30
0.0
  0
VERTEX
  5
207
  8
1
  6
CONTINUOUS
 62
     9
 10
-345.2917288859144
 20
183.0121562700081
 30
0.0
  0
VERTEX
  5
208
  8
1
  6
CONTINUOUS
 62
     9
 10
-345.2582934688601
 20
183.0017121537031
 30
0.0
  0
VERTEX
  5
209
  8
1
  6
CONTINUOUS
 62
     9
 10
-345.2245759040089
 20
182.9925381634197
 30
0.0
  0
VERTEX
  5
20A
  8
1
  6
CONTINUOUS
 62
     9
 10
-345.1956645984315
 20
182.9856185796064
 30
0.0
  0
VERTEX
  5
20B
  8
1
  6
CONTINUOUS
 62
     9
 10
-345.1429618692798
 20
182.9749623053522
 30
0.0
  0
VERTEX
  5
20C
  8
1
  6
CONTINUOUS
 62
     9
 10
-345.0900007921791
 20
182.9664773139062
 30
0.0
  0
VERTEX
  5
20D
  8
1
  6
CONTINUOUS
 62
     9
 10
-345.0441515622354
 20
182.9607141681365
 30
0.0
  0
VERTEX
  5
20E
  8
1
  6
CONTINUOUS
 62
     9
 10
-344.9982820703376
 20
182.9562810501337
 30
0.0
  0
VERTEX
  5
20F
  8
1
  6
CONTINUOUS
 62
     9
 10
-344.9063672250871
 20
182.9510248736496
 30
0.0
  0
VERTEX
  5
210
  8
1
  6
CONTINUOUS
 62
     9
 10
-344.8425546446658
 20
182.95
 30
0.0
  0
SEQEND
  5
640
  8
1
  6
CONTINUOUS
 62
     9
  0
LINE
  5
84
  8
1
  6
CONTINUOUS
 62
     9
 10
-346.658482390733
 20
198.8
 30
0.0
 11
-346.658482390733
 21
170.6
 31
0.0
  0
POLYLINE
  5
85
  8
1
  6
CONTINUOUS
 62
     7
 66
     1
 10
0.0
 20
0.0
 30
0.0
  0
VERTEX
  5
211
  8
1
  6
CONTINUOUS
 62
     7
 10
-357.139115905983
 20
172.4576052291736
 30
0.0
  0
VERTEX
  5
212
  8
1
  6
CONTINUOUS
 62
     7
 10
-357.1481893465045
 20
172.4962540041395
 30
0.0
  0
VERTEX
  5
213
  8
1
  6
CONTINUOUS
 62
     7
 10
-357.157262787026
 20
172.5447810688922
 30
0.0
  0
VERTEX
  5
214
  8
1
  6
CONTINUOUS
 62
     7
 10
-357.1663362275474
 20
172.6031662236443
 30
0.0
  0
VERTEX
  5
215
  8
1
  6
CONTINUOUS
 62
     7
 10
-357.1754096680689
 20
172.6713892686085
 30
0.0
  0
VERTEX
  5
216
  8
1
  6
CONTINUOUS
 62
     7
 10
-357.1844831085904
 20
172.7494300039974
 30
0.0
  0
VERTEX
  5
217
  8
1
  6
CONTINUOUS
 62
     7
 10
-357.1935565491117
 20
172.8372623219428
 30
0.0
  0
VERTEX
  5
218
  8
1
  6
CONTINUOUS
 62
     7
 10
-357.2026299896333
 20
172.9348019589353
 30
0.0
  0
VERTEX
  5
219
  8
1
  6
CONTINUOUS
 62
     7
 10
-357.2117034301548
 20
173.0419315916864
 30
0.0
  0
VERTEX
  5
21A
  8
1
  6
CONTINUOUS
 62
     7
 10
-357.2207768706763
 20
173.1585335155981
 30
0.0
  0
VERTEX
  5
21B
  8
1
  6
CONTINUOUS
 62
     7
 10
-357.2298503111978
 20
173.2844900260725
 30
0.0
  0
VERTEX
  5
21C
  8
1
  6
CONTINUOUS
 62
     7
 10
-357.2389237517193
 20
173.4196834185117
 30
0.0
  0
VERTEX
  5
21D
  8
1
  6
CONTINUOUS
 62
     7
 10
-357.2479971922408
 20
173.5639959883176
 30
0.0
  0
VERTEX
  5
21E
  8
1
  6
CONTINUOUS
 62
     7
 10
-357.2570706327622
 20
173.7173100308923
 30
0.0
  0
VERTEX
  5
21F
  8
1
  6
CONTINUOUS
 62
     7
 10
-357.2661440732837
 20
173.8795078416381
 30
0.0
  0
VERTEX
  5
220
  8
1
  6
CONTINUOUS
 62
     7
 10
-357.2752175138052
 20
174.0504717159567
 30
0.0
  0
VERTEX
  5
221
  8
1
  6
CONTINUOUS
 62
     7
 10
-357.2842909543267
 20
174.2300839492502
 30
0.0
  0
VERTEX
  5
222
  8
1
  6
CONTINUOUS
 62
     7
 10
-357.2933643948482
 20
174.4182268369209
 30
0.0
  0
VERTEX
  5
223
  8
1
  6
CONTINUOUS
 62
     7
 10
-357.3024378353696
 20
174.6147821756359
 30
0.0
  0
VERTEX
  5
224
  8
1
  6
CONTINUOUS
 62
     7
 10
-357.3115112758911
 20
174.8196011889485
 30
0.0
  0
VERTEX
  5
225
  8
1
  6
CONTINUOUS
 62
     7
 10
-357.3205847164126
 20
175.032487335076
 30
0.0
  0
VERTEX
  5
226
  8
1
  6
CONTINUOUS
 62
     7
 10
-357.3296581569342
 20
175.2532399190081
 30
0.0
  0
VERTEX
  5
227
  8
1
  6
CONTINUOUS
 62
     7
 10
-357.3387315974556
 20
175.481658245734
 30
0.0
  0
VERTEX
  5
228
  8
1
  6
CONTINUOUS
 62
     7
 10
-357.347805037977
 20
175.7175416202433
 30
0.0
  0
VERTEX
  5
229
  8
1
  6
CONTINUOUS
 62
     7
 10
-357.3568784784985
 20
175.9606893475254
 30
0.0
  0
VERTEX
  5
22A
  8
1
  6
CONTINUOUS
 62
     7
 10
-357.36595191902
 20
176.2109007325698
 30
0.0
  0
VERTEX
  5
22B
  8
1
  6
CONTINUOUS
 62
     7
 10
-357.3750253595415
 20
176.467975080366
 30
0.0
  0
VERTEX
  5
22C
  8
1
  6
CONTINUOUS
 62
     7
 10
-357.384098800063
 20
176.7317116959034
 30
0.0
  0
VERTEX
  5
22D
  8
1
  6
CONTINUOUS
 62
     7
 10
-357.3931722405844
 20
177.0019098841714
 30
0.0
  0
VERTEX
  5
22E
  8
1
  6
CONTINUOUS
 62
     7
 10
-357.402245681106
 20
177.2783689501595
 30
0.0
  0
VERTEX
  5
22F
  8
1
  6
CONTINUOUS
 62
     7
 10
-357.4113191216273
 20
177.5608881988573
 30
0.0
  0
VERTEX
  5
230
  8
1
  6
CONTINUOUS
 62
     7
 10
-357.4203925621489
 20
177.8492586906936
 30
0.0
  0
VERTEX
  5
231
  8
1
  6
CONTINUOUS
 62
     7
 10
-357.4294660026704
 20
178.1432328170372
 30
0.0
  0
VERTEX
  5
232
  8
1
  6
CONTINUOUS
 62
     7
 10
-357.4385394431919
 20
178.4425516420259
 30
0.0
  0
VERTEX
  5
233
  8
1
  6
CONTINUOUS
 62
     7
 10
-357.4476128837134
 20
178.7469562283546
 30
0.0
  0
VERTEX
  5
234
  8
1
  6
CONTINUOUS
 62
     7
 10
-357.4566863242349
 20
179.0561876387179
 30
0.0
  0
VERTEX
  5
235
  8
1
  6
CONTINUOUS
 62
     7
 10
-357.4657597647563
 20
179.3699869358105
 30
0.0
  0
VERTEX
  5
236
  8
1
  6
CONTINUOUS
 62
     7
 10
-357.4748332052778
 20
179.6880951823269
 30
0.0
  0
VERTEX
  5
237
  8
1
  6
CONTINUOUS
 62
     7
 10
-357.4839066457993
 20
180.0102534409619
 30
0.0
  0
VERTEX
  5
238
  8
1
  6
CONTINUOUS
 62
     7
 10
-357.4929800863208
 20
180.3362027744101
 30
0.0
  0
VERTEX
  5
239
  8
1
  6
CONTINUOUS
 62
     7
 10
-357.5020535268422
 20
180.6656842453661
 30
0.0
  0
VERTEX
  5
23A
  8
1
  6
CONTINUOUS
 62
     7
 10
-357.5111269673637
 20
180.9984389165247
 30
0.0
  0
VERTEX
  5
23B
  8
1
  6
CONTINUOUS
 62
     7
 10
-357.5202004078852
 20
181.3342078505804
 30
0.0
  0
VERTEX
  5
23C
  8
1
  6
CONTINUOUS
 62
     7
 10
-357.5292738484067
 20
181.6727313248198
 30
0.0
  0
VERTEX
  5
23D
  8
1
  6
CONTINUOUS
 62
     7
 10
-357.5383472889282
 20
182.0137359915038
 30
0.0
  0
VERTEX
  5
23E
  8
1
  6
CONTINUOUS
 62
     7
 10
-357.5474207294496
 20
182.3569369654051
 30
0.0
  0
VERTEX
  5
23F
  8
1
  6
CONTINUOUS
 62
     7
 10
-357.5564941699711
 20
182.7020489970196
 30
0.0
  0
VERTEX
  5
240
  8
1
  6
CONTINUOUS
 62
     7
 10
-357.5655676104926
 20
183.048786836843
 30
0.0
  0
VERTEX
  5
241
  8
1
  6
CONTINUOUS
 62
     7
 10
-357.5746410510141
 20
183.3968652353712
 30
0.0
  0
VERTEX
  5
242
  8
1
  6
CONTINUOUS
 62
     7
 10
-357.5837144915355
 20
183.7459989430997
 30
0.0
  0
VERTEX
  5
243
  8
1
  6
CONTINUOUS
 62
     7
 10
-357.592787932057
 20
184.0959027105243
 30
0.0
  0
VERTEX
  5
244
  8
1
  6
CONTINUOUS
 62
     7
 10
-357.6018613725785
 20
184.4462912881408
 30
0.0
  0
VERTEX
  5
245
  8
1
  6
CONTINUOUS
 62
     7
 10
-357.6109348131
 20
184.7968794264449
 30
0.0
  0
VERTEX
  5
246
  8
1
  6
CONTINUOUS
 62
     7
 10
-357.6200082536214
 20
185.1473818759324
 30
0.0
  0
VERTEX
  5
247
  8
1
  6
CONTINUOUS
 62
     7
 10
-357.6290816941429
 20
185.497513387099
 30
0.0
  0
VERTEX
  5
248
  8
1
  6
CONTINUOUS
 62
     7
 10
-357.6381551346645
 20
185.8469887191023
 30
0.0
  0
VERTEX
  5
249
  8
1
  6
CONTINUOUS
 62
     7
 10
-357.6472285751859
 20
186.1955250253908
 30
0.0
  0
VERTEX
  5
24A
  8
1
  6
CONTINUOUS
 62
     7
 10
-357.6563020157074
 20
186.5428451055366
 30
0.0
  0
VERTEX
  5
24B
  8
1
  6
CONTINUOUS
 62
     7
 10
-357.6653754562289
 20
186.8886725725442
 30
0.0
  0
VERTEX
  5
24C
  8
1
  6
CONTINUOUS
 62
     7
 10
-357.6744488967503
 20
187.2327310394181
 30
0.0
  0
VERTEX
  5
24D
  8
1
  6
CONTINUOUS
 62
     7
 10
-357.6835223372719
 20
187.5747441191627
 30
0.0
  0
VERTEX
  5
24E
  8
1
  6
CONTINUOUS
 62
     7
 10
-357.6925957777933
 20
187.9144354247827
 30
0.0
  0
VERTEX
  5
24F
  8
1
  6
CONTINUOUS
 62
     7
 10
-357.7016692183148
 20
188.2515285692825
 30
0.0
  0
VERTEX
  5
250
  8
1
  6
CONTINUOUS
 62
     7
 10
-357.7107426588362
 20
188.5857471656665
 30
0.0
  0
VERTEX
  5
251
  8
1
  6
CONTINUOUS
 62
     7
 10
-357.7198160993578
 20
188.9168148269393
 30
0.0
  0
VERTEX
  5
252
  8
1
  6
CONTINUOUS
 62
     7
 10
-357.7288895398793
 20
189.2444551661054
 30
0.0
  0
VERTEX
  5
253
  8
1
  6
CONTINUOUS
 62
     7
 10
-357.7379629804008
 20
189.5683917961693
 30
0.0
  0
VERTEX
  5
254
  8
1
  6
CONTINUOUS
 62
     7
 10
-357.7470364209222
 20
189.8883483301354
 30
0.0
  0
VERTEX
  5
255
  8
1
  6
CONTINUOUS
 62
     7
 10
-357.7561098614437
 20
190.204052004317
 30
0.0
  0
VERTEX
  5
256
  8
1
  6
CONTINUOUS
 62
     7
 10
-357.7651833019652
 20
190.51525709431
 30
0.0
  0
VERTEX
  5
257
  8
1
  6
CONTINUOUS
 62
     7
 10
-357.7742567424867
 20
190.8217300975929
 30
0.0
  0
VERTEX
  5
258
  8
1
  6
CONTINUOUS
 62
     7
 10
-357.7833301830082
 20
191.1232375715325
 30
0.0
  0
VERTEX
  5
259
  8
1
  6
CONTINUOUS
 62
     7
 10
-357.7924036235296
 20
191.419546073494
 30
0.0
  0
SEQEND
  5
641
  8
1
  6
CONTINUOUS
 62
     7
  0
POLYLINE
  5
86
  8
1
  6
CONTINUOUS
 62
     7
 66
     1
 10
0.0
 20
0.0
 30
0.0
  0
VERTEX
  5
25A
  8
1
  6
CONTINUOUS
 62
     7
 10
-355.1392122815338
 20
172.4577277295824
 30
0.0
  0
VERTEX
  5
25B
  8
1
  6
CONTINUOUS
 62
     7
 10
-355.1493083944192
 20
172.5014121339329
 30
0.0
  0
VERTEX
  5
25C
  8
1
  6
CONTINUOUS
 62
     7
 10
-355.1594045073045
 20
172.5574054078417
 30
0.0
  0
VERTEX
  5
25D
  8
1
  6
CONTINUOUS
 62
     7
 10
-355.1695006201898
 20
172.6257049657126
 30
0.0
  0
VERTEX
  5
25E
  8
1
  6
CONTINUOUS
 62
     7
 10
-355.1795967330751
 20
172.7062441976263
 30
0.0
  0
VERTEX
  5
25F
  8
1
  6
CONTINUOUS
 62
     7
 10
-355.1896928459605
 20
172.7988898316148
 30
0.0
  0
VERTEX
  5
260
  8
1
  6
CONTINUOUS
 62
     7
 10
-355.1997889588459
 20
172.9035054822742
 30
0.0
  0
VERTEX
  5
261
  8
1
  6
CONTINUOUS
 62
     7
 10
-355.2098850717312
 20
173.0199547642005
 30
0.0
  0
VERTEX
  5
262
  8
1
  6
CONTINUOUS
 62
     7
 10
-355.2199811846166
 20
173.1481012919898
 30
0.0
  0
VERTEX
  5
263
  8
1
  6
CONTINUOUS
 62
     7
 10
-355.2300772975019
 20
173.2878086802384
 30
0.0
  0
VERTEX
  5
264
  8
1
  6
CONTINUOUS
 62
     7
 10
-355.2401734103872
 20
173.4389405435422
 30
0.0
  0
VERTEX
  5
265
  8
1
  6
CONTINUOUS
 62
     7
 10
-355.2502695232726
 20
173.6013604964974
 30
0.0
  0
VERTEX
  5
266
  8
1
  6
CONTINUOUS
 62
     7
 10
-355.260365636158
 20
173.7749321537002
 30
0.0
  0
VERTEX
  5
267
  8
1
  6
CONTINUOUS
 62
     7
 10
-355.2704617490432
 20
173.9595191297465
 30
0.0
  0
VERTEX
  5
268
  8
1
  6
CONTINUOUS
 62
     7
 10
-355.2805578619287
 20
174.154984143653
 30
0.0
  0
VERTEX
  5
269
  8
1
  6
CONTINUOUS
 62
     7
 10
-355.2906539748139
 20
174.361143861214
 30
0.0
  0
VERTEX
  5
26A
  8
1
  6
CONTINUOUS
 62
     7
 10
-355.3007500876993
 20
174.577747663678
 30
0.0
  0
VERTEX
  5
26B
  8
1
  6
CONTINUOUS
 62
     7
 10
-355.3108462005847
 20
174.8045395981792
 30
0.0
  0
VERTEX
  5
26C
  8
1
  6
CONTINUOUS
 62
     7
 10
-355.3209423134701
 20
175.0412637118516
 30
0.0
  0
VERTEX
  5
26D
  8
1
  6
CONTINUOUS
 62
     7
 10
-355.3310384263553
 20
175.2876640518293
 30
0.0
  0
VERTEX
  5
26E
  8
1
  6
CONTINUOUS
 62
     7
 10
-355.3411345392408
 20
175.5434846652466
 30
0.0
  0
VERTEX
  5
26F
  8
1
  6
CONTINUOUS
 62
     7
 10
-355.3512306521261
 20
175.8084695992374
 30
0.0
  0
VERTEX
  5
270
  8
1
  6
CONTINUOUS
 62
     7
 10
-355.3613267650114
 20
176.0823629009358
 30
0.0
  0
VERTEX
  5
271
  8
1
  6
CONTINUOUS
 62
     7
 10
-355.3714228778968
 20
176.3649086174762
 30
0.0
  0
VERTEX
  5
272
  8
1
  6
CONTINUOUS
 62
     7
 10
-355.3815189907821
 20
176.6558507959924
 30
0.0
  0
VERTEX
  5
273
  8
1
  6
CONTINUOUS
 62
     7
 10
-355.3916151036674
 20
176.954933313086
 30
0.0
  0
VERTEX
  5
274
  8
1
  6
CONTINUOUS
 62
     7
 10
-355.4017112165528
 20
177.2618736626201
 30
0.0
  0
VERTEX
  5
275
  8
1
  6
CONTINUOUS
 62
     7
 10
-355.4118073294382
 20
177.5763346731781
 30
0.0
  0
VERTEX
  5
276
  8
1
  6
CONTINUOUS
 62
     7
 10
-355.4219034423235
 20
177.8979723865106
 30
0.0
  0
VERTEX
  5
277
  8
1
  6
CONTINUOUS
 62
     7
 10
-355.4319995552089
 20
178.2264428443681
 30
0.0
  0
VERTEX
  5
278
  8
1
  6
CONTINUOUS
 62
     7
 10
-355.4420956680942
 20
178.5614020885012
 30
0.0
  0
VERTEX
  5
279
  8
1
  6
CONTINUOUS
 62
     7
 10
-355.4521917809795
 20
178.9025061606605
 30
0.0
  0
VERTEX
  5
27A
  8
1
  6
CONTINUOUS
 62
     7
 10
-355.4622878938649
 20
179.2494111025966
 30
0.0
  0
VERTEX
  5
27B
  8
1
  6
CONTINUOUS
 62
     7
 10
-355.4723840067502
 20
179.6017729560601
 30
0.0
  0
VERTEX
  5
27C
  8
1
  6
CONTINUOUS
 62
     7
 10
-355.4824801196356
 20
179.9592477628016
 30
0.0
  0
VERTEX
  5
27D
  8
1
  6
CONTINUOUS
 62
     7
 10
-355.4925762325209
 20
180.3214915645716
 30
0.0
  0
VERTEX
  5
27E
  8
1
  6
CONTINUOUS
 62
     7
 10
-355.5026723454063
 20
180.6881603960669
 30
0.0
  0
VERTEX
  5
27F
  8
1
  6
CONTINUOUS
 62
     7
 10
-355.5127684582916
 20
181.0589002739421
 30
0.0
  0
VERTEX
  5
280
  8
1
  6
CONTINUOUS
 62
     7
 10
-355.522864571177
 20
181.4333272334302
 30
0.0
  0
VERTEX
  5
281
  8
1
  6
CONTINUOUS
 62
     7
 10
-355.5329606840623
 20
181.8110517251031
 30
0.0
  0
VERTEX
  5
282
  8
1
  6
CONTINUOUS
 62
     7
 10
-355.5430567969477
 20
182.1916841995325
 30
0.0
  0
VERTEX
  5
283
  8
1
  6
CONTINUOUS
 62
     7
 10
-355.553152909833
 20
182.5748351072902
 30
0.0
  0
VERTEX
  5
284
  8
1
  6
CONTINUOUS
 62
     7
 10
-355.5632490227183
 20
182.9601148989481
 30
0.0
  0
VERTEX
  5
285
  8
1
  6
CONTINUOUS
 62
     7
 10
-355.5733451356037
 20
183.347134025078
 30
0.0
  0
VERTEX
  5
286
  8
1
  6
CONTINUOUS
 62
     7
 10
-355.5834412484891
 20
183.7355029362516
 30
0.0
  0
VERTEX
  5
287
  8
1
  6
CONTINUOUS
 62
     7
 10
-355.5935373613744
 20
184.1248320830409
 30
0.0
  0
VERTEX
  5
288
  8
1
  6
CONTINUOUS
 62
     7
 10
-355.6036334742598
 20
184.5147319160175
 30
0.0
  0
VERTEX
  5
289
  8
1
  6
CONTINUOUS
 62
     7
 10
-355.6137295871451
 20
184.9048128857534
 30
0.0
  0
VERTEX
  5
28A
  8
1
  6
CONTINUOUS
 62
     7
 10
-355.6238257000305
 20
185.2946858130764
 30
0.0
  0
VERTEX
  5
28B
  8
1
  6
CONTINUOUS
 62
     7
 10
-355.6339218129158
 20
185.6839631464147
 30
0.0
  0
VERTEX
  5
28C
  8
1
  6
CONTINUOUS
 62
     7
 10
-355.6440179258011
 20
186.0722577812963
 30
0.0
  0
VERTEX
  5
28D
  8
1
  6
CONTINUOUS
 62
     7
 10
-355.6541140386865
 20
186.4591826132618
 30
0.0
  0
VERTEX
  5
28E
  8
1
  6
CONTINUOUS
 62
     7
 10
-355.6642101515718
 20
186.8443505378517
 30
0.0
  0
VERTEX
  5
28F
  8
1
  6
CONTINUOUS
 62
     7
 10
-355.6743062644572
 20
187.2273744506064
 30
0.0
  0
VERTEX
  5
290
  8
1
  6
CONTINUOUS
 62
     7
 10
-355.6844023773425
 20
187.6078672470665
 30
0.0
  0
VERTEX
  5
291
  8
1
  6
CONTINUOUS
 62
     7
 10
-355.6944984902279
 20
187.9854418227726
 30
0.0
  0
VERTEX
  5
292
  8
1
  6
CONTINUOUS
 62
     7
 10
-355.7045946031132
 20
188.3597110732652
 30
0.0
  0
VERTEX
  5
293
  8
1
  6
CONTINUOUS
 62
     7
 10
-355.7146907159985
 20
188.7302878940849
 30
0.0
  0
VERTEX
  5
294
  8
1
  6
CONTINUOUS
 62
     7
 10
-355.724786828884
 20
189.0967851807722
 30
0.0
  0
VERTEX
  5
295
  8
1
  6
CONTINUOUS
 62
     7
 10
-355.7348829417692
 20
189.4588207781903
 30
0.0
  0
VERTEX
  5
296
  8
1
  6
CONTINUOUS
 62
     7
 10
-355.7449790546546
 20
189.8160447963604
 30
0.0
  0
VERTEX
  5
297
  8
1
  6
CONTINUOUS
 62
     7
 10
-355.7550751675399
 20
190.1681202759115
 30
0.0
  0
VERTEX
  5
298
  8
1
  6
CONTINUOUS
 62
     7
 10
-355.7651712804252
 20
190.5147102920065
 30
0.0
  0
VERTEX
  5
299
  8
1
  6
CONTINUOUS
 62
     7
 10
-355.7752673933107
 20
190.8554779198079
 30
0.0
  0
VERTEX
  5
29A
  8
1
  6
CONTINUOUS
 62
     7
 10
-355.785363506196
 20
191.1900862344783
 30
0.0
  0
VERTEX
  5
29B
  8
1
  6
CONTINUOUS
 62
     7
 10
-355.7954596190813
 20
191.5181983111802
 30
0.0
  0
VERTEX
  5
29C
  8
1
  6
CONTINUOUS
 62
     7
 10
-355.8055557319666
 20
191.8394772250764
 30
0.0
  0
VERTEX
  5
29D
  8
1
  6
CONTINUOUS
 62
     7
 10
-355.815651844852
 20
192.1535860513293
 30
0.0
  0
VERTEX
  5
29E
  8
1
  6
CONTINUOUS
 62
     7
 10
-355.8257479577373
 20
192.4601878651018
 30
0.0
  0
VERTEX
  5
29F
  8
1
  6
CONTINUOUS
 62
     7
 10
-355.8358440706227
 20
192.7589457415563
 30
0.0
  0
VERTEX
  5
2A0
  8
1
  6
CONTINUOUS
 62
     7
 10
-355.845940183508
 20
193.049528240889
 30
0.0
  0
VERTEX
  5
2A1
  8
1
  6
CONTINUOUS
 62
     7
 10
-355.8560362963934
 20
193.3316585027218
 30
0.0
  0
VERTEX
  5
2A2
  8
1
  6
CONTINUOUS
 62
     7
 10
-355.8661324092787
 20
193.605090958112
 30
0.0
  0
VERTEX
  5
2A3
  8
1
  6
CONTINUOUS
 62
     7
 10
-355.8762285221641
 20
193.8695804087446
 30
0.0
  0
VERTEX
  5
2A4
  8
1
  6
CONTINUOUS
 62
     7
 10
-355.8863246350495
 20
194.1248816563044
 30
0.0
  0
VERTEX
  5
2A5
  8
1
  6
CONTINUOUS
 62
     7
 10
-355.8964207479348
 20
194.3707495024761
 30
0.0
  0
VERTEX
  5
2A6
  8
1
  6
CONTINUOUS
 62
     7
 10
-355.9065168608201
 20
194.6069387489447
 30
0.0
  0
VERTEX
  5
2A7
  8
1
  6
CONTINUOUS
 62
     7
 10
-355.9166129737056
 20
194.8332041973948
 30
0.0
  0
VERTEX
  5
2A8
  8
1
  6
CONTINUOUS
 62
     7
 10
-355.9267090865908
 20
195.0493006495113
 30
0.0
  0
VERTEX
  5
2A9
  8
1
  6
CONTINUOUS
 62
     7
 10
-355.9368051994762
 20
195.2549829069791
 30
0.0
  0
VERTEX
  5
2AA
  8
1
  6
CONTINUOUS
 62
     7
 10
-355.9469013123615
 20
195.4500057714829
 30
0.0
  0
VERTEX
  5
2AB
  8
1
  6
CONTINUOUS
 62
     7
 10
-355.9569974252469
 20
195.6341280434098
 30
0.0
  0
VERTEX
  5
2AC
  8
1
  6
CONTINUOUS
 62
     7
 10
-355.9670935381322
 20
195.8071729465019
 30
0.0
  0
VERTEX
  5
2AD
  8
1
  6
CONTINUOUS
 62
     7
 10
-355.9771896510175
 20
195.9690157558943
 30
0.0
  0
VERTEX
  5
2AE
  8
1
  6
CONTINUOUS
 62
     7
 10
-355.9872857639028
 20
196.1195332357067
 30
0.0
  0
VERTEX
  5
2AF
  8
1
  6
CONTINUOUS
 62
     7
 10
-355.9973818767883
 20
196.2586021500586
 30
0.0
  0
VERTEX
  5
2B0
  8
1
  6
CONTINUOUS
 62
     7
 10
-356.0074779896735
 20
196.3860992630694
 30
0.0
  0
VERTEX
  5
2B1
  8
1
  6
CONTINUOUS
 62
     7
 10
-356.017574102559
 20
196.501901338859
 30
0.0
  0
VERTEX
  5
2B2
  8
1
  6
CONTINUOUS
 62
     7
 10
-356.0276702154443
 20
196.6058851415466
 30
0.0
  0
VERTEX
  5
2B3
  8
1
  6
CONTINUOUS
 62
     7
 10
-356.0377663283296
 20
196.6979274352518
 30
0.0
  0
VERTEX
  5
2B4
  8
1
  6
CONTINUOUS
 62
     7
 10
-356.047862441215
 20
196.7779049840944
 30
0.0
  0
VERTEX
  5
2B5
  8
1
  6
CONTINUOUS
 62
     7
 10
-356.0579585541003
 20
196.8456945521936
 30
0.0
  0
VERTEX
  5
2B6
  8
1
  6
CONTINUOUS
 62
     7
 10
-356.0680546669856
 20
196.9011750230294
 30
0.0
  0
VERTEX
  5
2B7
  8
1
  6
CONTINUOUS
 62
     7
 10
-356.078150779871
 20
196.9442868686301
 30
0.0
  0
VERTEX
  5
2B8
  8
1
  6
CONTINUOUS
 62
     7
 10
-356.0882468927564
 20
196.9750402623197
 30
0.0
  0
VERTEX
  5
2B9
  8
1
  6
CONTINUOUS
 62
     7
 10
-356.0983430056417
 20
196.9934491271244
 30
0.0
  0
VERTEX
  5
2BA
  8
1
  6
CONTINUOUS
 62
     7
 10
-356.1084391185271
 20
196.9995273860703
 30
0.0
  0
SEQEND
  5
642
  8
1
  6
CONTINUOUS
 62
     7
  0
POLYLINE
  5
87
  8
1
  6
CONTINUOUS
 62
     7
 66
     1
 10
0.0
 20
0.0
 30
0.0
  0
VERTEX
  5
2BB
  8
1
  6
CONTINUOUS
 62
     7
 10
-353.1399387642846
 20
172.4602193321608
 30
0.0
  0
VERTEX
  5
2BC
  8
1
  6
CONTINUOUS
 62
     7
 10
-353.1500270989877
 20
172.5049135141478
 30
0.0
  0
VERTEX
  5
2BD
  8
1
  6
CONTINUOUS
 62
     7
 10
-353.1601154336909
 20
172.5619355896772
 30
0.0
  0
VERTEX
  5
2BE
  8
1
  6
CONTINUOUS
 62
     7
 10
-353.1702037683941
 20
172.6311761168677
 30
0.0
  0
VERTEX
  5
2BF
  8
1
  6
CONTINUOUS
 62
     7
 10
-353.1802921030971
 20
172.712525416879
 30
0.0
  0
VERTEX
  5
2C0
  8
1
  6
CONTINUOUS
 62
     7
 10
-353.1903804378003
 20
172.8058738108707
 30
0.0
  0
VERTEX
  5
2C1
  8
1
  6
CONTINUOUS
 62
     7
 10
-353.2004687725035
 20
172.9111116200025
 30
0.0
  0
VERTEX
  5
2C2
  8
1
  6
CONTINUOUS
 62
     7
 10
-353.2105571072066
 20
173.0281291654341
 30
0.0
  0
VERTEX
  5
2C3
  8
1
  6
CONTINUOUS
 62
     7
 10
-353.2206454419098
 20
173.1568167683253
 30
0.0
  0
VERTEX
  5
2C4
  8
1
  6
CONTINUOUS
 62
     7
 10
-353.230733776613
 20
173.2970647498356
 30
0.0
  0
VERTEX
  5
2C5
  8
1
  6
CONTINUOUS
 62
     7
 10
-353.240822111316
 20
173.4487634311248
 30
0.0
  0
VERTEX
  5
2C6
  8
1
  6
CONTINUOUS
 62
     7
 10
-353.2509104460192
 20
173.6118031333526
 30
0.0
  0
VERTEX
  5
2C7
  8
1
  6
CONTINUOUS
 62
     7
 10
-353.2609987807223
 20
173.7860686475472
 30
0.0
  0
VERTEX
  5
2C8
  8
1
  6
CONTINUOUS
 62
     7
 10
-353.2710871154255
 20
173.9713750268671
 30
0.0
  0
VERTEX
  5
2C9
  8
1
  6
CONTINUOUS
 62
     7
 10
-353.2811754501286
 20
174.1674896014368
 30
0.0
  0
VERTEX
  5
2CA
  8
1
  6
CONTINUOUS
 62
     7
 10
-353.2912637848318
 20
174.3741787737896
 30
0.0
  0
VERTEX
  5
2CB
  8
1
  6
CONTINUOUS
 62
     7
 10
-353.3013521195349
 20
174.5912089464587
 30
0.0
  0
VERTEX
  5
2CC
  8
1
  6
CONTINUOUS
 62
     7
 10
-353.3114404542381
 20
174.8183465219772
 30
0.0
  0
VERTEX
  5
2CD
  8
1
  6
CONTINUOUS
 62
     7
 10
-353.3215287889412
 20
175.0553579028785
 30
0.0
  0
VERTEX
  5
2CE
  8
1
  6
CONTINUOUS
 62
     7
 10
-353.3316171236443
 20
175.3020094916959
 30
0.0
  0
VERTEX
  5
2CF
  8
1
  6
CONTINUOUS
 62
     7
 10
-353.3417054583475
 20
175.5580676909623
 30
0.0
  0
VERTEX
  5
2D0
  8
1
  6
CONTINUOUS
 62
     7
 10
-353.3517937930507
 20
175.8232989032113
 30
0.0
  0
VERTEX
  5
2D1
  8
1
  6
CONTINUOUS
 62
     7
 10
-353.3618821277537
 20
176.0974695309758
 30
0.0
  0
VERTEX
  5
2D2
  8
1
  6
CONTINUOUS
 62
     7
 10
-353.3719704624569
 20
176.3803439112528
 30
0.0
  0
VERTEX
  5
2D3
  8
1
  6
CONTINUOUS
 62
     7
 10
-353.3820587971601
 20
176.6716403928626
 30
0.0
  0
VERTEX
  5
2D4
  8
1
  6
CONTINUOUS
 62
     7
 10
-353.3921471318632
 20
176.9710321649244
 30
0.0
  0
VERTEX
  5
2D5
  8
1
  6
CONTINUOUS
 62
     7
 10
-353.4022354665663
 20
177.2781905167329
 30
0.0
  0
VERTEX
  5
2D6
  8
1
  6
CONTINUOUS
 62
     7
 10
-353.4123238012695
 20
177.5927867375827
 30
0.0
  0
VERTEX
  5
2D7
  8
1
  6
CONTINUOUS
 62
     7
 10
-353.4224121359727
 20
177.9144921167683
 30
0.0
  0
VERTEX
  5
2D8
  8
1
  6
CONTINUOUS
 62
     7
 10
-353.4325004706758
 20
178.2429779435845
 30
0.0
  0
VERTEX
  5
2D9
  8
1
  6
CONTINUOUS
 62
     7
 10
-353.442588805379
 20
178.5779155073259
 30
0.0
  0
VERTEX
  5
2DA
  8
1
  6
CONTINUOUS
 62
     7
 10
-353.4526771400821
 20
178.9189760972871
 30
0.0
  0
VERTEX
  5
2DB
  8
1
  6
CONTINUOUS
 62
     7
 10
-353.4627654747853
 20
179.2658310027628
 30
0.0
  0
VERTEX
  5
2DC
  8
1
  6
CONTINUOUS
 62
     7
 10
-353.4728538094884
 20
179.6181515130475
 30
0.0
  0
VERTEX
  5
2DD
  8
1
  6
CONTINUOUS
 62
     7
 10
-353.4829421441917
 20
179.9756084589183
 30
0.0
  0
VERTEX
  5
2DE
  8
1
  6
CONTINUOUS
 62
     7
 10
-353.4930304788948
 20
180.3378511456823
 30
0.0
  0
VERTEX
  5
2DF
  8
1
  6
CONTINUOUS
 62
     7
 10
-353.5031188135979
 20
180.7044985644945
 30
0.0
  0
VERTEX
  5
2E0
  8
1
  6
CONTINUOUS
 62
     7
 10
-353.513207148301
 20
181.0751674254096
 30
0.0
  0
VERTEX
  5
2E1
  8
1
  6
CONTINUOUS
 62
     7
 10
-353.5232954830041
 20
181.449474438482
 30
0.0
  0
VERTEX
  5
2E2
  8
1
  6
CONTINUOUS
 62
     7
 10
-353.5333838177072
 20
181.8270363137664
 30
0.0
  0
VERTEX
  5
2E3
  8
1
  6
CONTINUOUS
 62
     7
 10
-353.5434721524105
 20
182.2074697613172
 30
0.0
  0
VERTEX
  5
2E4
  8
1
  6
CONTINUOUS
 62
     7
 10
-353.5535604871135
 20
182.5903914911889
 30
0.0
  0
VERTEX
  5
2E5
  8
1
  6
CONTINUOUS
 62
     7
 10
-353.5636488218167
 20
182.975418213436
 30
0.0
  0
VERTEX
  5
2E6
  8
1
  6
CONTINUOUS
 62
     7
 10
-353.5737371565198
 20
183.3621666381132
 30
0.0
  0
VERTEX
  5
2E7
  8
1
  6
CONTINUOUS
 62
     7
 10
-353.583825491223
 20
183.7502534752749
 30
0.0
  0
VERTEX
  5
2E8
  8
1
  6
CONTINUOUS
 62
     7
 10
-353.5939138259261
 20
184.1392954197861
 30
0.0
  0
VERTEX
  5
2E9
  8
1
  6
CONTINUOUS
 62
     7
 10
-353.6040021606293
 20
184.5289069484595
 30
0.0
  0
VERTEX
  5
2EA
  8
1
  6
CONTINUOUS
 62
     7
 10
-353.6140904953324
 20
184.9186980090251
 30
0.0
  0
VERTEX
  5
2EB
  8
1
  6
CONTINUOUS
 62
     7
 10
-353.6241788300356
 20
185.3082779965753
 30
0.0
  0
VERTEX
  5
2EC
  8
1
  6
CONTINUOUS
 62
     7
 10
-353.6342671647387
 20
185.6972563062021
 30
0.0
  0
VERTEX
  5
2ED
  8
1
  6
CONTINUOUS
 62
     7
 10
-353.6443554994419
 20
186.0852423329978
 30
0.0
  0
VERTEX
  5
2EE
  8
1
  6
CONTINUOUS
 62
     7
 10
-353.6544438341451
 20
186.4718454720543
 30
0.0
  0
VERTEX
  5
2EF
  8
1
  6
CONTINUOUS
 62
     7
 10
-353.6645321688482
 20
186.8566751184637
 30
0.0
  0
VERTEX
  5
2F0
  8
1
  6
CONTINUOUS
 62
     7
 10
-353.6746205035513
 20
187.2393406673184
 30
0.0
  0
VERTEX
  5
2F1
  8
1
  6
CONTINUOUS
 62
     7
 10
-353.6847088382544
 20
187.6194515137104
 30
0.0
  0
VERTEX
  5
2F2
  8
1
  6
CONTINUOUS
 62
     7
 10
-353.6947971729576
 20
187.9966170527317
 30
0.0
  0
VERTEX
  5
2F3
  8
1
  6
CONTINUOUS
 62
     7
 10
-353.7048855076607
 20
188.3704466851756
 30
0.0
  0
VERTEX
  5
2F4
  8
1
  6
CONTINUOUS
 62
     7
 10
-353.7149738423639
 20
188.7405587099391
 30
0.0
  0
VERTEX
  5
2F5
  8
1
  6
CONTINUOUS
 62
     7
 10
-353.7250621770669
 20
189.1065983143347
 30
0.0
  0
VERTEX
  5
2F6
  8
1
  6
CONTINUOUS
 62
     7
 10
-353.7351505117702
 20
189.468215744793
 30
0.0
  0
VERTEX
  5
2F7
  8
1
  6
CONTINUOUS
 62
     7
 10
-353.7452388464733
 20
189.8250612477447
 30
0.0
  0
VERTEX
  5
2F8
  8
1
  6
CONTINUOUS
 62
     7
 10
-353.7553271811765
 20
190.1767850696203
 30
0.0
  0
VERTEX
  5
2F9
  8
1
  6
CONTINUOUS
 62
     7
 10
-353.7654155158796
 20
190.5230374568505
 30
0.0
  0
VERTEX
  5
2FA
  8
1
  6
CONTINUOUS
 62
     7
 10
-353.7755038505828
 20
190.863468655866
 30
0.0
  0
VERTEX
  5
2FB
  8
1
  6
CONTINUOUS
 62
     7
 10
-353.7855921852859
 20
191.1977289130974
 30
0.0
  0
VERTEX
  5
2FC
  8
1
  6
CONTINUOUS
 62
     7
 10
-353.795680519989
 20
191.5254684749754
 30
0.0
  0
VERTEX
  5
2FD
  8
1
  6
CONTINUOUS
 62
     7
 10
-353.8057688546921
 20
191.8463375879305
 30
0.0
  0
VERTEX
  5
2FE
  8
1
  6
CONTINUOUS
 62
     7
 10
-353.8158571893953
 20
192.1599864983934
 30
0.0
  0
VERTEX
  5
2FF
  8
1
  6
CONTINUOUS
 62
     7
 10
-353.8259455240985
 20
192.4660777082188
 30
0.0
  0
VERTEX
  5
300
  8
1
  6
CONTINUOUS
 62
     7
 10
-353.8360338588016
 20
192.764329551874
 30
0.0
  0
VERTEX
  5
301
  8
1
  6
CONTINUOUS
 62
     7
 10
-353.8461221935048
 20
193.0544762548282
 30
0.0
  0
VERTEX
  5
302
  8
1
  6
CONTINUOUS
 62
     7
 10
-353.856210528208
 20
193.3362520436882
 30
0.0
  0
VERTEX
  5
303
  8
1
  6
CONTINUOUS
 62
     7
 10
-353.866298862911
 20
193.6093911450607
 30
0.0
  0
VERTEX
  5
304
  8
1
  6
CONTINUOUS
 62
     7
 10
-353.8763871976142
 20
193.8736277855526
 30
0.0
  0
VERTEX
  5
305
  8
1
  6
CONTINUOUS
 62
     7
 10
-353.8864755323173
 20
194.1286961917707
 30
0.0
  0
VERTEX
  5
306
  8
1
  6
CONTINUOUS
 62
     7
 10
-353.8965638670205
 20
194.3743305903217
 30
0.0
  0
VERTEX
  5
307
  8
1
  6
CONTINUOUS
 62
     7
 10
-353.9066522017237
 20
194.6102652078124
 30
0.0
  0
VERTEX
  5
308
  8
1
  6
CONTINUOUS
 62
     7
 10
-353.9167405364267
 20
194.8362342708497
 30
0.0
  0
VERTEX
  5
309
  8
1
  6
CONTINUOUS
 62
     7
 10
-353.9268288711299
 20
195.0519720060403
 30
0.0
  0
VERTEX
  5
30A
  8
1
  6
CONTINUOUS
 62
     7
 10
-353.936917205833
 20
195.2572233341087
 30
0.0
  0
VERTEX
  5
30B
  8
1
  6
CONTINUOUS
 62
     7
 10
-353.9470055405363
 20
195.4518075365105
 30
0.0
  0
VERTEX
  5
30C
  8
1
  6
CONTINUOUS
 62
     7
 10
-353.9570938752393
 20
195.6355754779215
 30
0.0
  0
VERTEX
  5
30D
  8
1
  6
CONTINUOUS
 62
     7
 10
-353.9671822099424
 20
195.8083781381928
 30
0.0
  0
VERTEX
  5
30E
  8
1
  6
CONTINUOUS
 62
     7
 10
-353.9772705446456
 20
195.9700664971753
 30
0.0
  0
VERTEX
  5
30F
  8
1
  6
CONTINUOUS
 62
     7
 10
-353.9873588793488
 20
196.1204915347201
 30
0.0
  0
VERTEX
  5
310
  8
1
  6
CONTINUOUS
 62
     7
 10
-353.997447214052
 20
196.2595042306783
 30
0.0
  0
VERTEX
  5
311
  8
1
  6
CONTINUOUS
 62
     7
 10
-354.0075355487551
 20
196.3869555649007
 30
0.0
  0
VERTEX
  5
312
  8
1
  6
CONTINUOUS
 62
     7
 10
-354.0176238834583
 20
196.5026965172385
 30
0.0
  0
VERTEX
  5
313
  8
1
  6
CONTINUOUS
 62
     7
 10
-354.0277122181614
 20
196.6065780675426
 30
0.0
  0
VERTEX
  5
314
  8
1
  6
CONTINUOUS
 62
     7
 10
-354.0378005528645
 20
196.698451195664
 30
0.0
  0
VERTEX
  5
315
  8
1
  6
CONTINUOUS
 62
     7
 10
-354.0478888875677
 20
196.778174011127
 30
0.0
  0
VERTEX
  5
316
  8
1
  6
CONTINUOUS
 62
     7
 10
-354.0579772222707
 20
196.8456831872996
 30
0.0
  0
VERTEX
  5
317
  8
1
  6
CONTINUOUS
 62
     7
 10
-354.068065556974
 20
196.9009641058696
 30
0.0
  0
VERTEX
  5
318
  8
1
  6
CONTINUOUS
 62
     7
 10
-354.0781538916771
 20
196.9440028759153
 30
0.0
  0
VERTEX
  5
319
  8
1
  6
CONTINUOUS
 62
     7
 10
-354.0882422263803
 20
196.9747856065159
 30
0.0
  0
VERTEX
  5
31A
  8
1
  6
CONTINUOUS
 62
     7
 10
-354.0983305610834
 20
196.9932984067497
 30
0.0
  0
VERTEX
  5
31B
  8
1
  6
CONTINUOUS
 62
     7
 10
-354.1084188957865
 20
196.9995273856956
 30
0.0
  0
SEQEND
  5
643
  8
1
  6
CONTINUOUS
 62
     7
  0
POLYLINE
  5
88
  8
1
  6
CONTINUOUS
 62
     7
 66
     1
 10
0.0
 20
0.0
 30
0.0
  0
VERTEX
  5
31C
  8
1
  6
CONTINUOUS
 62
     7
 10
-351.1383180650385
 20
172.4543362409633
 30
0.0
  0
VERTEX
  5
31D
  8
1
  6
CONTINUOUS
 62
     7
 10
-351.1493408610759
 20
172.5017549065569
 30
0.0
  0
VERTEX
  5
31E
  8
1
  6
CONTINUOUS
 62
     7
 10
-351.1603636571134
 20
172.5637773781721
 30
0.0
  0
VERTEX
  5
31F
  8
1
  6
CONTINUOUS
 62
     7
 10
-351.1713864531508
 20
172.6402957271137
 30
0.0
  0
VERTEX
  5
320
  8
1
  6
CONTINUOUS
 62
     7
 10
-351.1824092491883
 20
172.7312020246863
 30
0.0
  0
VERTEX
  5
321
  8
1
  6
CONTINUOUS
 62
     7
 10
-351.1934320452257
 20
172.8363883421945
 30
0.0
  0
VERTEX
  5
322
  8
1
  6
CONTINUOUS
 62
     7
 10
-351.204454841263
 20
172.9557467509431
 30
0.0
  0
VERTEX
  5
323
  8
1
  6
CONTINUOUS
 62
     7
 10
-351.2154776373005
 20
173.0891693222368
 30
0.0
  0
VERTEX
  5
324
  8
1
  6
CONTINUOUS
 62
     7
 10
-351.2265004333381
 20
173.2365481273802
 30
0.0
  0
VERTEX
  5
325
  8
1
  6
CONTINUOUS
 62
     7
 10
-351.2375232293754
 20
173.3977717851518
 30
0.0
  0
VERTEX
  5
326
  8
1
  6
CONTINUOUS
 62
     7
 10
-351.2485460254128
 20
173.5726490749124
 30
0.0
  0
VERTEX
  5
327
  8
1
  6
CONTINUOUS
 62
     7
 10
-351.2595688214503
 20
173.7609086962465
 30
0.0
  0
VERTEX
  5
328
  8
1
  6
CONTINUOUS
 62
     7
 10
-351.2705916174877
 20
173.9622758481402
 30
0.0
  0
VERTEX
  5
329
  8
1
  6
CONTINUOUS
 62
     7
 10
-351.2816144135251
 20
174.17647572958
 30
0.0
  0
VERTEX
  5
32A
  8
1
  6
CONTINUOUS
 62
     7
 10
-351.2926372095626
 20
174.4032335395524
 30
0.0
  0
VERTEX
  5
32B
  8
1
  6
CONTINUOUS
 62
     7
 10
-351.3036600056
 20
174.6422744770436
 30
0.0
  0
VERTEX
  5
32C
  8
1
  6
CONTINUOUS
 62
     7
 10
-351.3146828016373
 20
174.8933237410401
 30
0.0
  0
VERTEX
  5
32D
  8
1
  6
CONTINUOUS
 62
     7
 10
-351.3257055976749
 20
175.1561065305282
 30
0.0
  0
VERTEX
  5
32E
  8
1
  6
CONTINUOUS
 62
     7
 10
-351.3367283937123
 20
175.4303480444943
 30
0.0
  0
VERTEX
  5
32F
  8
1
  6
CONTINUOUS
 62
     7
 10
-351.3477511897497
 20
175.7157728501678
 30
0.0
  0
VERTEX
  5
330
  8
1
  6
CONTINUOUS
 62
     7
 10
-351.3587739857871
 20
176.0120587297409
 30
0.0
  0
VERTEX
  5
331
  8
1
  6
CONTINUOUS
 62
     7
 10
-351.3697967818246
 20
176.3188053217273
 30
0.0
  0
VERTEX
  5
332
  8
1
  6
CONTINUOUS
 62
     7
 10
-351.380819577862
 20
176.6356048390221
 30
0.0
  0
VERTEX
  5
333
  8
1
  6
CONTINUOUS
 62
     7
 10
-351.3918423738993
 20
176.9620494945204
 30
0.0
  0
VERTEX
  5
334
  8
1
  6
CONTINUOUS
 62
     7
 10
-351.4028651699368
 20
177.2977315011173
 30
0.0
  0
VERTEX
  5
335
  8
1
  6
CONTINUOUS
 62
     7
 10
-351.4138879659743
 20
177.642243071708
 30
0.0
  0
VERTEX
  5
336
  8
1
  6
CONTINUOUS
 62
     7
 10
-351.4249107620117
 20
177.9951764191874
 30
0.0
  0
VERTEX
  5
337
  8
1
  6
CONTINUOUS
 62
     7
 10
-351.4359335580491
 20
178.3561237564507
 30
0.0
  0
VERTEX
  5
338
  8
1
  6
CONTINUOUS
 62
     7
 10
-351.4469563540865
 20
178.724677296393
 30
0.0
  0
VERTEX
  5
339
  8
1
  6
CONTINUOUS
 62
     7
 10
-351.457979150124
 20
179.1004292324993
 30
0.0
  0
VERTEX
  5
33A
  8
1
  6
CONTINUOUS
 62
     7
 10
-351.4690019461614
 20
179.4829528786059
 30
0.0
  0
VERTEX
  5
33B
  8
1
  6
CONTINUOUS
 62
     7
 10
-351.4800247421988
 20
179.8717673953377
 30
0.0
  0
VERTEX
  5
33C
  8
1
  6
CONTINUOUS
 62
     7
 10
-351.4910475382363
 20
180.2663822945873
 30
0.0
  0
VERTEX
  5
33D
  8
1
  6
CONTINUOUS
 62
     7
 10
-351.5020703342737
 20
180.6663070882474
 30
0.0
  0
VERTEX
  5
33E
  8
1
  6
CONTINUOUS
 62
     7
 10
-351.5130931303111
 20
181.0710512882108
 30
0.0
  0
VERTEX
  5
33F
  8
1
  6
CONTINUOUS
 62
     7
 10
-351.5241159263486
 20
181.48012440637
 30
0.0
  0
VERTEX
  5
340
  8
1
  6
CONTINUOUS
 62
     7
 10
-351.535138722386
 20
181.8930359546178
 30
0.0
  0
VERTEX
  5
341
  8
1
  6
CONTINUOUS
 62
     7
 10
-351.5461615184234
 20
182.3092954448469
 30
0.0
  0
VERTEX
  5
342
  8
1
  6
CONTINUOUS
 62
     7
 10
-351.5571843144608
 20
182.7284123889499
 30
0.0
  0
VERTEX
  5
343
  8
1
  6
CONTINUOUS
 62
     7
 10
-351.5682071104982
 20
183.1498962988197
 30
0.0
  0
VERTEX
  5
344
  8
1
  6
CONTINUOUS
 62
     7
 10
-351.5792299065358
 20
183.5732538150186
 30
0.0
  0
VERTEX
  5
345
  8
1
  6
CONTINUOUS
 62
     7
 10
-351.5902527025731
 20
183.9979769070343
 30
0.0
  0
VERTEX
  5
346
  8
1
  6
CONTINUOUS
 62
     7
 10
-351.6012754986105
 20
184.423552870847
 30
0.0
  0
VERTEX
  5
347
  8
1
  6
CONTINUOUS
 62
     7
 10
-351.612298294648
 20
184.8494690004476
 30
0.0
  0
VERTEX
  5
348
  8
1
  6
CONTINUOUS
 62
     7
 10
-351.6233210906855
 20
185.2752125898272
 30
0.0
  0
VERTEX
  5
349
  8
1
  6
CONTINUOUS
 62
     7
 10
-351.6343438867228
 20
185.7002709329767
 30
0.0
  0
VERTEX
  5
34A
  8
1
  6
CONTINUOUS
 62
     7
 10
-351.6453666827603
 20
186.1241313238868
 30
0.0
  0
VERTEX
  5
34B
  8
1
  6
CONTINUOUS
 62
     7
 10
-351.6563894787977
 20
186.5462810565488
 30
0.0
  0
VERTEX
  5
34C
  8
1
  6
CONTINUOUS
 62
     7
 10
-351.6674122748352
 20
186.9662074249534
 30
0.0
  0
VERTEX
  5
34D
  8
1
  6
CONTINUOUS
 62
     7
 10
-351.6784350708725
 20
187.3833977230916
 30
0.0
  0
VERTEX
  5
34E
  8
1
  6
CONTINUOUS
 62
     7
 10
-351.68945786691
 20
187.7973418528277
 30
0.0
  0
VERTEX
  5
34F
  8
1
  6
CONTINUOUS
 62
     7
 10
-351.7004806629474
 20
188.207554383893
 30
0.0
  0
VERTEX
  5
350
  8
1
  6
CONTINUOUS
 62
     7
 10
-351.7115034589849
 20
188.6135634735962
 30
0.0
  0
VERTEX
  5
351
  8
1
  6
CONTINUOUS
 62
     7
 10
-351.7225262550223
 20
189.0148974208687
 30
0.0
  0
VERTEX
  5
352
  8
1
  6
CONTINUOUS
 62
     7
 10
-351.7335490510597
 20
189.4110845246419
 30
0.0
  0
VERTEX
  5
353
  8
1
  6
CONTINUOUS
 62
     7
 10
-351.7445718470971
 20
189.8016530838472
 30
0.0
  0
VERTEX
  5
354
  8
1
  6
CONTINUOUS
 62
     7
 10
-351.7555946431345
 20
190.1861313974161
 30
0.0
  0
VERTEX
  5
355
  8
1
  6
CONTINUOUS
 62
     7
 10
-351.7666174391719
 20
190.5640477642798
 30
0.0
  0
VERTEX
  5
356
  8
1
  6
CONTINUOUS
 62
     7
 10
-351.7776402352094
 20
190.9349304833698
 30
0.0
  0
VERTEX
  5
357
  8
1
  6
CONTINUOUS
 62
     7
 10
-351.7886630312468
 20
191.2983078536175
 30
0.0
  0
VERTEX
  5
358
  8
1
  6
CONTINUOUS
 62
     7
 10
-351.7996858272842
 20
191.6537106618937
 30
0.0
  0
VERTEX
  5
359
  8
1
  6
CONTINUOUS
 62
     7
 10
-351.8107086233217
 20
192.0007191678995
 30
0.0
  0
VERTEX
  5
35A
  8
1
  6
CONTINUOUS
 62
     7
 10
-351.8217314193591
 20
192.3389591471345
 30
0.0
  0
VERTEX
  5
35B
  8
1
  6
CONTINUOUS
 62
     7
 10
-351.8327542153966
 20
192.6680580699065
 30
0.0
  0
VERTEX
  5
35C
  8
1
  6
CONTINUOUS
 62
     7
 10
-351.843777011434
 20
192.9876434065237
 30
0.0
  0
VERTEX
  5
35D
  8
1
  6
CONTINUOUS
 62
     7
 10
-351.8547998074714
 20
193.297342627294
 30
0.0
  0
VERTEX
  5
35E
  8
1
  6
CONTINUOUS
 62
     7
 10
-351.8658226035088
 20
193.5967832025254
 30
0.0
  0
VERTEX
  5
35F
  8
1
  6
CONTINUOUS
 62
     7
 10
-351.8768453995463
 20
193.885592602526
 30
0.0
  0
VERTEX
  5
360
  8
1
  6
CONTINUOUS
 62
     7
 10
-351.8878681955837
 20
194.1633982976037
 30
0.0
  0
VERTEX
  5
361
  8
1
  6
CONTINUOUS
 62
     7
 10
-351.8988909916211
 20
194.4298277580666
 30
0.0
  0
VERTEX
  5
362
  8
1
  6
CONTINUOUS
 62
     7
 10
-351.9099137876586
 20
194.6845093928108
 30
0.0
  0
VERTEX
  5
363
  8
1
  6
CONTINUOUS
 62
     7
 10
-351.9209365836959
 20
194.9271258609853
 30
0.0
  0
VERTEX
  5
364
  8
1
  6
CONTINUOUS
 62
     7
 10
-351.9319593797334
 20
195.1574427432526
 30
0.0
  0
VERTEX
  5
365
  8
1
  6
CONTINUOUS
 62
     7
 10
-351.9429821757708
 20
195.375232618706
 30
0.0
  0
VERTEX
  5
366
  8
1
  6
CONTINUOUS
 62
     7
 10
-351.9540049718083
 20
195.5802680664388
 30
0.0
  0
VERTEX
  5
367
  8
1
  6
CONTINUOUS
 62
     7
 10
-351.9650277678457
 20
195.7723216655443
 30
0.0
  0
VERTEX
  5
368
  8
1
  6
CONTINUOUS
 62
     7
 10
-351.9760505638831
 20
195.9511659951156
 30
0.0
  0
VERTEX
  5
369
  8
1
  6
CONTINUOUS
 62
     7
 10
-351.9870733599206
 20
196.1165736342464
 30
0.0
  0
VERTEX
  5
36A
  8
1
  6
CONTINUOUS
 62
     7
 10
-351.998096155958
 20
196.2683171620295
 30
0.0
  0
VERTEX
  5
36B
  8
1
  6
CONTINUOUS
 62
     7
 10
-352.0091189519954
 20
196.4061691575586
 30
0.0
  0
VERTEX
  5
36C
  8
1
  6
CONTINUOUS
 62
     7
 10
-352.0201417480329
 20
196.5299022882462
 30
0.0
  0
VERTEX
  5
36D
  8
1
  6
CONTINUOUS
 62
     7
 10
-352.0311645440703
 20
196.6393322099578
 30
0.0
  0
VERTEX
  5
36E
  8
1
  6
CONTINUOUS
 62
     7
 10
-352.0421873401077
 20
196.7343866286333
 30
0.0
  0
VERTEX
  5
36F
  8
1
  6
CONTINUOUS
 62
     7
 10
-352.0532101361452
 20
196.8150112758947
 30
0.0
  0
VERTEX
  5
370
  8
1
  6
CONTINUOUS
 62
     7
 10
-352.0642329321826
 20
196.881151883364
 30
0.0
  0
VERTEX
  5
371
  8
1
  6
CONTINUOUS
 62
     7
 10
-352.07525572822
 20
196.9327541826631
 30
0.0
  0
VERTEX
  5
372
  8
1
  6
CONTINUOUS
 62
     7
 10
-352.0862785242575
 20
196.9697639054141
 30
0.0
  0
VERTEX
  5
373
  8
1
  6
CONTINUOUS
 62
     7
 10
-352.0973013202949
 20
196.9921267832391
 30
0.0
  0
VERTEX
  5
374
  8
1
  6
CONTINUOUS
 62
     7
 10
-352.1083241163323
 20
196.9997885477598
 30
0.0
  0
SEQEND
  5
644
  8
1
  6
CONTINUOUS
 62
     7
  0
LINE
  5
89
  8
1
  6
CONTINUOUS
 62
     7
 10
-350.1084290273141
 20
197.0
 30
0.0
 11
-350.1606010878194
 21
196.8346537037644
 31
0.0
  0
LINE
  5
8A
  8
1
  6
CONTINUOUS
 62
     7
 10
-350.3763782197452
 20
196.0
 30
0.0
 11
-350.1084290273141
 21
197.0
 31
0.0
  0
LINE
  5
8B
  8
1
  6
CONTINUOUS
 62
     7
 10
-351.4999737234629
 20
174.2411819774123
 30
0.0
 11
-351.4087808505359
 21
173.4584968650467
 31
0.0
  0
LINE
  5
8C
  8
1
  6
CONTINUOUS
 62
     7
 10
-351.6123332768853
 20
176.3650234111244
 30
0.0
 11
-351.4999737234629
 21
174.2411819774123
 31
0.0
  0
LINE
  5
8D
  8
1
  6
CONTINUOUS
 62
     7
 10
-351.724692826165
 20
179.5166680071446
 30
0.0
 11
-351.6123332768853
 21
176.3650234111244
 31
0.0
  0
LINE
  5
8E
  8
1
  6
CONTINUOUS
 62
     7
 10
-351.8370523771496
 20
183.3074800616318
 30
0.0
 11
-351.724692826165
 21
179.5166680071446
 31
0.0
  0
LINE
  5
8F
  8
1
  6
CONTINUOUS
 62
     7
 10
-351.9494119275834
 20
187.2700066185905
 30
0.0
 11
-351.8370523771496
 21
183.3074800616318
 31
0.0
  0
LINE
  5
90
  8
1
  6
CONTINUOUS
 62
     7
 10
-352.0617714781767
 20
190.9156203373469
 30
0.0
 11
-351.9494119275834
 21
187.2700066185905
 31
0.0
  0
LINE
  5
91
  8
1
  6
CONTINUOUS
 62
     7
 10
-352.1741310287311
 20
193.7947730263704
 30
0.0
 11
-352.0617714781767
 21
190.9156203373469
 31
0.0
  0
LINE
  5
92
  8
1
  6
CONTINUOUS
 62
     7
 10
-352.2864905792942
 20
195.5524304007006
 30
0.0
 11
-352.1741310287311
 21
193.7947730263704
 31
0.0
  0
LINE
  5
93
  8
1
  6
CONTINUOUS
 62
     7
 10
-353.5224456354737
 20
174.5690155089264
 30
0.0
 11
-353.4100860849119
 21
173.4633000070074
 31
0.0
  0
LINE
  5
94
  8
1
  6
CONTINUOUS
 62
     7
 10
-353.6348051860355
 20
176.9240037095006
 30
0.0
 11
-353.5224456354737
 21
174.5690155089264
 31
0.0
  0
LINE
  5
95
  8
1
  6
CONTINUOUS
 62
     7
 10
-353.7471647365973
 20
180.2378661319362
 30
0.0
 11
-353.6348051860355
 21
176.9240037095006
 31
0.0
  0
LINE
  5
96
  8
1
  6
CONTINUOUS
 62
     7
 10
-353.8595242871591
 20
184.101963531438
 30
0.0
 11
-353.7471647365973
 21
180.2378661319362
 31
0.0
  0
LINE
  5
97
  8
1
  6
CONTINUOUS
 62
     7
 10
-353.9718838377209
 20
188.0398060475792
 30
0.0
 11
-353.8595242871591
 21
184.101963531438
 31
0.0
  0
LINE
  5
98
  8
1
  6
CONTINUOUS
 62
     7
 10
-354.0842433882827
 20
191.5658101567325
 30
0.0
 11
-353.9718838377209
 21
188.0398060475792
 31
0.0
  0
LINE
  5
99
  8
1
  6
CONTINUOUS
 62
     7
 10
-354.1966029388445
 20
194.2451769829524
 30
0.0
 11
-354.0842433882827
 21
191.5658101567325
 31
0.0
  0
LINE
  5
9A
  8
1
  6
CONTINUOUS
 62
     7
 10
-354.3089624894063
 20
195.7475082486962
 30
0.0
 11
-354.1966029388445
 21
194.2451769829524
 31
0.0
  0
LINE
  5
9B
  8
1
  6
CONTINUOUS
 62
     7
 10
-355.4325579950242
 20
173.5755415425019
 30
0.0
 11
-355.4097318673776
 21
173.4619778362121
 31
0.0
  0
LINE
  5
9C
  8
1
  6
CONTINUOUS
 62
     7
 10
-355.5449175455861
 20
174.9473210700576
 30
0.0
 11
-355.4325579950242
 21
173.5755415425019
 31
0.0
  0
LINE
  5
9D
  8
1
  6
CONTINUOUS
 62
     7
 10
-355.6572770961479
 20
177.5217236533153
 30
0.0
 11
-355.5449175455861
 21
174.9473210700576
 31
0.0
  0
LINE
  5
9E
  8
1
  6
CONTINUOUS
 62
     7
 10
-355.7696366467097
 20
180.9812943731154
 30
0.0
 11
-355.6572770961479
 21
177.5217236533153
 31
0.0
  0
LINE
  5
9F
  8
1
  6
CONTINUOUS
 62
     7
 10
-356.1067152983951
 20
192.1817948554659
 30
0.0
 11
-355.9943557478333
 21
188.79296672997
 31
0.0
  0
LINE
  5
A0
  8
1
  6
CONTINUOUS
 62
     7
 10
-356.2190748489568
 20
194.6480273479195
 30
0.0
 11
-356.1067152983951
 21
192.1817948554659
 31
0.0
  0
LINE
  5
A1
  8
1
  6
CONTINUOUS
 62
     7
 10
-356.3314343995186
 20
195.8875479663046
 30
0.0
 11
-356.2190748489568
 21
194.6480273479195
 31
0.0
  0
LINE
  5
A2
  8
1
  6
CONTINUOUS
 62
     7
 10
-357.4550299051367
 20
173.7432045704556
 30
0.0
 11
-357.4097061603618
 21
173.4618824224853
 31
0.0
  0
LINE
  5
A3
  8
1
  6
CONTINUOUS
 62
     7
 10
-357.5673894556984
 20
175.3742139870422
 30
0.0
 11
-357.4550299051367
 21
173.7432045704556
 31
0.0
  0
LINE
  5
A4
  8
1
  6
CONTINUOUS
 62
     7
 10
-357.6797490062602
 20
178.1552054088092
 30
0.0
 11
-357.5673894556984
 21
175.3742139870422
 31
0.0
  0
LINE
  5
A5
  8
1
  6
CONTINUOUS
 62
     7
 10
-357.792108556822
 20
181.7432490186706
 30
0.0
 11
-357.6797490062602
 21
178.1552054088092
 31
0.0
  0
POLYLINE
  5
A6
  8
1
  6
CONTINUOUS
 62
     7
 66
     1
 10
0.0
 20
0.0
 30
0.0
  0
VERTEX
  5
375
  8
1
  6
CONTINUOUS
 62
     7
 10
-357.1084696489938
 20
172.4003619363095
 30
0.0
  0
VERTEX
  5
376
  8
1
  6
CONTINUOUS
 62
     7
 10
-357.1092679564238
 20
172.4004141256522
 30
0.0
  0
VERTEX
  5
377
  8
1
  6
CONTINUOUS
 62
     7
 10
-357.1100662638537
 20
172.4005434534579
 30
0.0
  0
VERTEX
  5
378
  8
1
  6
CONTINUOUS
 62
     7
 10
-357.1108645712837
 20
172.400749905969
 30
0.0
  0
VERTEX
  5
379
  8
1
  6
CONTINUOUS
 62
     7
 10
-357.1116628787137
 20
172.4010334694279
 30
0.0
  0
VERTEX
  5
37A
  8
1
  6
CONTINUOUS
 62
     7
 10
-357.1124611861437
 20
172.4013941300772
 30
0.0
  0
VERTEX
  5
37B
  8
1
  6
CONTINUOUS
 62
     7
 10
-357.1132594935736
 20
172.4018318741591
 30
0.0
  0
VERTEX
  5
37C
  8
1
  6
CONTINUOUS
 62
     7
 10
-357.1140578010036
 20
172.4023466879163
 30
0.0
  0
VERTEX
  5
37D
  8
1
  6
CONTINUOUS
 62
     7
 10
-357.1148561084336
 20
172.402938557591
 30
0.0
  0
VERTEX
  5
37E
  8
1
  6
CONTINUOUS
 62
     7
 10
-357.1156544158635
 20
172.4036074694258
 30
0.0
  0
VERTEX
  5
37F
  8
1
  6
CONTINUOUS
 62
     7
 10
-357.1164527232935
 20
172.4043534096631
 30
0.0
  0
VERTEX
  5
380
  8
1
  6
CONTINUOUS
 62
     7
 10
-357.1172510307235
 20
172.4051763645454
 30
0.0
  0
VERTEX
  5
381
  8
1
  6
CONTINUOUS
 62
     7
 10
-357.1180493381535
 20
172.4060763203151
 30
0.0
  0
VERTEX
  5
382
  8
1
  6
CONTINUOUS
 62
     7
 10
-357.1188476455834
 20
172.4070532632146
 30
0.0
  0
VERTEX
  5
383
  8
1
  6
CONTINUOUS
 62
     7
 10
-357.1196459530133
 20
172.4081071794863
 30
0.0
  0
VERTEX
  5
384
  8
1
  6
CONTINUOUS
 62
     7
 10
-357.1204442604434
 20
172.4092380553729
 30
0.0
  0
VERTEX
  5
385
  8
1
  6
CONTINUOUS
 62
     7
 10
-357.1212425678733
 20
172.4104458771165
 30
0.0
  0
VERTEX
  5
386
  8
1
  6
CONTINUOUS
 62
     7
 10
-357.1220408753032
 20
172.4117306309598
 30
0.0
  0
VERTEX
  5
387
  8
1
  6
CONTINUOUS
 62
     7
 10
-357.1228391827333
 20
172.4130923031451
 30
0.0
  0
VERTEX
  5
388
  8
1
  6
CONTINUOUS
 62
     7
 10
-357.1236374901632
 20
172.4145308799149
 30
0.0
  0
VERTEX
  5
389
  8
1
  6
CONTINUOUS
 62
     7
 10
-357.1244357975932
 20
172.4160463475116
 30
0.0
  0
VERTEX
  5
38A
  8
1
  6
CONTINUOUS
 62
     7
 10
-357.1252341050232
 20
172.4176386921778
 30
0.0
  0
VERTEX
  5
38B
  8
1
  6
CONTINUOUS
 62
     7
 10
-357.1260324124531
 20
172.4193079001557
 30
0.0
  0
VERTEX
  5
38C
  8
1
  6
CONTINUOUS
 62
     7
 10
-357.1268307198832
 20
172.421053957688
 30
0.0
  0
VERTEX
  5
38D
  8
1
  6
CONTINUOUS
 62
     7
 10
-357.1276290273131
 20
172.4228768510169
 30
0.0
  0
SEQEND
  5
645
  8
1
  6
CONTINUOUS
 62
     7
  0
LINE
  5
A7
  8
1
  6
CONTINUOUS
 62
     7
 10
-356.1112623606464
 20
196.9990228325871
 30
0.0
 11
-356.1382446015314
 21
196.9456718331904
 31
0.0
  0
POLYLINE
  5
A8
  8
1
  6
CONTINUOUS
 62
     7
 66
     1
 10
0.0
 20
0.0
 30
0.0
  0
VERTEX
  5
38E
  8
1
  6
CONTINUOUS
 62
     7
 10
-355.108429049505
 20
172.4005129457335
 30
0.0
  0
VERTEX
  5
38F
  8
1
  6
CONTINUOUS
 62
     7
 10
-355.1091096041359
 20
172.4005409103088
 30
0.0
  0
VERTEX
  5
390
  8
1
  6
CONTINUOUS
 62
     7
 10
-355.1097901587668
 20
172.4006248037169
 30
0.0
  0
VERTEX
  5
391
  8
1
  6
CONTINUOUS
 62
     7
 10
-355.1104707133976
 20
172.4007646259581
 30
0.0
  0
VERTEX
  5
392
  8
1
  6
CONTINUOUS
 62
     7
 10
-355.1111512680286
 20
172.4009603770322
 30
0.0
  0
VERTEX
  5
393
  8
1
  6
CONTINUOUS
 62
     7
 10
-355.1118318226594
 20
172.4012120569394
 30
0.0
  0
VERTEX
  5
394
  8
1
  6
CONTINUOUS
 62
     7
 10
-355.1125123772904
 20
172.4015196656794
 30
0.0
  0
VERTEX
  5
395
  8
1
  6
CONTINUOUS
 62
     7
 10
-355.1131929319212
 20
172.4018832032526
 30
0.0
  0
VERTEX
  5
396
  8
1
  6
CONTINUOUS
 62
     7
 10
-355.1138734865522
 20
172.4023026696588
 30
0.0
  0
VERTEX
  5
397
  8
1
  6
CONTINUOUS
 62
     7
 10
-355.1145540411831
 20
172.4027780648979
 30
0.0
  0
VERTEX
  5
398
  8
1
  6
CONTINUOUS
 62
     7
 10
-355.1152345958139
 20
172.4033093889701
 30
0.0
  0
VERTEX
  5
399
  8
1
  6
CONTINUOUS
 62
     7
 10
-355.1159151504448
 20
172.4038966418753
 30
0.0
  0
VERTEX
  5
39A
  8
1
  6
CONTINUOUS
 62
     7
 10
-355.1165957050757
 20
172.4045398236136
 30
0.0
  0
VERTEX
  5
39B
  8
1
  6
CONTINUOUS
 62
     7
 10
-355.1172762597066
 20
172.4052389341849
 30
0.0
  0
VERTEX
  5
39C
  8
1
  6
CONTINUOUS
 62
     7
 10
-355.1179568143374
 20
172.4059939735893
 30
0.0
  0
VERTEX
  5
39D
  8
1
  6
CONTINUOUS
 62
     7
 10
-355.1186373689685
 20
172.4068049418267
 30
0.0
  0
VERTEX
  5
39E
  8
1
  6
CONTINUOUS
 62
     7
 10
-355.1193179235993
 20
172.4076718388973
 30
0.0
  0
VERTEX
  5
39F
  8
1
  6
CONTINUOUS
 62
     7
 10
-355.1199984782302
 20
172.4085946648009
 30
0.0
  0
VERTEX
  5
3A0
  8
1
  6
CONTINUOUS
 62
     7
 10
-355.1206790328611
 20
172.4095734195375
 30
0.0
  0
VERTEX
  5
3A1
  8
1
  6
CONTINUOUS
 62
     7
 10
-355.121359587492
 20
172.4106081031073
 30
0.0
  0
VERTEX
  5
3A2
  8
1
  6
CONTINUOUS
 62
     7
 10
-355.1220401421228
 20
172.4116987155102
 30
0.0
  0
VERTEX
  5
3A3
  8
1
  6
CONTINUOUS
 62
     7
 10
-355.1227206967538
 20
172.4128452567462
 30
0.0
  0
VERTEX
  5
3A4
  8
1
  6
CONTINUOUS
 62
     7
 10
-355.1234012513847
 20
172.4140477268154
 30
0.0
  0
VERTEX
  5
3A5
  8
1
  6
CONTINUOUS
 62
     7
 10
-355.1240818060155
 20
172.4153061257176
 30
0.0
  0
VERTEX
  5
3A6
  8
1
  6
CONTINUOUS
 62
     7
 10
-355.1247623606465
 20
172.416620453453
 30
0.0
  0
SEQEND
  5
646
  8
1
  6
CONTINUOUS
 62
     7
  0
LINE
  5
A9
  8
1
  6
CONTINUOUS
 62
     7
 10
-354.1104290273131
 20
196.9992996728676
 30
0.0
 11
-354.1379760858635
 21
196.9469291995819
 31
0.0
  0
POLYLINE
  5
AA
  8
1
  6
CONTINUOUS
 62
     7
 66
     1
 10
0.0
 20
0.0
 30
0.0
  0
VERTEX
  5
3A7
  8
1
  6
CONTINUOUS
 62
     7
 10
-353.1083884458358
 20
172.4003619358159
 30
0.0
  0
VERTEX
  5
3A8
  8
1
  6
CONTINUOUS
 62
     7
 10
-353.1091526367308
 20
172.4003842535373
 30
0.0
  0
VERTEX
  5
3A9
  8
1
  6
CONTINUOUS
 62
     7
 10
-353.1099168276256
 20
172.4004772820888
 30
0.0
  0
VERTEX
  5
3AA
  8
1
  6
CONTINUOUS
 62
     7
 10
-353.1106810185205
 20
172.4006410335385
 30
0.0
  0
VERTEX
  5
3AB
  8
1
  6
CONTINUOUS
 62
     7
 10
-353.1114452094154
 20
172.4008755199543
 30
0.0
  0
VERTEX
  5
3AC
  8
1
  6
CONTINUOUS
 62
     7
 10
-353.1122094003103
 20
172.4011807534043
 30
0.0
  0
VERTEX
  5
3AD
  8
1
  6
CONTINUOUS
 62
     7
 10
-353.1129735912051
 20
172.4015567459566
 30
0.0
  0
VERTEX
  5
3AE
  8
1
  6
CONTINUOUS
 62
     7
 10
-353.1137377821
 20
172.4020035096793
 30
0.0
  0
VERTEX
  5
3AF
  8
1
  6
CONTINUOUS
 62
     7
 10
-353.1145019729948
 20
172.4025210566403
 30
0.0
  0
VERTEX
  5
3B0
  8
1
  6
CONTINUOUS
 62
     7
 10
-353.1152661638898
 20
172.4031093989077
 30
0.0
  0
VERTEX
  5
3B1
  8
1
  6
CONTINUOUS
 62
     7
 10
-353.1160303547846
 20
172.4037685485496
 30
0.0
  0
VERTEX
  5
3B2
  8
1
  6
CONTINUOUS
 62
     7
 10
-353.1167945456795
 20
172.4044985176341
 30
0.0
  0
VERTEX
  5
3B3
  8
1
  6
CONTINUOUS
 62
     7
 10
-353.1175587365744
 20
172.4052993182291
 30
0.0
  0
VERTEX
  5
3B4
  8
1
  6
CONTINUOUS
 62
     7
 10
-353.1183229274693
 20
172.4061709624027
 30
0.0
  0
VERTEX
  5
3B5
  8
1
  6
CONTINUOUS
 62
     7
 10
-353.1190871183642
 20
172.4071134622231
 30
0.0
  0
VERTEX
  5
3B6
  8
1
  6
CONTINUOUS
 62
     7
 10
-353.119851309259
 20
172.4081268297581
 30
0.0
  0
VERTEX
  5
3B7
  8
1
  6
CONTINUOUS
 62
     7
 10
-353.1206155001539
 20
172.409211077076
 30
0.0
  0
VERTEX
  5
3B8
  8
1
  6
CONTINUOUS
 62
     7
 10
-353.1213796910489
 20
172.4103662162447
 30
0.0
  0
VERTEX
  5
3B9
  8
1
  6
CONTINUOUS
 62
     7
 10
-353.1221438819437
 20
172.4115922593323
 30
0.0
  0
VERTEX
  5
3BA
  8
1
  6
CONTINUOUS
 62
     7
 10
-353.1229080728386
 20
172.4128892184069
 30
0.0
  0
VERTEX
  5
3BB
  8
1
  6
CONTINUOUS
 62
     7
 10
-353.1236722637335
 20
172.4142571055364
 30
0.0
  0
VERTEX
  5
3BC
  8
1
  6
CONTINUOUS
 62
     7
 10
-353.1244364546284
 20
172.415695932789
 30
0.0
  0
VERTEX
  5
3BD
  8
1
  6
CONTINUOUS
 62
     7
 10
-353.1252006455233
 20
172.4172057122327
 30
0.0
  0
VERTEX
  5
3BE
  8
1
  6
CONTINUOUS
 62
     7
 10
-353.1259648364182
 20
172.4187864559356
 30
0.0
  0
VERTEX
  5
3BF
  8
1
  6
CONTINUOUS
 62
     7
 10
-353.126729027313
 20
172.4204381759656
 30
0.0
  0
SEQEND
  5
647
  8
1
  6
CONTINUOUS
 62
     7
  0
LINE
  5
AB
  8
1
  6
CONTINUOUS
 62
     7
 10
-352.112229027313
 20
196.9989660955557
 30
0.0
 11
-352.1390006682396
 21
196.9432799505352
 31
0.0
  0
POLYLINE
  5
AC
  8
1
  6
CONTINUOUS
 62
     7
 66
     1
 10
0.0
 20
0.0
 30
0.0
  0
VERTEX
  5
3C0
  8
1
  6
CONTINUOUS
 62
     7
 10
-351.1083401786681
 20
172.4000674469339
 30
0.0
  0
VERTEX
  5
3C1
  8
1
  6
CONTINUOUS
 62
     7
 10
-351.1089419135215
 20
172.4000767748458
 30
0.0
  0
VERTEX
  5
3C2
  8
1
  6
CONTINUOUS
 62
     7
 10
-351.1095436483751
 20
172.4001302796067
 30
0.0
  0
VERTEX
  5
3C3
  8
1
  6
CONTINUOUS
 62
     7
 10
-351.1101453832285
 20
172.4002279729707
 30
0.0
  0
VERTEX
  5
3C4
  8
1
  6
CONTINUOUS
 62
     7
 10
-351.110747118082
 20
172.4003698666921
 30
0.0
  0
VERTEX
  5
3C5
  8
1
  6
CONTINUOUS
 62
     7
 10
-351.1113488529355
 20
172.4005559725252
 30
0.0
  0
VERTEX
  5
3C6
  8
1
  6
CONTINUOUS
 62
     7
 10
-351.111950587789
 20
172.400786302224
 30
0.0
  0
VERTEX
  5
3C7
  8
1
  6
CONTINUOUS
 62
     7
 10
-351.1125523226425
 20
172.401060867543
 30
0.0
  0
VERTEX
  5
3C8
  8
1
  6
CONTINUOUS
 62
     7
 10
-351.113154057496
 20
172.4013796802364
 30
0.0
  0
VERTEX
  5
3C9
  8
1
  6
CONTINUOUS
 62
     7
 10
-351.1137557923495
 20
172.4017427520584
 30
0.0
  0
VERTEX
  5
3CA
  8
1
  6
CONTINUOUS
 62
     7
 10
-351.114357527203
 20
172.4021500947631
 30
0.0
  0
VERTEX
  5
3CB
  8
1
  6
CONTINUOUS
 62
     7
 10
-351.1149592620564
 20
172.4026017201049
 30
0.0
  0
VERTEX
  5
3CC
  8
1
  6
CONTINUOUS
 62
     7
 10
-351.11556099691
 20
172.403097639838
 30
0.0
  0
VERTEX
  5
3CD
  8
1
  6
CONTINUOUS
 62
     7
 10
-351.1161627317634
 20
172.4036378657166
 30
0.0
  0
VERTEX
  5
3CE
  8
1
  6
CONTINUOUS
 62
     7
 10
-351.1167644666169
 20
172.404222409495
 30
0.0
  0
VERTEX
  5
3CF
  8
1
  6
CONTINUOUS
 62
     7
 10
-351.1173662014704
 20
172.4048512829274
 30
0.0
  0
VERTEX
  5
3D0
  8
1
  6
CONTINUOUS
 62
     7
 10
-351.1179679363239
 20
172.4055244977681
 30
0.0
  0
VERTEX
  5
3D1
  8
1
  6
CONTINUOUS
 62
     7
 10
-351.1185696711774
 20
172.4062420657712
 30
0.0
  0
VERTEX
  5
3D2
  8
1
  6
CONTINUOUS
 62
     7
 10
-351.1191714060308
 20
172.407003998691
 30
0.0
  0
VERTEX
  5
3D3
  8
1
  6
CONTINUOUS
 62
     7
 10
-351.1197731408844
 20
172.4078103082535
 30
0.0
  0
VERTEX
  5
3D4
  8
1
  6
CONTINUOUS
 62
     7
 10
-351.1203748757379
 20
172.4086609982763
 30
0.0
  0
VERTEX
  5
3D5
  8
1
  6
CONTINUOUS
 62
     7
 10
-351.1209766105913
 20
172.4095560538974
 30
0.0
  0
VERTEX
  5
3D6
  8
1
  6
CONTINUOUS
 62
     7
 10
-351.1215783454448
 20
172.4104954575589
 30
0.0
  0
VERTEX
  5
3D7
  8
1
  6
CONTINUOUS
 62
     7
 10
-351.1221800802983
 20
172.4114791917026
 30
0.0
  0
VERTEX
  5
3D8
  8
1
  6
CONTINUOUS
 62
     7
 10
-351.1227818151518
 20
172.4125072387704
 30
0.0
  0
VERTEX
  5
3D9
  8
1
  6
CONTINUOUS
 62
     7
 10
-351.1233835500053
 20
172.4135795812043
 30
0.0
  0
VERTEX
  5
3DA
  8
1
  6
CONTINUOUS
 62
     7
 10
-351.1239852848589
 20
172.4146962014462
 30
0.0
  0
VERTEX
  5
3DB
  8
1
  6
CONTINUOUS
 62
     7
 10
-351.1245870197123
 20
172.4158570819379
 30
0.0
  0
VERTEX
  5
3DC
  8
1
  6
CONTINUOUS
 62
     7
 10
-351.1251887545658
 20
172.4170622051214
 30
0.0
  0
VERTEX
  5
3DD
  8
1
  6
CONTINUOUS
 62
     7
 10
-351.1257904894192
 20
172.4183115534386
 30
0.0
  0
VERTEX
  5
3DE
  8
1
  6
CONTINUOUS
 62
     7
 10
-351.1263922242728
 20
172.4196051093316
 30
0.0
  0
VERTEX
  5
3DF
  8
1
  6
CONTINUOUS
 62
     7
 10
-351.1269939591262
 20
172.420942855242
 30
0.0
  0
VERTEX
  5
3E0
  8
1
  6
CONTINUOUS
 62
     7
 10
-351.1275956939797
 20
172.4223247736119
 30
0.0
  0
SEQEND
  5
648
  8
1
  6
CONTINUOUS
 62
     7
  0
LINE
  5
AD
  8
1
  6
CONTINUOUS
 62
     7
 10
-350.4762893711011
 20
172.4000674465036
 30
0.0
 11
-350.4466894152937
 21
172.4538960296165
 31
0.0
  0
LINE
  5
AE
  8
1
  6
CONTINUOUS
 62
     7
 10
-351.4762733087654
 20
196.9997885482663
 30
0.0
 11
-351.4448612981398
 21
196.9392487022701
 31
0.0
  0
LINE
  5
AF
  8
1
  6
CONTINUOUS
 62
     7
 10
-352.4763376382688
 20
172.4003619356239
 30
0.0
 11
-352.4456913410762
 21
172.4576052291736
 31
0.0
  0
LINE
  5
B0
  8
1
  6
CONTINUOUS
 62
     7
 10
-353.4763680882196
 20
196.9995273857412
 30
0.0
 11
-353.4465626455278
 21
196.9456718331905
 31
0.0
  0
LINE
  5
B1
  8
1
  6
CONTINUOUS
 62
     7
 10
-354.4763782419381
 20
172.4005129457337
 30
0.0
 11
-354.4455949655253
 21
172.4577277295824
 31
0.0
  0
LINE
  5
B2
  8
1
  6
CONTINUOUS
 62
     7
 10
-355.4763883109601
 20
196.9995273860249
 30
0.0
 11
-355.4468311611957
 21
196.9469291995819
 31
0.0
  0
LINE
  5
B3
  8
1
  6
CONTINUOUS
 62
     7
 10
-356.4764188414268
 20
172.4003619365016
 30
0.0
 11
-356.4448684827746
 21
172.4602193321608
 31
0.0
  0
LINE
  5
B4
  8
1
  6
CONTINUOUS
 62
     7
 10
-357.4764830925691
 20
196.9997885487744
 30
0.0
 11
-357.4458065788195
 21
196.9432799505352
 31
0.0
  0
LINE
  5
B5
  8
1
  6
CONTINUOUS
 62
     7
 10
-350.1084290273141
 20
197.0
 30
0.0
 11
-349.4763782197451
 21
197.0
 31
0.0
  0
POLYLINE
  5
B6
  8
1
  6
CONTINUOUS
 62
     7
 66
     1
 10
0.0
 20
0.0
 30
0.0
  0
VERTEX
  5
3E1
  8
1
  6
CONTINUOUS
 62
     7
 10
-351.4448612981398
 20
196.9392487022701
 30
0.0
  0
VERTEX
  5
3E2
  8
1
  6
CONTINUOUS
 62
     7
 10
-351.4347720072332
 20
196.8945850597284
 30
0.0
  0
VERTEX
  5
3E3
  8
1
  6
CONTINUOUS
 62
     7
 10
-351.4246827163265
 20
196.8377306131052
 30
0.0
  0
VERTEX
  5
3E4
  8
1
  6
CONTINUOUS
 62
     7
 10
-351.4145934254199
 20
196.7687269776922
 30
0.0
  0
VERTEX
  5
3E5
  8
1
  6
CONTINUOUS
 62
     7
 10
-351.4045041345132
 20
196.6876157687811
 30
0.0
  0
VERTEX
  5
3E6
  8
1
  6
CONTINUOUS
 62
     7
 10
-351.3944148436065
 20
196.5944386016633
 30
0.0
  0
VERTEX
  5
3E7
  8
1
  6
CONTINUOUS
 62
     7
 10
-351.3843255526998
 20
196.4892373103022
 30
0.0
  0
VERTEX
  5
3E8
  8
1
  6
CONTINUOUS
 62
     7
 10
-351.3742362617932
 20
196.372092506393
 30
0.0
  0
VERTEX
  5
3E9
  8
1
  6
CONTINUOUS
 62
     7
 10
-351.3641469708866
 20
196.2431678640035
 30
0.0
  0
VERTEX
  5
3EA
  8
1
  6
CONTINUOUS
 62
     7
 10
-351.3540576799799
 20
196.1026377792842
 30
0.0
  0
VERTEX
  5
3EB
  8
1
  6
CONTINUOUS
 62
     7
 10
-351.3439683890733
 20
195.9506766483852
 30
0.0
  0
VERTEX
  5
3EC
  8
1
  6
CONTINUOUS
 62
     7
 10
-351.3338790981666
 20
195.7874588674572
 30
0.0
  0
VERTEX
  5
3ED
  8
1
  6
CONTINUOUS
 62
     7
 10
-351.32378980726
 20
195.6131588326502
 30
0.0
  0
VERTEX
  5
3EE
  8
1
  6
CONTINUOUS
 62
     7
 10
-351.3137005163533
 20
195.4279509401149
 30
0.0
  0
VERTEX
  5
3EF
  8
1
  6
CONTINUOUS
 62
     7
 10
-351.3036112254467
 20
195.2320095860014
 30
0.0
  0
VERTEX
  5
3F0
  8
1
  6
CONTINUOUS
 62
     7
 10
-351.2935219345401
 20
195.0255091664603
 30
0.0
  0
VERTEX
  5
3F1
  8
1
  6
CONTINUOUS
 62
     7
 10
-351.2834326436333
 20
194.8086240776417
 30
0.0
  0
VERTEX
  5
3F2
  8
1
  6
CONTINUOUS
 62
     7
 10
-351.2733433527267
 20
194.5815287245211
 30
0.0
  0
VERTEX
  5
3F3
  8
1
  6
CONTINUOUS
 62
     7
 10
-351.26325406182
 20
194.3444207143383
 30
0.0
  0
VERTEX
  5
3F4
  8
1
  6
CONTINUOUS
 62
     7
 10
-351.2531647709134
 20
194.0975711863876
 30
0.0
  0
VERTEX
  5
3F5
  8
1
  6
CONTINUOUS
 62
     7
 10
-351.2430754800067
 20
193.8412658125271
 30
0.0
  0
VERTEX
  5
3F6
  8
1
  6
CONTINUOUS
 62
     7
 10
-351.2329861891
 20
193.5757902646153
 30
0.0
  0
VERTEX
  5
3F7
  8
1
  6
CONTINUOUS
 62
     7
 10
-351.2228968981934
 20
193.3014302145104
 30
0.0
  0
VERTEX
  5
3F8
  8
1
  6
CONTINUOUS
 62
     7
 10
-351.2128076072867
 20
193.0184713340706
 30
0.0
  0
VERTEX
  5
3F9
  8
1
  6
CONTINUOUS
 62
     7
 10
-351.2027183163802
 20
192.7271992951542
 30
0.0
  0
VERTEX
  5
3FA
  8
1
  6
CONTINUOUS
 62
     7
 10
-351.1926290254734
 20
192.4278997696196
 30
0.0
  0
VERTEX
  5
3FB
  8
1
  6
CONTINUOUS
 62
     7
 10
-351.1825397345668
 20
192.1208584293248
 30
0.0
  0
VERTEX
  5
3FC
  8
1
  6
CONTINUOUS
 62
     7
 10
-351.1724504436602
 20
191.8063609461284
 30
0.0
  0
VERTEX
  5
3FD
  8
1
  6
CONTINUOUS
 62
     7
 10
-351.1623611527535
 20
191.4846929918885
 30
0.0
  0
VERTEX
  5
3FE
  8
1
  6
CONTINUOUS
 62
     7
 10
-351.1522718618469
 20
191.1561508182779
 30
0.0
  0
VERTEX
  5
3FF
  8
1
  6
CONTINUOUS
 62
     7
 10
-351.1421825709402
 20
190.8210811240656
 30
0.0
  0
VERTEX
  5
400
  8
1
  6
CONTINUOUS
 62
     7
 10
-351.1320932800335
 20
190.4798456274982
 30
0.0
  0
VERTEX
  5
401
  8
1
  6
CONTINUOUS
 62
     7
 10
-351.1220039891269
 20
190.1328060493526
 30
0.0
  0
VERTEX
  5
402
  8
1
  6
CONTINUOUS
 62
     7
 10
-351.1119146982203
 20
189.780324110406
 30
0.0
  0
VERTEX
  5
403
  8
1
  6
CONTINUOUS
 62
     7
 10
-351.1018254073136
 20
189.4227615314353
 30
0.0
  0
VERTEX
  5
404
  8
1
  6
CONTINUOUS
 62
     7
 10
-351.0917361164069
 20
189.0604800332179
 30
0.0
  0
VERTEX
  5
405
  8
1
  6
CONTINUOUS
 62
     7
 10
-351.0816468255003
 20
188.6938413365305
 30
0.0
  0
VERTEX
  5
406
  8
1
  6
CONTINUOUS
 62
     7
 10
-351.0715575345936
 20
188.3232071621503
 30
0.0
  0
VERTEX
  5
407
  8
1
  6
CONTINUOUS
 62
     7
 10
-351.061468243687
 20
187.9489392308543
 30
0.0
  0
VERTEX
  5
408
  8
1
  6
CONTINUOUS
 62
     7
 10
-351.0513789527803
 20
187.5713992634198
 30
0.0
  0
VERTEX
  5
409
  8
1
  6
CONTINUOUS
 62
     7
 10
-351.0412896618737
 20
187.1909517148938
 30
0.0
  0
VERTEX
  5
40A
  8
1
  6
CONTINUOUS
 62
     7
 10
-351.031200370967
 20
186.8079809245506
 30
0.0
  0
VERTEX
  5
40B
  8
1
  6
CONTINUOUS
 62
     7
 10
-351.0211110800603
 20
186.4228800187111
 30
0.0
  0
VERTEX
  5
40C
  8
1
  6
CONTINUOUS
 62
     7
 10
-351.0110217891537
 20
186.0360421625325
 30
0.0
  0
VERTEX
  5
40D
  8
1
  6
CONTINUOUS
 62
     7
 10
-351.0009324982471
 20
185.6478605211722
 30
0.0
  0
VERTEX
  5
40E
  8
1
  6
CONTINUOUS
 62
     7
 10
-350.9908432073403
 20
185.2587282597875
 30
0.0
  0
VERTEX
  5
40F
  8
1
  6
CONTINUOUS
 62
     7
 10
-350.9807539164337
 20
184.8690385435358
 30
0.0
  0
VERTEX
  5
410
  8
1
  6
CONTINUOUS
 62
     7
 10
-350.9706646255271
 20
184.4791845375744
 30
0.0
  0
VERTEX
  5
411
  8
1
  6
CONTINUOUS
 62
     7
 10
-350.9605753346204
 20
184.0895594070605
 30
0.0
  0
VERTEX
  5
412
  8
1
  6
CONTINUOUS
 62
     7
 10
-350.9504860437137
 20
183.7005563171516
 30
0.0
  0
VERTEX
  5
413
  8
1
  6
CONTINUOUS
 62
     7
 10
-350.9403967528071
 20
183.312568433005
 30
0.0
  0
VERTEX
  5
414
  8
1
  6
CONTINUOUS
 62
     7
 10
-350.9303074619004
 20
182.9259880713685
 30
0.0
  0
VERTEX
  5
415
  8
1
  6
CONTINUOUS
 62
     7
 10
-350.9202181709938
 20
182.5411977523497
 30
0.0
  0
VERTEX
  5
416
  8
1
  6
CONTINUOUS
 62
     7
 10
-350.9101288800871
 20
182.1585737068987
 30
0.0
  0
VERTEX
  5
417
  8
1
  6
CONTINUOUS
 62
     7
 10
-350.9000395891806
 20
181.7784920625414
 30
0.0
  0
VERTEX
  5
418
  8
1
  6
CONTINUOUS
 62
     7
 10
-350.8899502982739
 20
181.4013289468037
 30
0.0
  0
VERTEX
  5
419
  8
1
  6
CONTINUOUS
 62
     7
 10
-350.8798610073672
 20
181.0274604872115
 30
0.0
  0
VERTEX
  5
41A
  8
1
  6
CONTINUOUS
 62
     7
 10
-350.8697717164606
 20
180.6572628112909
 30
0.0
  0
VERTEX
  5
41B
  8
1
  6
CONTINUOUS
 62
     7
 10
-350.859682425554
 20
180.2911120465677
 30
0.0
  0
VERTEX
  5
41C
  8
1
  6
CONTINUOUS
 62
     7
 10
-350.8495931346473
 20
179.9293843205679
 30
0.0
  0
VERTEX
  5
41D
  8
1
  6
CONTINUOUS
 62
     7
 10
-350.8395038437407
 20
179.5724557608175
 30
0.0
  0
VERTEX
  5
41E
  8
1
  6
CONTINUOUS
 62
     7
 10
-350.829414552834
 20
179.2207024948423
 30
0.0
  0
VERTEX
  5
41F
  8
1
  6
CONTINUOUS
 62
     7
 10
-350.8193252619274
 20
178.8744990586343
 30
0.0
  0
VERTEX
  5
420
  8
1
  6
CONTINUOUS
 62
     7
 10
-350.8092359710207
 20
178.5341883487263
 30
0.0
  0
VERTEX
  5
421
  8
1
  6
CONTINUOUS
 62
     7
 10
-350.7991466801141
 20
178.2000841573457
 30
0.0
  0
VERTEX
  5
422
  8
1
  6
CONTINUOUS
 62
     7
 10
-350.7890573892073
 20
177.8724991933257
 30
0.0
  0
VERTEX
  5
423
  8
1
  6
CONTINUOUS
 62
     7
 10
-350.7789680983007
 20
177.5517461654994
 30
0.0
  0
VERTEX
  5
424
  8
1
  6
CONTINUOUS
 62
     7
 10
-350.768878807394
 20
177.2381377827001
 30
0.0
  0
VERTEX
  5
425
  8
1
  6
CONTINUOUS
 62
     7
 10
-350.7587895164874
 20
176.9319867537611
 30
0.0
  0
VERTEX
  5
426
  8
1
  6
CONTINUOUS
 62
     7
 10
-350.7487002255808
 20
176.6336057875154
 30
0.0
  0
VERTEX
  5
427
  8
1
  6
CONTINUOUS
 62
     7
 10
-350.7386109346741
 20
176.3433075927964
 30
0.0
  0
VERTEX
  5
428
  8
1
  6
CONTINUOUS
 62
     7
 10
-350.7285216437675
 20
176.061404878437
 30
0.0
  0
VERTEX
  5
429
  8
1
  6
CONTINUOUS
 62
     7
 10
-350.7184323528608
 20
175.7882103532707
 30
0.0
  0
VERTEX
  5
42A
  8
1
  6
CONTINUOUS
 62
     7
 10
-350.7083430619542
 20
175.5240356747301
 30
0.0
  0
VERTEX
  5
42B
  8
1
  6
CONTINUOUS
 62
     7
 10
-350.6982537710475
 20
175.26915051651
 30
0.0
  0
VERTEX
  5
42C
  8
1
  6
CONTINUOUS
 62
     7
 10
-350.6881644801408
 20
175.0237693626359
 30
0.0
  0
VERTEX
  5
42D
  8
1
  6
CONTINUOUS
 62
     7
 10
-350.6780751892343
 20
174.7881029424617
 30
0.0
  0
VERTEX
  5
42E
  8
1
  6
CONTINUOUS
 62
     7
 10
-350.6679858983276
 20
174.5623619853414
 30
0.0
  0
VERTEX
  5
42F
  8
1
  6
CONTINUOUS
 62
     7
 10
-350.6578966074209
 20
174.3467572206289
 30
0.0
  0
VERTEX
  5
430
  8
1
  6
CONTINUOUS
 62
     7
 10
-350.6478073165142
 20
174.1414993776783
 30
0.0
  0
VERTEX
  5
431
  8
1
  6
CONTINUOUS
 62
     7
 10
-350.6377180256076
 20
173.9467991858434
 30
0.0
  0
VERTEX
  5
432
  8
1
  6
CONTINUOUS
 62
     7
 10
-350.6276287347009
 20
173.7628673744783
 30
0.0
  0
VERTEX
  5
433
  8
1
  6
CONTINUOUS
 62
     7
 10
-350.6175394437943
 20
173.589914672937
 30
0.0
  0
VERTEX
  5
434
  8
1
  6
CONTINUOUS
 62
     7
 10
-350.6074501528877
 20
173.4281518105733
 30
0.0
  0
VERTEX
  5
435
  8
1
  6
CONTINUOUS
 62
     7
 10
-350.597360861981
 20
173.2777891463099
 30
0.0
  0
VERTEX
  5
436
  8
1
  6
CONTINUOUS
 62
     7
 10
-350.5872715710744
 20
173.1389959619469
 30
0.0
  0
VERTEX
  5
437
  8
1
  6
CONTINUOUS
 62
     7
 10
-350.5771822801677
 20
173.0118637003371
 30
0.0
  0
VERTEX
  5
438
  8
1
  6
CONTINUOUS
 62
     7
 10
-350.567092989261
 20
172.8964751259244
 30
0.0
  0
VERTEX
  5
439
  8
1
  6
CONTINUOUS
 62
     7
 10
-350.5570036983544
 20
172.7929130031527
 30
0.0
  0
VERTEX
  5
43A
  8
1
  6
CONTINUOUS
 62
     7
 10
-350.5469144074477
 20
172.7012600964662
 30
0.0
  0
VERTEX
  5
43B
  8
1
  6
CONTINUOUS
 62
     7
 10
-350.5368251165411
 20
172.6215991703086
 30
0.0
  0
VERTEX
  5
43C
  8
1
  6
CONTINUOUS
 62
     7
 10
-350.5267358256344
 20
172.5540129891241
 30
0.0
  0
VERTEX
  5
43D
  8
1
  6
CONTINUOUS
 62
     7
 10
-350.5166465347278
 20
172.4985843173565
 30
0.0
  0
VERTEX
  5
43E
  8
1
  6
CONTINUOUS
 62
     7
 10
-350.5065572438211
 20
172.4553959194499
 30
0.0
  0
VERTEX
  5
43F
  8
1
  6
CONTINUOUS
 62
     7
 10
-350.4964679529145
 20
172.4245305598483
 30
0.0
  0
VERTEX
  5
440
  8
1
  6
CONTINUOUS
 62
     7
 10
-350.4863786620078
 20
172.4060709607068
 30
0.0
  0
VERTEX
  5
441
  8
1
  6
CONTINUOUS
 62
     7
 10
-350.4762893711011
 20
172.4000674465036
 30
0.0
  0
SEQEND
  5
649
  8
1
  6
CONTINUOUS
 62
     7
  0
POLYLINE
  5
B7
  8
1
  6
CONTINUOUS
 62
     7
 66
     1
 10
0.0
 20
0.0
 30
0.0
  0
VERTEX
  5
442
  8
1
  6
CONTINUOUS
 62
     7
 10
-353.4465626455278
 20
196.9456718331905
 30
0.0
  0
VERTEX
  5
443
  8
1
  6
CONTINUOUS
 62
     7
 10
-353.4364561350355
 20
196.9031035300136
 30
0.0
  0
VERTEX
  5
444
  8
1
  6
CONTINUOUS
 62
     7
 10
-353.4263496245433
 20
196.8482483159531
 30
0.0
  0
VERTEX
  5
445
  8
1
  6
CONTINUOUS
 62
     7
 10
-353.416243114051
 20
196.781120157096
 30
0.0
  0
VERTEX
  5
446
  8
1
  6
CONTINUOUS
 62
     7
 10
-353.4061366035588
 20
196.7017335145268
 30
0.0
  0
VERTEX
  5
447
  8
1
  6
CONTINUOUS
 62
     7
 10
-353.3960300930664
 20
196.6101483128284
 30
0.0
  0
VERTEX
  5
448
  8
1
  6
CONTINUOUS
 62
     7
 10
-353.3859235825742
 20
196.5065059136461
 30
0.0
  0
VERTEX
  5
449
  8
1
  6
CONTINUOUS
 62
     7
 10
-353.3758170720819
 20
196.3909561439873
 30
0.0
  0
VERTEX
  5
44A
  8
1
  6
CONTINUOUS
 62
     7
 10
-353.3657105615896
 20
196.2636488308594
 30
0.0
  0
VERTEX
  5
44B
  8
1
  6
CONTINUOUS
 62
     7
 10
-353.3556040510973
 20
196.1247338012695
 30
0.0
  0
VERTEX
  5
44C
  8
1
  6
CONTINUOUS
 62
     7
 10
-353.345497540605
 20
195.9743608822251
 30
0.0
  0
VERTEX
  5
44D
  8
1
  6
CONTINUOUS
 62
     7
 10
-353.3353910301127
 20
195.8126799007335
 30
0.0
  0
VERTEX
  5
44E
  8
1
  6
CONTINUOUS
 62
     7
 10
-353.3252845196205
 20
195.639840683802
 30
0.0
  0
VERTEX
  5
44F
  8
1
  6
CONTINUOUS
 62
     7
 10
-353.3151780091281
 20
195.455993058438
 30
0.0
  0
VERTEX
  5
450
  8
1
  6
CONTINUOUS
 62
     7
 10
-353.3050714986359
 20
195.2612868516488
 30
0.0
  0
VERTEX
  5
451
  8
1
  6
CONTINUOUS
 62
     7
 10
-353.2949649881436
 20
195.0558719737258
 30
0.0
  0
VERTEX
  5
452
  8
1
  6
CONTINUOUS
 62
     7
 10
-353.2848584776514
 20
194.8399287032528
 30
0.0
  0
VERTEX
  5
453
  8
1
  6
CONTINUOUS
 62
     7
 10
-353.2747519671591
 20
194.6137127423438
 30
0.0
  0
VERTEX
  5
454
  8
1
  6
CONTINUOUS
 62
     7
 10
-353.2646454566668
 20
194.3774913034475
 30
0.0
  0
VERTEX
  5
455
  8
1
  6
CONTINUOUS
 62
     7
 10
-353.2545389461745
 20
194.1315315990131
 30
0.0
  0
VERTEX
  5
456
  8
1
  6
CONTINUOUS
 62
     7
 10
-353.2444324356822
 20
193.8761008414893
 30
0.0
  0
VERTEX
  5
457
  8
1
  6
CONTINUOUS
 62
     7
 10
-353.2343259251899
 20
193.6114662433252
 30
0.0
  0
VERTEX
  5
458
  8
1
  6
CONTINUOUS
 62
     7
 10
-353.2242194146976
 20
193.3378950169696
 30
0.0
  0
VERTEX
  5
459
  8
1
  6
CONTINUOUS
 62
     7
 10
-353.2141129042054
 20
193.0556543748716
 30
0.0
  0
VERTEX
  5
45A
  8
1
  6
CONTINUOUS
 62
     7
 10
-353.2040063937131
 20
192.7650115294799
 30
0.0
  0
VERTEX
  5
45B
  8
1
  6
CONTINUOUS
 62
     7
 10
-353.1938998832208
 20
192.4662336932436
 30
0.0
  0
VERTEX
  5
45C
  8
1
  6
CONTINUOUS
 62
     7
 10
-353.1837933727285
 20
192.1595880798539
 30
0.0
  0
VERTEX
  5
45D
  8
1
  6
CONTINUOUS
 62
     7
 10
-353.1736868622363
 20
191.8453579352948
 30
0.0
  0
VERTEX
  5
45E
  8
1
  6
CONTINUOUS
 62
     7
 10
-353.1635803517439
 20
191.5238826318169
 30
0.0
  0
VERTEX
  5
45F
  8
1
  6
CONTINUOUS
 62
     7
 10
-353.1534738412516
 20
191.1955138167896
 30
0.0
  0
VERTEX
  5
460
  8
1
  6
CONTINUOUS
 62
     7
 10
-353.1433673307594
 20
190.8606031375827
 30
0.0
  0
VERTEX
  5
461
  8
1
  6
CONTINUOUS
 62
     7
 10
-353.1332608202671
 20
190.5195022415656
 30
0.0
  0
VERTEX
  5
462
  8
1
  6
CONTINUOUS
 62
     7
 10
-353.1231543097748
 20
190.1725627761079
 30
0.0
  0
VERTEX
  5
463
  8
1
  6
CONTINUOUS
 62
     7
 10
-353.1130477992826
 20
189.820136388579
 30
0.0
  0
VERTEX
  5
464
  8
1
  6
CONTINUOUS
 62
     7
 10
-353.1029412887902
 20
189.4625747263484
 30
0.0
  0
VERTEX
  5
465
  8
1
  6
CONTINUOUS
 62
     7
 10
-353.092834778298
 20
189.1002294367858
 30
0.0
  0
VERTEX
  5
466
  8
1
  6
CONTINUOUS
 62
     7
 10
-353.0827282678057
 20
188.7334521672607
 30
0.0
  0
VERTEX
  5
467
  8
1
  6
CONTINUOUS
 62
     7
 10
-353.0726217573134
 20
188.3625945651425
 30
0.0
  0
VERTEX
  5
468
  8
1
  6
CONTINUOUS
 62
     7
 10
-353.0625152468212
 20
187.9880137306012
 30
0.0
  0
VERTEX
  5
469
  8
1
  6
CONTINUOUS
 62
     7
 10
-353.0524087363289
 20
187.610093934542
 30
0.0
  0
VERTEX
  5
46A
  8
1
  6
CONTINUOUS
 62
     7
 10
-353.0423022258366
 20
187.2292278942244
 30
0.0
  0
VERTEX
  5
46B
  8
1
  6
CONTINUOUS
 62
     7
 10
-353.0321957153443
 20
186.8458083295724
 30
0.0
  0
VERTEX
  5
46C
  8
1
  6
CONTINUOUS
 62
     7
 10
-353.022089204852
 20
186.4602279605101
 30
0.0
  0
VERTEX
  5
46D
  8
1
  6
CONTINUOUS
 62
     7
 10
-353.0119826943597
 20
186.0728795069615
 30
0.0
  0
VERTEX
  5
46E
  8
1
  6
CONTINUOUS
 62
     7
 10
-353.0018761838675
 20
185.6841556888507
 30
0.0
  0
VERTEX
  5
46F
  8
1
  6
CONTINUOUS
 62
     7
 10
-352.9917696733751
 20
185.2944492261017
 30
0.0
  0
VERTEX
  5
470
  8
1
  6
CONTINUOUS
 62
     7
 10
-352.9816631628829
 20
184.9041528386387
 30
0.0
  0
VERTEX
  5
471
  8
1
  6
CONTINUOUS
 62
     7
 10
-352.9715566523906
 20
184.5136592463854
 30
0.0
  0
VERTEX
  5
472
  8
1
  6
CONTINUOUS
 62
     7
 10
-352.9614501418984
 20
184.1233611692662
 30
0.0
  0
VERTEX
  5
473
  8
1
  6
CONTINUOUS
 62
     7
 10
-352.9513436314061
 20
183.7336506771266
 30
0.0
  0
VERTEX
  5
474
  8
1
  6
CONTINUOUS
 62
     7
 10
-352.9412371209138
 20
183.3449151783873
 30
0.0
  0
VERTEX
  5
475
  8
1
  6
CONTINUOUS
 62
     7
 10
-352.9311306104215
 20
182.9575400469005
 30
0.0
  0
VERTEX
  5
476
  8
1
  6
CONTINUOUS
 62
     7
 10
-352.9210240999292
 20
182.5719106480368
 30
0.0
  0
VERTEX
  5
477
  8
1
  6
CONTINUOUS
 62
     7
 10
-352.9109175894369
 20
182.1884123471669
 30
0.0
  0
VERTEX
  5
478
  8
1
  6
CONTINUOUS
 62
     7
 10
-352.9008110789446
 20
181.8074305096613
 30
0.0
  0
VERTEX
  5
479
  8
1
  6
CONTINUOUS
 62
     7
 10
-352.8907045684523
 20
181.4293505008907
 30
0.0
  0
VERTEX
  5
47A
  8
1
  6
CONTINUOUS
 62
     7
 10
-352.8805980579601
 20
181.0545576862258
 30
0.0
  0
VERTEX
  5
47B
  8
1
  6
CONTINUOUS
 62
     7
 10
-352.8704915474679
 20
180.6834374310372
 30
0.0
  0
VERTEX
  5
47C
  8
1
  6
CONTINUOUS
 62
     7
 10
-352.8603850369756
 20
180.3163751006955
 30
0.0
  0
VERTEX
  5
47D
  8
1
  6
CONTINUOUS
 62
     7
 10
-352.8502785264833
 20
179.9537560605714
 30
0.0
  0
VERTEX
  5
47E
  8
1
  6
CONTINUOUS
 62
     7
 10
-352.840172015991
 20
179.5959626466384
 30
0.0
  0
VERTEX
  5
47F
  8
1
  6
CONTINUOUS
 62
     7
 10
-352.8300655054987
 20
179.2433450182029
 30
0.0
  0
VERTEX
  5
480
  8
1
  6
CONTINUOUS
 62
     7
 10
-352.8199589950064
 20
178.8962339333558
 30
0.0
  0
VERTEX
  5
481
  8
1
  6
CONTINUOUS
 62
     7
 10
-352.8098524845141
 20
178.5549598827117
 30
0.0
  0
VERTEX
  5
482
  8
1
  6
CONTINUOUS
 62
     7
 10
-352.7997459740218
 20
178.219853356885
 30
0.0
  0
VERTEX
  5
483
  8
1
  6
CONTINUOUS
 62
     7
 10
-352.7896394635296
 20
177.8912448464904
 30
0.0
  0
VERTEX
  5
484
  8
1
  6
CONTINUOUS
 62
     7
 10
-352.7795329530373
 20
177.5694648421424
 30
0.0
  0
VERTEX
  5
485
  8
1
  6
CONTINUOUS
 62
     7
 10
-352.769426442545
 20
177.2548438344553
 30
0.0
  0
VERTEX
  5
486
  8
1
  6
CONTINUOUS
 62
     7
 10
-352.7593199320527
 20
176.9477123140439
 30
0.0
  0
VERTEX
  5
487
  8
1
  6
CONTINUOUS
 62
     7
 10
-352.7492134215604
 20
176.6484007715227
 30
0.0
  0
VERTEX
  5
488
  8
1
  6
CONTINUOUS
 62
     7
 10
-352.7391069110682
 20
176.3572396975061
 30
0.0
  0
VERTEX
  5
489
  8
1
  6
CONTINUOUS
 62
     7
 10
-352.7290004005758
 20
176.0745565627283
 30
0.0
  0
VERTEX
  5
48A
  8
1
  6
CONTINUOUS
 62
     7
 10
-352.7188938900835
 20
175.8006287235328
 30
0.0
  0
VERTEX
  5
48B
  8
1
  6
CONTINUOUS
 62
     7
 10
-352.7087873795913
 20
175.5356922713159
 30
0.0
  0
VERTEX
  5
48C
  8
1
  6
CONTINUOUS
 62
     7
 10
-352.698680869099
 20
175.2799820684533
 30
0.0
  0
VERTEX
  5
48D
  8
1
  6
CONTINUOUS
 62
     7
 10
-352.6885743586067
 20
175.0337329773204
 30
0.0
  0
VERTEX
  5
48E
  8
1
  6
CONTINUOUS
 62
     7
 10
-352.6784678481145
 20
174.7971798602931
 30
0.0
  0
VERTEX
  5
48F
  8
1
  6
CONTINUOUS
 62
     7
 10
-352.6683613376222
 20
174.5705575797469
 30
0.0
  0
VERTEX
  5
490
  8
1
  6
CONTINUOUS
 62
     7
 10
-352.6582548271299
 20
174.3541009980576
 30
0.0
  0
VERTEX
  5
491
  8
1
  6
CONTINUOUS
 62
     7
 10
-352.6481483166376
 20
174.1480449776006
 30
0.0
  0
VERTEX
  5
492
  8
1
  6
CONTINUOUS
 62
     7
 10
-352.6380418061453
 20
173.9526243807519
 30
0.0
  0
VERTEX
  5
493
  8
1
  6
CONTINUOUS
 62
     7
 10
-352.6279352956531
 20
173.7680740698869
 30
0.0
  0
VERTEX
  5
494
  8
1
  6
CONTINUOUS
 62
     7
 10
-352.6178287851608
 20
173.5946269278414
 30
0.0
  0
VERTEX
  5
495
  8
1
  6
CONTINUOUS
 62
     7
 10
-352.6077222746685
 20
173.4324595537329
 30
0.0
  0
VERTEX
  5
496
  8
1
  6
CONTINUOUS
 62
     7
 10
-352.5976157641762
 20
173.281685548178
 30
0.0
  0
VERTEX
  5
497
  8
1
  6
CONTINUOUS
 62
     7
 10
-352.5875092536839
 20
173.142415183947
 30
0.0
  0
VERTEX
  5
498
  8
1
  6
CONTINUOUS
 62
     7
 10
-352.5774027431916
 20
173.0147587338102
 30
0.0
  0
VERTEX
  5
499
  8
1
  6
CONTINUOUS
 62
     7
 10
-352.5672962326994
 20
172.8988264705382
 30
0.0
  0
VERTEX
  5
49A
  8
1
  6
CONTINUOUS
 62
     7
 10
-352.557189722207
 20
172.7947286669012
 30
0.0
  0
VERTEX
  5
49B
  8
1
  6
CONTINUOUS
 62
     7
 10
-352.5470832117148
 20
172.7025755956697
 30
0.0
  0
VERTEX
  5
49C
  8
1
  6
CONTINUOUS
 62
     7
 10
-352.5369767012224
 20
172.6224775296139
 30
0.0
  0
VERTEX
  5
49D
  8
1
  6
CONTINUOUS
 62
     7
 10
-352.5268701907302
 20
172.5545447415043
 30
0.0
  0
VERTEX
  5
49E
  8
1
  6
CONTINUOUS
 62
     7
 10
-352.5167636802379
 20
172.4988875041113
 30
0.0
  0
VERTEX
  5
49F
  8
1
  6
CONTINUOUS
 62
     7
 10
-352.5066571697457
 20
172.4556151907403
 30
0.0
  0
VERTEX
  5
4A0
  8
1
  6
CONTINUOUS
 62
     7
 10
-352.4965506592534
 20
172.4247854464909
 30
0.0
  0
VERTEX
  5
4A1
  8
1
  6
CONTINUOUS
 62
     7
 10
-352.4864441487611
 20
172.4063769997183
 30
0.0
  0
VERTEX
  5
4A2
  8
1
  6
CONTINUOUS
 62
     7
 10
-352.4763376382688
 20
172.4003619356239
 30
0.0
  0
SEQEND
  5
64A
  8
1
  6
CONTINUOUS
 62
     7
  0
POLYLINE
  5
B8
  8
1
  6
CONTINUOUS
 62
     7
 66
     1
 10
0.0
 20
0.0
 30
0.0
  0
VERTEX
  5
4A3
  8
1
  6
CONTINUOUS
 62
     7
 10
-355.4468311611957
 20
196.9469291995819
 30
0.0
  0
VERTEX
  5
4A4
  8
1
  6
CONTINUOUS
 62
     7
 10
-355.4367222766201
 20
196.9046516686104
 30
0.0
  0
VERTEX
  5
4A5
  8
1
  6
CONTINUOUS
 62
     7
 10
-355.4266133920445
 20
196.8499739225662
 30
0.0
  0
VERTEX
  5
4A6
  8
1
  6
CONTINUOUS
 62
     7
 10
-355.4165045074689
 20
196.7829484415922
 30
0.0
  0
VERTEX
  5
4A7
  8
1
  6
CONTINUOUS
 62
     7
 10
-355.4063956228933
 20
196.7036956454108
 30
0.0
  0
VERTEX
  5
4A8
  8
1
  6
CONTINUOUS
 62
     7
 10
-355.3962867383177
 20
196.6123392381307
 30
0.0
  0
VERTEX
  5
4A9
  8
1
  6
CONTINUOUS
 62
     7
 10
-355.386177853742
 20
196.5090029238607
 30
0.0
  0
VERTEX
  5
4AA
  8
1
  6
CONTINUOUS
 62
     7
 10
-355.3760689691664
 20
196.3938104067097
 30
0.0
  0
VERTEX
  5
4AB
  8
1
  6
CONTINUOUS
 62
     7
 10
-355.3659600845908
 20
196.2668853907865
 30
0.0
  0
VERTEX
  5
4AC
  8
1
  6
CONTINUOUS
 62
     7
 10
-355.3558512000153
 20
196.1283515801998
 30
0.0
  0
VERTEX
  5
4AD
  8
1
  6
CONTINUOUS
 62
     7
 10
-355.3457423154397
 20
195.9783326790584
 30
0.0
  0
VERTEX
  5
4AE
  8
1
  6
CONTINUOUS
 62
     7
 10
-355.3356334308641
 20
195.8169523914711
 30
0.0
  0
VERTEX
  5
4AF
  8
1
  6
CONTINUOUS
 62
     7
 10
-355.3255245462885
 20
195.6443344215468
 30
0.0
  0
VERTEX
  5
4B0
  8
1
  6
CONTINUOUS
 62
     7
 10
-355.3154156617128
 20
195.4606034411509
 30
0.0
  0
VERTEX
  5
4B1
  8
1
  6
CONTINUOUS
 62
     7
 10
-355.3053067771373
 20
195.2659318014747
 30
0.0
  0
VERTEX
  5
4B2
  8
1
  6
CONTINUOUS
 62
     7
 10
-355.2951978925617
 20
195.0605603330636
 30
0.0
  0
VERTEX
  5
4B3
  8
1
  6
CONTINUOUS
 62
     7
 10
-355.2850890079861
 20
194.8447351659065
 30
0.0
  0
VERTEX
  5
4B4
  8
1
  6
CONTINUOUS
 62
     7
 10
-355.2749801234105
 20
194.6187024299925
 30
0.0
  0
VERTEX
  5
4B5
  8
1
  6
CONTINUOUS
 62
     7
 10
-355.2648712388349
 20
194.3827082553105
 30
0.0
  0
VERTEX
  5
4B6
  8
1
  6
CONTINUOUS
 62
     7
 10
-355.2547623542592
 20
194.1369987718496
 30
0.0
  0
VERTEX
  5
4B7
  8
1
  6
CONTINUOUS
 62
     7
 10
-355.2446534696836
 20
193.8818201095986
 30
0.0
  0
VERTEX
  5
4B8
  8
1
  6
CONTINUOUS
 62
     7
 10
-355.234544585108
 20
193.6174183985464
 30
0.0
  0
VERTEX
  5
4B9
  8
1
  6
CONTINUOUS
 62
     7
 10
-355.2244357005325
 20
193.3440397686823
 30
0.0
  0
VERTEX
  5
4BA
  8
1
  6
CONTINUOUS
 62
     7
 10
-355.2143268159568
 20
193.0619303499949
 30
0.0
  0
VERTEX
  5
4BB
  8
1
  6
CONTINUOUS
 62
     7
 10
-355.2042179313813
 20
192.7713365038548
 30
0.0
  0
VERTEX
  5
4BC
  8
1
  6
CONTINUOUS
 62
     7
 10
-355.1941090468057
 20
192.4725334265269
 30
0.0
  0
VERTEX
  5
4BD
  8
1
  6
CONTINUOUS
 62
     7
 10
-355.1840001622301
 20
192.1658527722727
 30
0.0
  0
VERTEX
  5
4BE
  8
1
  6
CONTINUOUS
 62
     7
 10
-355.1738912776545
 20
191.8516327461623
 30
0.0
  0
VERTEX
  5
4BF
  8
1
  6
CONTINUOUS
 62
     7
 10
-355.1637823930789
 20
191.5302115532656
 30
0.0
  0
VERTEX
  5
4C0
  8
1
  6
CONTINUOUS
 62
     7
 10
-355.1536735085033
 20
191.2019273986526
 30
0.0
  0
VERTEX
  5
4C1
  8
1
  6
CONTINUOUS
 62
     7
 10
-355.1435646239277
 20
190.8671184873933
 30
0.0
  0
VERTEX
  5
4C2
  8
1
  6
CONTINUOUS
 62
     7
 10
-355.1334557393521
 20
190.5261230245577
 30
0.0
  0
VERTEX
  5
4C3
  8
1
  6
CONTINUOUS
 62
     7
 10
-355.1233468547765
 20
190.1792792152157
 30
0.0
  0
VERTEX
  5
4C4
  8
1
  6
CONTINUOUS
 62
     7
 10
-355.1132379702009
 20
189.8269252644374
 30
0.0
  0
VERTEX
  5
4C5
  8
1
  6
CONTINUOUS
 62
     7
 10
-355.1031290856253
 20
189.4693993772929
 30
0.0
  0
VERTEX
  5
4C6
  8
1
  6
CONTINUOUS
 62
     7
 10
-355.0930202010496
 20
189.1070397782113
 30
0.0
  0
VERTEX
  5
4C7
  8
1
  6
CONTINUOUS
 62
     7
 10
-355.0829113164741
 20
188.7401967955604
 30
0.0
  0
VERTEX
  5
4C8
  8
1
  6
CONTINUOUS
 62
     7
 10
-355.0728024318985
 20
188.369253516797
 30
0.0
  0
VERTEX
  5
4C9
  8
1
  6
CONTINUOUS
 62
     7
 10
-355.0626935473229
 20
187.9945985173041
 30
0.0
  0
VERTEX
  5
4CA
  8
1
  6
CONTINUOUS
 62
     7
 10
-355.0525846627473
 20
187.6166203724641
 30
0.0
  0
VERTEX
  5
4CB
  8
1
  6
CONTINUOUS
 62
     7
 10
-355.0424757781717
 20
187.23570765766
 30
0.0
  0
VERTEX
  5
4CC
  8
1
  6
CONTINUOUS
 62
     7
 10
-355.0323668935962
 20
186.8522489482744
 30
0.0
  0
VERTEX
  5
4CD
  8
1
  6
CONTINUOUS
 62
     7
 10
-355.0222580090205
 20
186.4666328196901
 30
0.0
  0
VERTEX
  5
4CE
  8
1
  6
CONTINUOUS
 62
     7
 10
-355.0121491244449
 20
186.0792478472899
 30
0.0
  0
VERTEX
  5
4CF
  8
1
  6
CONTINUOUS
 62
     7
 10
-355.0020402398693
 20
185.6904826064565
 30
0.0
  0
VERTEX
  5
4D0
  8
1
  6
CONTINUOUS
 62
     7
 10
-354.9919313552937
 20
185.3007256725726
 30
0.0
  0
VERTEX
  5
4D1
  8
1
  6
CONTINUOUS
 62
     7
 10
-354.9818224707182
 20
184.9103656210231
 30
0.0
  0
VERTEX
  5
4D2
  8
1
  6
CONTINUOUS
 62
     7
 10
-354.9717135861425
 20
184.5197914576842
 30
0.0
  0
VERTEX
  5
4D3
  8
1
  6
CONTINUOUS
 62
     7
 10
-354.961604701567
 20
184.1293938238978
 30
0.0
  0
VERTEX
  5
4D4
  8
1
  6
CONTINUOUS
 62
     7
 10
-354.9514958169912
 20
183.7395637493238
 30
0.0
  0
VERTEX
  5
4D5
  8
1
  6
CONTINUOUS
 62
     7
 10
-354.9413869324157
 20
183.3506922636214
 30
0.0
  0
VERTEX
  5
4D6
  8
1
  6
CONTINUOUS
 62
     7
 10
-354.9312780478401
 20
182.9631703964505
 30
0.0
  0
VERTEX
  5
4D7
  8
1
  6
CONTINUOUS
 62
     7
 10
-354.9211691632644
 20
182.5773891774704
 30
0.0
  0
VERTEX
  5
4D8
  8
1
  6
CONTINUOUS
 62
     7
 10
-354.9110602786889
 20
182.1937396363408
 30
0.0
  0
VERTEX
  5
4D9
  8
1
  6
CONTINUOUS
 62
     7
 10
-354.9009513941132
 20
181.8126128027211
 30
0.0
  0
VERTEX
  5
4DA
  8
1
  6
CONTINUOUS
 62
     7
 10
-354.8908425095377
 20
181.4343997062711
 30
0.0
  0
VERTEX
  5
4DB
  8
1
  6
CONTINUOUS
 62
     7
 10
-354.880733624962
 20
181.0594913766501
 30
0.0
  0
VERTEX
  5
4DC
  8
1
  6
CONTINUOUS
 62
     7
 10
-354.8706247403865
 20
180.6882788435179
 30
0.0
  0
VERTEX
  5
4DD
  8
1
  6
CONTINUOUS
 62
     7
 10
-354.8605158558109
 20
180.3211475342602
 30
0.0
  0
VERTEX
  5
4DE
  8
1
  6
CONTINUOUS
 62
     7
 10
-354.8504069712353
 20
179.9584527825311
 30
0.0
  0
VERTEX
  5
4DF
  8
1
  6
CONTINUOUS
 62
     7
 10
-354.8402980866597
 20
179.6005398607119
 30
0.0
  0
VERTEX
  5
4E0
  8
1
  6
CONTINUOUS
 62
     7
 10
-354.8301892020841
 20
179.2477540340612
 30
0.0
  0
VERTEX
  5
4E1
  8
1
  6
CONTINUOUS
 62
     7
 10
-354.8200803175085
 20
178.9004405678373
 30
0.0
  0
VERTEX
  5
4E2
  8
1
  6
CONTINUOUS
 62
     7
 10
-354.8099714329329
 20
178.5589447272988
 30
0.0
  0
VERTEX
  5
4E3
  8
1
  6
CONTINUOUS
 62
     7
 10
-354.7998625483573
 20
178.2236117777041
 30
0.0
  0
VERTEX
  5
4E4
  8
1
  6
CONTINUOUS
 62
     7
 10
-354.7897536637817
 20
177.8947869843117
 30
0.0
  0
VERTEX
  5
4E5
  8
1
  6
CONTINUOUS
 62
     7
 10
-354.7796447792061
 20
177.57281561238
 30
0.0
  0
VERTEX
  5
4E6
  8
1
  6
CONTINUOUS
 62
     7
 10
-354.7695358946305
 20
177.2580429271675
 30
0.0
  0
VERTEX
  5
4E7
  8
1
  6
CONTINUOUS
 62
     7
 10
-354.7594270100549
 20
176.9508141939327
 30
0.0
  0
VERTEX
  5
4E8
  8
1
  6
CONTINUOUS
 62
     7
 10
-354.7493181254793
 20
176.6514674922844
 30
0.0
  0
VERTEX
  5
4E9
  8
1
  6
CONTINUOUS
 62
     7
 10
-354.7392092409037
 20
176.3602855794456
 30
0.0
  0
VERTEX
  5
4EA
  8
1
  6
CONTINUOUS
 62
     7
 10
-354.7291003563281
 20
176.0775255225302
 30
0.0
  0
VERTEX
  5
4EB
  8
1
  6
CONTINUOUS
 62
     7
 10
-354.7189914717525
 20
175.8034442470207
 30
0.0
  0
VERTEX
  5
4EC
  8
1
  6
CONTINUOUS
 62
     7
 10
-354.708882587177
 20
175.5382986783998
 30
0.0
  0
VERTEX
  5
4ED
  8
1
  6
CONTINUOUS
 62
     7
 10
-354.6987737026013
 20
175.2823457421501
 30
0.0
  0
VERTEX
  5
4EE
  8
1
  6
CONTINUOUS
 62
     7
 10
-354.6886648180257
 20
175.0358423637542
 30
0.0
  0
VERTEX
  5
4EF
  8
1
  6
CONTINUOUS
 62
     7
 10
-354.6785559334501
 20
174.7990454686948
 30
0.0
  0
VERTEX
  5
4F0
  8
1
  6
CONTINUOUS
 62
     7
 10
-354.6684470488744
 20
174.5722119824545
 30
0.0
  0
VERTEX
  5
4F1
  8
1
  6
CONTINUOUS
 62
     7
 10
-354.6583381642989
 20
174.3555988305158
 30
0.0
  0
VERTEX
  5
4F2
  8
1
  6
CONTINUOUS
 62
     7
 10
-354.6482292797232
 20
174.1494629383616
 30
0.0
  0
VERTEX
  5
4F3
  8
1
  6
CONTINUOUS
 62
     7
 10
-354.6381203951476
 20
173.9540551504074
 30
0.0
  0
VERTEX
  5
4F4
  8
1
  6
CONTINUOUS
 62
     7
 10
-354.6280115105721
 20
173.7695570679656
 30
0.0
  0
VERTEX
  5
4F5
  8
1
  6
CONTINUOUS
 62
     7
 10
-354.6179026259964
 20
173.5961062980695
 30
0.0
  0
VERTEX
  5
4F6
  8
1
  6
CONTINUOUS
 62
     7
 10
-354.6077937414209
 20
173.4338397444119
 30
0.0
  0
VERTEX
  5
4F7
  8
1
  6
CONTINUOUS
 62
     7
 10
-354.5976848568453
 20
173.2828943106859
 30
0.0
  0
VERTEX
  5
4F8
  8
1
  6
CONTINUOUS
 62
     7
 10
-354.5875759722697
 20
173.1434069005842
 30
0.0
  0
VERTEX
  5
4F9
  8
1
  6
CONTINUOUS
 62
     7
 10
-354.5774670876941
 20
173.0155144178
 30
0.0
  0
VERTEX
  5
4FA
  8
1
  6
CONTINUOUS
 62
     7
 10
-354.5673582031184
 20
172.8993537660261
 30
0.0
  0
VERTEX
  5
4FB
  8
1
  6
CONTINUOUS
 62
     7
 10
-354.5572493185429
 20
172.7950618489555
 30
0.0
  0
VERTEX
  5
4FC
  8
1
  6
CONTINUOUS
 62
     7
 10
-354.5471404339673
 20
172.7027755702811
 30
0.0
  0
VERTEX
  5
4FD
  8
1
  6
CONTINUOUS
 62
     7
 10
-354.5370315493917
 20
172.6226318336959
 30
0.0
  0
VERTEX
  5
4FE
  8
1
  6
CONTINUOUS
 62
     7
 10
-354.526922664816
 20
172.5547635900254
 30
0.0
  0
VERTEX
  5
4FF
  8
1
  6
CONTINUOUS
 62
     7
 10
-354.5168137802405
 20
172.499233399605
 30
0.0
  0
VERTEX
  5
500
  8
1
  6
CONTINUOUS
 62
     7
 10
-354.5067048956649
 20
172.4560432399406
 30
0.0
  0
VERTEX
  5
501
  8
1
  6
CONTINUOUS
 62
     7
 10
-354.4965960110893
 20
172.4251931110572
 30
0.0
  0
VERTEX
  5
502
  8
1
  6
CONTINUOUS
 62
     7
 10
-354.4864871265137
 20
172.4066830129798
 30
0.0
  0
VERTEX
  5
503
  8
1
  6
CONTINUOUS
 62
     7
 10
-354.4763782419381
 20
172.4005129457337
 30
0.0
  0
SEQEND
  5
64B
  8
1
  6
CONTINUOUS
 62
     7
  0
POLYLINE
  5
B9
  8
1
  6
CONTINUOUS
 62
     7
 66
     1
 10
0.0
 20
0.0
 30
0.0
  0
VERTEX
  5
504
  8
1
  6
CONTINUOUS
 62
     7
 10
-357.4458065788195
 20
196.9432799505352
 30
0.0
  0
VERTEX
  5
505
  8
1
  6
CONTINUOUS
 62
     7
 10
-357.4347908090764
 20
196.8950163561815
 30
0.0
  0
VERTEX
  5
506
  8
1
  6
CONTINUOUS
 62
     7
 10
-357.4237750393333
 20
196.8321226686755
 30
0.0
  0
VERTEX
  5
507
  8
1
  6
CONTINUOUS
 62
     7
 10
-357.4127592695903
 20
196.7547242241284
 30
0.0
  0
VERTEX
  5
508
  8
1
  6
CONTINUOUS
 62
     7
 10
-357.4017434998471
 20
196.6629463586507
 30
0.0
  0
VERTEX
  5
509
  8
1
  6
CONTINUOUS
 62
     7
 10
-357.390727730104
 20
196.5569144083536
 30
0.0
  0
VERTEX
  5
50A
  8
1
  6
CONTINUOUS
 62
     7
 10
-357.3797119603609
 20
196.4367537093477
 30
0.0
  0
VERTEX
  5
50B
  8
1
  6
CONTINUOUS
 62
     7
 10
-357.3686961906178
 20
196.3025895977441
 30
0.0
  0
VERTEX
  5
50C
  8
1
  6
CONTINUOUS
 62
     7
 10
-357.3576804208747
 20
196.1545474096535
 30
0.0
  0
VERTEX
  5
50D
  8
1
  6
CONTINUOUS
 62
     7
 10
-357.3466646511317
 20
195.9927524811868
 30
0.0
  0
VERTEX
  5
50E
  8
1
  6
CONTINUOUS
 62
     7
 10
-357.3356488813886
 20
195.8173343446468
 30
0.0
  0
VERTEX
  5
50F
  8
1
  6
CONTINUOUS
 62
     7
 10
-357.3246331116455
 20
195.628504712168
 30
0.0
  0
VERTEX
  5
510
  8
1
  6
CONTINUOUS
 62
     7
 10
-357.3136173419023
 20
195.4265502233479
 30
0.0
  0
VERTEX
  5
511
  8
1
  6
CONTINUOUS
 62
     7
 10
-357.3026015721592
 20
195.2117602596192
 30
0.0
  0
VERTEX
  5
512
  8
1
  6
CONTINUOUS
 62
     7
 10
-357.2915858024162
 20
194.9844242024149
 30
0.0
  0
VERTEX
  5
513
  8
1
  6
CONTINUOUS
 62
     7
 10
-357.2805700326731
 20
194.7448314331677
 30
0.0
  0
VERTEX
  5
514
  8
1
  6
CONTINUOUS
 62
     7
 10
-357.26955426293
 20
194.4932713333104
 30
0.0
  0
VERTEX
  5
515
  8
1
  6
CONTINUOUS
 62
     7
 10
-357.2585384931869
 20
194.2300332842761
 30
0.0
  0
VERTEX
  5
516
  8
1
  6
CONTINUOUS
 62
     7
 10
-357.2475227234437
 20
193.9554066674974
 30
0.0
  0
VERTEX
  5
517
  8
1
  6
CONTINUOUS
 62
     7
 10
-357.2365069537007
 20
193.6696808644074
 30
0.0
  0
VERTEX
  5
518
  8
1
  6
CONTINUOUS
 62
     7
 10
-357.2254911839576
 20
193.3731460644961
 30
0.0
  0
VERTEX
  5
519
  8
1
  6
CONTINUOUS
 62
     7
 10
-357.2144754142145
 20
193.066140185627
 30
0.0
  0
VERTEX
  5
51A
  8
1
  6
CONTINUOUS
 62
     7
 10
-357.2034596444714
 20
192.7490746937153
 30
0.0
  0
VERTEX
  5
51B
  8
1
  6
CONTINUOUS
 62
     7
 10
-357.1924438747283
 20
192.4223673312916
 30
0.0
  0
VERTEX
  5
51C
  8
1
  6
CONTINUOUS
 62
     7
 10
-357.1814281049852
 20
192.0864358408862
 30
0.0
  0
VERTEX
  5
51D
  8
1
  6
CONTINUOUS
 62
     7
 10
-357.1704123352421
 20
191.7416979650297
 30
0.0
  0
VERTEX
  5
51E
  8
1
  6
CONTINUOUS
 62
     7
 10
-357.159396565499
 20
191.3885714462526
 30
0.0
  0
VERTEX
  5
51F
  8
1
  6
CONTINUOUS
 62
     7
 10
-357.1483807957558
 20
191.0274740270854
 30
0.0
  0
VERTEX
  5
520
  8
1
  6
CONTINUOUS
 62
     7
 10
-357.1373650260127
 20
190.6588234500585
 30
0.0
  0
VERTEX
  5
521
  8
1
  6
CONTINUOUS
 62
     7
 10
-357.1263492562697
 20
190.2830374577025
 30
0.0
  0
VERTEX
  5
522
  8
1
  6
CONTINUOUS
 62
     7
 10
-357.1153334865266
 20
189.9005338245102
 30
0.0
  0
VERTEX
  5
523
  8
1
  6
CONTINUOUS
 62
     7
 10
-357.1043177167834
 20
189.5117489559154
 30
0.0
  0
VERTEX
  5
524
  8
1
  6
CONTINUOUS
 62
     7
 10
-357.0933019470403
 20
189.1171691716471
 30
0.0
  0
VERTEX
  5
525
  8
1
  6
CONTINUOUS
 62
     7
 10
-357.0822861772972
 20
188.7172890626362
 30
0.0
  0
VERTEX
  5
526
  8
1
  6
CONTINUOUS
 62
     7
 10
-357.0712704075542
 20
188.3126032198134
 30
0.0
  0
VERTEX
  5
527
  8
1
  6
CONTINUOUS
 62
     7
 10
-357.0602546378111
 20
187.9036062341094
 30
0.0
  0
VERTEX
  5
528
  8
1
  6
CONTINUOUS
 62
     7
 10
-357.049238868068
 20
187.4907926964549
 30
0.0
  0
VERTEX
  5
529
  8
1
  6
CONTINUOUS
 62
     7
 10
-357.0382230983249
 20
187.0746571977806
 30
0.0
  0
VERTEX
  5
52A
  8
1
  6
CONTINUOUS
 62
     7
 10
-357.0272073285818
 20
186.6556943290173
 30
0.0
  0
VERTEX
  5
52B
  8
1
  6
CONTINUOUS
 62
     7
 10
-357.0161915588387
 20
186.2343986810957
 30
0.0
  0
VERTEX
  5
52C
  8
1
  6
CONTINUOUS
 62
     7
 10
-357.0051757890956
 20
185.8112648449465
 30
0.0
  0
VERTEX
  5
52D
  8
1
  6
CONTINUOUS
 62
     7
 10
-356.9941600193525
 20
185.3867895773307
 30
0.0
  0
VERTEX
  5
52E
  8
1
  6
CONTINUOUS
 62
     7
 10
-356.9831442496094
 20
184.9614801445699
 30
0.0
  0
VERTEX
  5
52F
  8
1
  6
CONTINUOUS
 62
     7
 10
-356.9721284798663
 20
184.5358469962613
 30
0.0
  0
VERTEX
  5
530
  8
1
  6
CONTINUOUS
 62
     7
 10
-356.9611127101232
 20
184.1104005827029
 30
0.0
  0
VERTEX
  5
531
  8
1
  6
CONTINUOUS
 62
     7
 10
-356.9500969403801
 20
183.6856513541927
 30
0.0
  0
VERTEX
  5
532
  8
1
  6
CONTINUOUS
 62
     7
 10
-356.939081170637
 20
183.2621097610288
 30
0.0
  0
VERTEX
  5
533
  8
1
  6
CONTINUOUS
 62
     7
 10
-356.928065400894
 20
182.8402862535093
 30
0.0
  0
VERTEX
  5
534
  8
1
  6
CONTINUOUS
 62
     7
 10
-356.9170496311508
 20
182.420691281932
 30
0.0
  0
VERTEX
  5
535
  8
1
  6
CONTINUOUS
 62
     7
 10
-356.9060338614078
 20
182.0038352965952
 30
0.0
  0
VERTEX
  5
536
  8
1
  6
CONTINUOUS
 62
     7
 10
-356.8950180916646
 20
181.5902287477967
 30
0.0
  0
VERTEX
  5
537
  8
1
  6
CONTINUOUS
 62
     7
 10
-356.8840023219215
 20
181.1803789586951
 30
0.0
  0
VERTEX
  5
538
  8
1
  6
CONTINUOUS
 62
     7
 10
-356.8729865521784
 20
180.7747647132002
 30
0.0
  0
VERTEX
  5
539
  8
1
  6
CONTINUOUS
 62
     7
 10
-356.8619707824353
 20
180.3738495208901
 30
0.0
  0
VERTEX
  5
53A
  8
1
  6
CONTINUOUS
 62
     7
 10
-356.8509550126922
 20
179.9780967467457
 30
0.0
  0
VERTEX
  5
53B
  8
1
  6
CONTINUOUS
 62
     7
 10
-356.8399392429491
 20
179.5879697557481
 30
0.0
  0
VERTEX
  5
53C
  8
1
  6
CONTINUOUS
 62
     7
 10
-356.828923473206
 20
179.2039319128783
 30
0.0
  0
VERTEX
  5
53D
  8
1
  6
CONTINUOUS
 62
     7
 10
-356.8179077034629
 20
178.826446583117
 30
0.0
  0
VERTEX
  5
53E
  8
1
  6
CONTINUOUS
 62
     7
 10
-356.8068919337198
 20
178.4559771314454
 30
0.0
  0
VERTEX
  5
53F
  8
1
  6
CONTINUOUS
 62
     7
 10
-356.7958761639767
 20
178.0929869228443
 30
0.0
  0
VERTEX
  5
540
  8
1
  6
CONTINUOUS
 62
     7
 10
-356.7848603942337
 20
177.7379393222946
 30
0.0
  0
VERTEX
  5
541
  8
1
  6
CONTINUOUS
 62
     7
 10
-356.7738446244906
 20
177.3912950199581
 30
0.0
  0
VERTEX
  5
542
  8
1
  6
CONTINUOUS
 62
     7
 10
-356.7628288547475
 20
177.0534624569884
 30
0.0
  0
VERTEX
  5
543
  8
1
  6
CONTINUOUS
 62
     7
 10
-356.7518130850044
 20
176.7248025099056
 30
0.0
  0
VERTEX
  5
544
  8
1
  6
CONTINUOUS
 62
     7
 10
-356.7407973152613
 20
176.4056743198772
 30
0.0
  0
VERTEX
  5
545
  8
1
  6
CONTINUOUS
 62
     7
 10
-356.7297815455181
 20
176.0964370280706
 30
0.0
  0
VERTEX
  5
546
  8
1
  6
CONTINUOUS
 62
     7
 10
-356.718765775775
 20
175.7974497756536
 30
0.0
  0
VERTEX
  5
547
  8
1
  6
CONTINUOUS
 62
     7
 10
-356.7077500060319
 20
175.5090717037936
 30
0.0
  0
VERTEX
  5
548
  8
1
  6
CONTINUOUS
 62
     7
 10
-356.6967342362889
 20
175.2316619536579
 30
0.0
  0
VERTEX
  5
549
  8
1
  6
CONTINUOUS
 62
     7
 10
-356.6857184665458
 20
174.9655796664144
 30
0.0
  0
VERTEX
  5
54A
  8
1
  6
CONTINUOUS
 62
     7
 10
-356.6747026968027
 20
174.7111839832304
 30
0.0
  0
VERTEX
  5
54B
  8
1
  6
CONTINUOUS
 62
     7
 10
-356.6636869270596
 20
174.4688331054291
 30
0.0
  0
VERTEX
  5
54C
  8
1
  6
CONTINUOUS
 62
     7
 10
-356.6526711573165
 20
174.238829955464
 30
0.0
  0
VERTEX
  5
54D
  8
1
  6
CONTINUOUS
 62
     7
 10
-356.6416553875733
 20
174.0213924067774
 30
0.0
  0
VERTEX
  5
54E
  8
1
  6
CONTINUOUS
 62
     7
 10
-356.6306396178302
 20
173.8167310902817
 30
0.0
  0
VERTEX
  5
54F
  8
1
  6
CONTINUOUS
 62
     7
 10
-356.6196238480872
 20
173.6250566368891
 30
0.0
  0
VERTEX
  5
550
  8
1
  6
CONTINUOUS
 62
     7
 10
-356.6086080783441
 20
173.446579677512
 30
0.0
  0
VERTEX
  5
551
  8
1
  6
CONTINUOUS
 62
     7
 10
-356.597592308601
 20
173.2815108430624
 30
0.0
  0
VERTEX
  5
552
  8
1
  6
CONTINUOUS
 62
     7
 10
-356.5865765388579
 20
173.1300607644528
 30
0.0
  0
VERTEX
  5
553
  8
1
  6
CONTINUOUS
 62
     7
 10
-356.5755607691147
 20
172.9924400725953
 30
0.0
  0
VERTEX
  5
554
  8
1
  6
CONTINUOUS
 62
     7
 10
-356.5645449993716
 20
172.8688593984023
 30
0.0
  0
VERTEX
  5
555
  8
1
  6
CONTINUOUS
 62
     7
 10
-356.5535292296286
 20
172.7595292992636
 30
0.0
  0
VERTEX
  5
556
  8
1
  6
CONTINUOUS
 62
     7
 10
-356.5425134598855
 20
172.6646179685297
 30
0.0
  0
VERTEX
  5
557
  8
1
  6
CONTINUOUS
 62
     7
 10
-356.5314976901424
 20
172.5841802947523
 30
0.0
  0
VERTEX
  5
558
  8
1
  6
CONTINUOUS
 62
     7
 10
-356.5204819203992
 20
172.5182524252538
 30
0.0
  0
VERTEX
  5
559
  8
1
  6
CONTINUOUS
 62
     7
 10
-356.5094661506561
 20
172.466870507357
 30
0.0
  0
VERTEX
  5
55A
  8
1
  6
CONTINUOUS
 62
     7
 10
-356.498450380913
 20
172.4300706883843
 30
0.0
  0
VERTEX
  5
55B
  8
1
  6
CONTINUOUS
 62
     7
 10
-356.4874346111699
 20
172.4078891156583
 30
0.0
  0
VERTEX
  5
55C
  8
1
  6
CONTINUOUS
 62
     7
 10
-356.4764188414268
 20
172.4003619365016
 30
0.0
  0
SEQEND
  5
64C
  8
1
  6
CONTINUOUS
 62
     7
  0
LINE
  5
BA
  8
1
  6
CONTINUOUS
 62
     7
 10
-357.0735975666417
 20
195.0013183240085
 30
0.0
 11
-357.1751906812821
 21
195.9384495423594
 31
0.0
  0
LINE
  5
BB
  8
1
  6
CONTINUOUS
 62
     7
 10
-356.9612380160797
 20
192.7605076456156
 30
0.0
 11
-357.0735975666417
 21
195.0013183240085
 31
0.0
  0
LINE
  5
BC
  8
1
  6
CONTINUOUS
 62
     7
 10
-356.848878465518
 20
189.5257390603868
 30
0.0
 11
-356.9612380160797
 21
192.7605076456156
 31
0.0
  0
LINE
  5
BD
  8
1
  6
CONTINUOUS
 62
     7
 10
-356.7365189149563
 20
185.6958985880919
 30
0.0
 11
-356.848878465518
 21
189.5257390603868
 31
0.0
  0
LINE
  5
BE
  8
1
  6
CONTINUOUS
 62
     7
 10
-356.6241593643945
 20
181.7432517964414
 30
0.0
 11
-356.7365189149563
 21
185.6958985880919
 31
0.0
  0
LINE
  5
BF
  8
1
  6
CONTINUOUS
 62
     7
 10
-356.5117998138326
 20
178.1552077549762
 30
0.0
 11
-356.6241593643945
 21
181.7432517964414
 31
0.0
  0
LINE
  5
C0
  8
1
  6
CONTINUOUS
 62
     7
 10
-356.3994402632708
 20
175.3742156122951
 30
0.0
 11
-356.5117998138326
 21
178.1552077549762
 31
0.0
  0
LINE
  5
C1
  8
1
  6
CONTINUOUS
 62
     7
 10
-356.287080712709
 20
173.7432052743797
 30
0.0
 11
-356.3994402632708
 21
175.3742156122951
 31
0.0
  0
LINE
  5
C2
  8
1
  6
CONTINUOUS
 62
     7
 10
-355.1634852070911
 20
195.8875483713215
 30
0.0
 11
-355.1762345174545
 21
195.9422515305034
 31
0.0
  0
LINE
  5
C3
  8
1
  6
CONTINUOUS
 62
     7
 10
-355.0511256565293
 20
194.6480287130116
 30
0.0
 11
-355.1634852070911
 21
195.8875483713215
 31
0.0
  0
LINE
  5
C4
  8
1
  6
CONTINUOUS
 62
     7
 10
-354.9387661059675
 20
192.1817970122992
 30
0.0
 11
-355.0511256565293
 21
194.6480287130116
 31
0.0
  0
LINE
  5
C5
  8
1
  6
CONTINUOUS
 62
     7
 10
-354.8264065554057
 20
188.7929694125818
 30
0.0
 11
-354.9387661059675
 21
192.1817970122992
 31
0.0
  0
LINE
  5
C6
  8
1
  6
CONTINUOUS
 62
     7
 10
-354.4893279037203
 20
177.5217258760552
 30
0.0
 11
-354.6016874542821
 21
180.9812970908455
 31
0.0
  0
LINE
  5
C7
  8
1
  6
CONTINUOUS
 62
     7
 10
-354.3769683531585
 20
174.9473225237171
 30
0.0
 11
-354.4893279037203
 21
177.5217258760552
 31
0.0
  0
LINE
  5
C8
  8
1
  6
CONTINUOUS
 62
     7
 10
-354.2646088025967
 20
173.5755420478259
 30
0.0
 11
-354.3769683531585
 21
174.9473225237171
 31
0.0
  0
LINE
  5
C9
  8
1
  6
CONTINUOUS
 62
     7
 10
-353.1410132969788
 20
195.7475088536976
 30
0.0
 11
-353.1760898034149
 21
195.9417316529485
 31
0.0
  0
LINE
  5
CA
  8
1
  6
CONTINUOUS
 62
     7
 10
-353.0286537464169
 20
194.2451785233677
 30
0.0
 11
-353.1410132969788
 21
195.7475088536976
 31
0.0
  0
LINE
  5
CB
  8
1
  6
CONTINUOUS
 62
     7
 10
-352.9162941958551
 20
191.5658124426103
 30
0.0
 11
-353.0286537464169
 21
194.2451785233677
 31
0.0
  0
LINE
  5
CC
  8
1
  6
CONTINUOUS
 62
     7
 10
-352.8039816905736
 20
188.0414041037904
 30
0.0
 11
-352.9162941958551
 21
191.5658124426103
 31
0.0
  0
LINE
  5
CD
  8
1
  6
CONTINUOUS
 62
     7
 10
-352.5792155441697
 20
180.2378687760877
 30
0.0
 11
-352.6915750947315
 21
184.1019664054463
 31
0.0
  0
LINE
  5
CE
  8
1
  6
CONTINUOUS
 62
     7
 10
-352.4668559936079
 20
176.9240057977415
 30
0.0
 11
-352.5792155441697
 21
180.2378687760877
 31
0.0
  0
LINE
  5
CF
  8
1
  6
CONTINUOUS
 62
     7
 10
-352.3544964430461
 20
174.5690167837492
 30
0.0
 11
-352.4668559936079
 21
176.9240057977415
 31
0.0
  0
LINE
  5
D0
  8
1
  6
CONTINUOUS
 62
     7
 10
-352.2421368924843
 20
173.4633003112122
 30
0.0
 11
-352.3544964430461
 21
174.5690167837492
 31
0.0
  0
LINE
  5
D1
  8
1
  6
CONTINUOUS
 62
     7
 10
-351.1185413868664
 20
195.5524312026715
 30
0.0
 11
-351.1744013538083
 21
195.935494306761
 31
0.0
  0
LINE
  5
D2
  8
1
  6
CONTINUOUS
 62
     7
 10
-351.0061818363036
 20
193.7947747344369
 30
0.0
 11
-351.1185413868664
 21
195.5524312026715
 31
0.0
  0
LINE
  5
D3
  8
1
  6
CONTINUOUS
 62
     7
 10
-350.8938222857481
 20
190.9156227408511
 30
0.0
 11
-351.0061818363036
 21
193.7947747344369
 31
0.0
  0
LINE
  5
D4
  8
1
  6
CONTINUOUS
 62
     7
 10
-350.7814627351578
 20
187.2700094212764
 30
0.0
 11
-350.8938222857481
 21
190.9156227408511
 31
0.0
  0
LINE
  5
D5
  8
1
  6
CONTINUOUS
 62
     7
 10
-350.6691031847079
 20
183.3074829172392
 30
0.0
 11
-350.7814627351578
 21
187.2700094212764
 31
0.0
  0
LINE
  5
D6
  8
1
  6
CONTINUOUS
 62
     7
 10
-350.5567436337374
 20
179.5166705645437
 30
0.0
 11
-350.6691031847079
 21
183.3074829172392
 31
0.0
  0
LINE
  5
D7
  8
1
  6
CONTINUOUS
 62
     7
 10
-350.4443840844028
 20
176.3650253531432
 30
0.0
 11
-350.5567436337374
 21
179.5166705645437
 31
0.0
  0
LINE
  5
D8
  8
1
  6
CONTINUOUS
 62
     7
 10
-350.3320245310353
 20
174.2411830670498
 30
0.0
 11
-350.4443840844028
 21
176.3650253531432
 31
0.0
  0
LINE
  5
D9
  8
1
  6
CONTINUOUS
 62
     7
 10
-350.2196649830324
 20
173.4070392480519
 30
0.0
 11
-350.3320245310353
 21
174.2411830670498
 31
0.0
  0
LINE
  5
DA
  8
1
  6
CONTINUOUS
 62
     7
 10
-349.1886435506576
 20
173.6780522688614
 30
0.0
 11
-349.1417955069626
 21
173.4285809015732
 31
0.0
  0
ARC
  5
DB
  8
1
  6
CONTINUOUS
 62
     7
 10
-3068.953278237251
 20
47.95928330388013
 30
0.0
 40
2722.650779912032
 50
2.648237955477295
 51
3.115031158012
  0
LINE
  5
DC
  8
1
  6
CONTINUOUS
 62
     7
 10
-350.3253543719793
 20
195.9102242795948
 30
0.0
 11
-350.3763782197452
 21
196.0
 31
0.0
  0
POLYLINE
  5
DD
  8
1
  6
CONTINUOUS
 62
     7
 66
     1
 10
0.0
 20
0.0
 30
0.0
  0
VERTEX
  5
55D
  8
1
  6
CONTINUOUS
 62
     7
 10
-350.1084290273141
 20
197.0
 30
0.0
  0
VERTEX
  5
55E
  8
1
  6
CONTINUOUS
 62
     7
 10
-350.0973934655949
 20
196.9815062856488
 30
0.0
  0
VERTEX
  5
55F
  8
1
  6
CONTINUOUS
 62
     7
 10
-350.0863471302448
 20
196.9481490163034
 30
0.0
  0
VERTEX
  5
560
  8
1
  6
CONTINUOUS
 62
     7
 10
-350.0752899879406
 20
196.9000203922356
 30
0.0
  0
VERTEX
  5
561
  8
1
  6
CONTINUOUS
 62
     7
 10
-350.0642220053591
 20
196.8372126137171
 30
0.0
  0
VERTEX
  5
562
  8
1
  6
CONTINUOUS
 62
     7
 10
-350.0531431491772
 20
196.7598178810196
 30
0.0
  0
VERTEX
  5
563
  8
1
  6
CONTINUOUS
 62
     7
 10
-350.042053386072
 20
196.6679283944148
 30
0.0
  0
VERTEX
  5
564
  8
1
  6
CONTINUOUS
 62
     7
 10
-350.0309526827203
 20
196.5616363541747
 30
0.0
  0
VERTEX
  5
565
  8
1
  6
CONTINUOUS
 62
     7
 10
-350.019841005799
 20
196.4410339605706
 30
0.0
  0
VERTEX
  5
566
  8
1
  6
CONTINUOUS
 62
     7
 10
-350.008718321985
 20
196.3062134138747
 30
0.0
  0
VERTEX
  5
567
  8
1
  6
CONTINUOUS
 62
     7
 10
-349.9975845979553
 20
196.1572669143584
 30
0.0
  0
VERTEX
  5
568
  8
1
  6
CONTINUOUS
 62
     7
 10
-349.9864398003856
 20
195.9942884937537
 30
0.0
  0
VERTEX
  5
569
  8
1
  6
CONTINUOUS
 62
     7
 10
-349.9752838959005
 20
195.8174476608273
 30
0.0
  0
VERTEX
  5
56A
  8
1
  6
CONTINUOUS
 62
     7
 10
-349.9641168510575
 20
195.6270145215901
 30
0.0
  0
VERTEX
  5
56B
  8
1
  6
CONTINUOUS
 62
     7
 10
-349.9529386324087
 20
195.4232661679075
 30
0.0
  0
VERTEX
  5
56C
  8
1
  6
CONTINUOUS
 62
     7
 10
-349.9417492065067
 20
195.206479691645
 30
0.0
  0
VERTEX
  5
56D
  8
1
  6
CONTINUOUS
 62
     7
 10
-349.9305485399038
 20
194.9769321846682
 30
0.0
  0
VERTEX
  5
56E
  8
1
  6
CONTINUOUS
 62
     7
 10
-349.9193365991526
 20
194.7349007388424
 30
0.0
  0
VERTEX
  5
56F
  8
1
  6
CONTINUOUS
 62
     7
 10
-349.9081133508054
 20
194.4806624460331
 30
0.0
  0
VERTEX
  5
570
  8
1
  6
CONTINUOUS
 62
     7
 10
-349.8968787614146
 20
194.2144943981058
 30
0.0
  0
VERTEX
  5
571
  8
1
  6
CONTINUOUS
 62
     7
 10
-349.8856327975328
 20
193.9366736869261
 30
0.0
  0
VERTEX
  5
572
  8
1
  6
CONTINUOUS
 62
     7
 10
-349.8743754257122
 20
193.6474774043593
 30
0.0
  0
VERTEX
  5
573
  8
1
  6
CONTINUOUS
 62
     7
 10
-349.8631066122024
 20
193.3472009860133
 30
0.0
  0
VERTEX
  5
574
  8
1
  6
CONTINUOUS
 62
     7
 10
-349.8518263215706
 20
193.0362417389022
 30
0.0
  0
VERTEX
  5
575
  8
1
  6
CONTINUOUS
 62
     7
 10
-349.8405345178031
 20
192.7150321305677
 30
0.0
  0
VERTEX
  5
576
  8
1
  6
CONTINUOUS
 62
     7
 10
-349.8292311648863
 20
192.3840046617608
 30
0.0
  0
VERTEX
  5
577
  8
1
  6
CONTINUOUS
 62
     7
 10
-349.817916226806
 20
192.0435918332327
 30
0.0
  0
VERTEX
  5
578
  8
1
  6
CONTINUOUS
 62
     7
 10
-349.8065896675481
 20
191.6942261457345
 30
0.0
  0
VERTEX
  5
579
  8
1
  6
CONTINUOUS
 62
     7
 10
-349.7952514510987
 20
191.3363401000174
 30
0.0
  0
VERTEX
  5
57A
  8
1
  6
CONTINUOUS
 62
     7
 10
-349.7839015414438
 20
190.9703661968324
 30
0.0
  0
VERTEX
  5
57B
  8
1
  6
CONTINUOUS
 62
     7
 10
-349.7725399025692
 20
190.5967369369308
 30
0.0
  0
VERTEX
  5
57C
  8
1
  6
CONTINUOUS
 62
     7
 10
-349.7611664984611
 20
190.2158848210635
 30
0.0
  0
VERTEX
  5
57D
  8
1
  6
CONTINUOUS
 62
     7
 10
-349.749781293069
 20
189.8282445264576
 30
0.0
  0
VERTEX
  5
57E
  8
1
  6
CONTINUOUS
 62
     7
 10
-349.7383842495151
 20
189.4343000143059
 30
0.0
  0
VERTEX
  5
57F
  8
1
  6
CONTINUOUS
 62
     7
 10
-349.7269753301023
 20
189.0345841030318
 30
0.0
  0
VERTEX
  5
580
  8
1
  6
CONTINUOUS
 62
     7
 10
-349.7155544970981
 20
188.6296317021854
 30
0.0
  0
VERTEX
  5
581
  8
1
  6
CONTINUOUS
 62
     7
 10
-349.7041217127699
 20
188.2199777213167
 30
0.0
  0
VERTEX
  5
582
  8
1
  6
CONTINUOUS
 62
     7
 10
-349.6926769393854
 20
187.8061570699756
 30
0.0
  0
VERTEX
  5
583
  8
1
  6
CONTINUOUS
 62
     7
 10
-349.6812201392121
 20
187.3887046577124
 30
0.0
  0
VERTEX
  5
584
  8
1
  6
CONTINUOUS
 62
     7
 10
-349.6697512745176
 20
186.9681553940769
 30
0.0
  0
VERTEX
  5
585
  8
1
  6
CONTINUOUS
 62
     7
 10
-349.6582703075695
 20
186.5450441886192
 30
0.0
  0
VERTEX
  5
586
  8
1
  6
CONTINUOUS
 62
     7
 10
-349.6467772006352
 20
186.1199059508892
 30
0.0
  0
VERTEX
  5
587
  8
1
  6
CONTINUOUS
 62
     7
 10
-349.635271915978
 20
185.6932756546158
 30
0.0
  0
VERTEX
  5
588
  8
1
  6
CONTINUOUS
 62
     7
 10
-349.6237544152082
 20
185.2656982444838
 30
0.0
  0
VERTEX
  5
589
  8
1
  6
CONTINUOUS
 62
     7
 10
-349.6122246585797
 20
184.8377393469252
 30
0.0
  0
VERTEX
  5
58A
  8
1
  6
CONTINUOUS
 62
     7
 10
-349.6006826061788
 20
184.4099671592665
 30
0.0
  0
VERTEX
  5
58B
  8
1
  6
CONTINUOUS
 62
     7
 10
-349.5891282180914
 20
183.9829498788345
 30
0.0
  0
VERTEX
  5
58C
  8
1
  6
CONTINUOUS
 62
     7
 10
-349.5775614544036
 20
183.5572557029556
 30
0.0
  0
VERTEX
  5
58D
  8
1
  6
CONTINUOUS
 62
     7
 10
-349.5659822752012
 20
183.1334528289564
 30
0.0
  0
VERTEX
  5
58E
  8
1
  6
CONTINUOUS
 62
     7
 10
-349.5543906405701
 20
182.7121094541634
 30
0.0
  0
VERTEX
  5
58F
  8
1
  6
CONTINUOUS
 62
     7
 10
-349.5427865105966
 20
182.2937937759033
 30
0.0
  0
VERTEX
  5
590
  8
1
  6
CONTINUOUS
 62
     7
 10
-349.5311698453664
 20
181.8790739915025
 30
0.0
  0
VERTEX
  5
591
  8
1
  6
CONTINUOUS
 62
     7
 10
-349.5195406049655
 20
181.4685182967215
 30
0.0
  0
VERTEX
  5
592
  8
1
  6
CONTINUOUS
 62
     7
 10
-349.5078987490387
 20
181.0626861935526
 30
0.0
  0
VERTEX
  5
593
  8
1
  6
CONTINUOUS
 62
     7
 10
-349.4962442357559
 20
180.6621081046274
 30
0.0
  0
VERTEX
  5
594
  8
1
  6
CONTINUOUS
 62
     7
 10
-349.4845770229783
 20
180.2673083797244
 30
0.0
  0
VERTEX
  5
595
  8
1
  6
CONTINUOUS
 62
     7
 10
-349.4728970685678
 20
179.8788113686227
 30
0.0
  0
VERTEX
  5
596
  8
1
  6
CONTINUOUS
 62
     7
 10
-349.4612043303857
 20
179.4971414211012
 30
0.0
  0
VERTEX
  5
597
  8
1
  6
CONTINUOUS
 62
     7
 10
-349.449498766294
 20
179.1228228869389
 30
0.0
  0
VERTEX
  5
598
  8
1
  6
CONTINUOUS
 62
     7
 10
-349.4377803341538
 20
178.7563801159148
 30
0.0
  0
VERTEX
  5
599
  8
1
  6
CONTINUOUS
 62
     7
 10
-349.4260489918272
 20
178.3983374578077
 30
0.0
  0
VERTEX
  5
59A
  8
1
  6
CONTINUOUS
 62
     7
 10
-349.4143046971752
 20
178.0492192623966
 30
0.0
  0
VERTEX
  5
59B
  8
1
  6
CONTINUOUS
 62
     7
 10
-349.4025474080598
 20
177.7095498794588
 30
0.0
  0
VERTEX
  5
59C
  8
1
  6
CONTINUOUS
 62
     7
 10
-349.3907770819366
 20
177.379833655915
 30
0.0
  0
VERTEX
  5
59D
  8
1
  6
CONTINUOUS
 62
     7
 10
-349.3789936746584
 20
177.0604959719299
 30
0.0
  0
VERTEX
  5
59E
  8
1
  6
CONTINUOUS
 62
     7
 10
-349.3671971416824
 20
176.7519427237461
 30
0.0
  0
VERTEX
  5
59F
  8
1
  6
CONTINUOUS
 62
     7
 10
-349.3553874384662
 20
176.4545798076057
 30
0.0
  0
VERTEX
  5
5A0
  8
1
  6
CONTINUOUS
 62
     7
 10
-349.3435645204671
 20
176.1688131197511
 30
0.0
  0
VERTEX
  5
5A1
  8
1
  6
CONTINUOUS
 62
     7
 10
-349.3317283431426
 20
175.8950485564249
 30
0.0
  0
VERTEX
  5
5A2
  8
1
  6
CONTINUOUS
 62
     7
 10
-349.3198788619502
 20
175.6336920138693
 30
0.0
  0
VERTEX
  5
5A3
  8
1
  6
CONTINUOUS
 62
     7
 10
-349.308016032347
 20
175.3851493883265
 30
0.0
  0
VERTEX
  5
5A4
  8
1
  6
CONTINUOUS
 62
     7
 10
-349.2961398097906
 20
175.1498265760392
 30
0.0
  0
VERTEX
  5
5A5
  8
1
  6
CONTINUOUS
 62
     7
 10
-349.2842501497383
 20
174.9281294668335
 30
0.0
  0
VERTEX
  5
5A6
  8
1
  6
CONTINUOUS
 62
     7
 10
-349.2723470071392
 20
174.7204282086442
 30
0.0
  0
VERTEX
  5
5A7
  8
1
  6
CONTINUOUS
 62
     7
 10
-349.2604303352423
 20
174.5269733707787
 30
0.0
  0
VERTEX
  5
5A8
  8
1
  6
CONTINUOUS
 62
     7
 10
-349.2485000869412
 20
174.3479905442812
 30
0.0
  0
VERTEX
  5
5A9
  8
1
  6
CONTINUOUS
 62
     7
 10
-349.2365562151299
 20
174.183705320196
 30
0.0
  0
VERTEX
  5
5AA
  8
1
  6
CONTINUOUS
 62
     7
 10
-349.2245986727021
 20
174.0343432895672
 30
0.0
  0
VERTEX
  5
5AB
  8
1
  6
CONTINUOUS
 62
     7
 10
-349.2126274125516
 20
173.900130043439
 30
0.0
  0
VERTEX
  5
5AC
  8
1
  6
CONTINUOUS
 62
     7
 10
-349.2006423875722
 20
173.7812911728557
 30
0.0
  0
VERTEX
  5
5AD
  8
1
  6
CONTINUOUS
 62
     7
 10
-349.1886435506576
 20
173.6780522688614
 30
0.0
  0
SEQEND
  5
64D
  8
1
  6
CONTINUOUS
 62
     7
  0
LINE
  5
DE
  8
1
  6
CONTINUOUS
 62
     7
 10
-349.1091036430832
 20
173.400013731982
 30
0.0
 11
-349.1576628029983
 21
173.4835249483795
 31
0.0
  0
LINE
  5
DF
  8
1
  6
CONTINUOUS
 62
     7
 10
-349.1576628029983
 20
173.4835249483795
 30
0.0
 11
-349.2102236129434
 21
173.7566846221791
 31
0.0
  0
POLYLINE
  5
E0
  8
1
  6
CONTINUOUS
 62
     7
 66
     1
 10
0.0
 20
0.0
 30
0.0
  0
VERTEX
  5
5AE
  8
1
  6
CONTINUOUS
 62
     7
 10
-349.1417955069626
 20
173.4285809015732
 30
0.0
  0
VERTEX
  5
5AF
  8
1
  6
CONTINUOUS
 62
     7
 10
-349.1404354073103
 20
173.425015270925
 30
0.0
  0
VERTEX
  5
5B0
  8
1
  6
CONTINUOUS
 62
     7
 10
-349.139075128935
 20
173.4216561346571
 30
0.0
  0
VERTEX
  5
5B1
  8
1
  6
CONTINUOUS
 62
     7
 10
-349.1377146717654
 20
173.4185035004361
 30
0.0
  0
VERTEX
  5
5B2
  8
1
  6
CONTINUOUS
 62
     7
 10
-349.1363540357297
 20
173.4155573759284
 30
0.0
  0
VERTEX
  5
5B3
  8
1
  6
CONTINUOUS
 62
     7
 10
-349.1349932207568
 20
173.4128177688006
 30
0.0
  0
VERTEX
  5
5B4
  8
1
  6
CONTINUOUS
 62
     7
 10
-349.1336322267749
 20
173.4102846867191
 30
0.0
  0
VERTEX
  5
5B5
  8
1
  6
CONTINUOUS
 62
     7
 10
-349.1322710537127
 20
173.4079581373505
 30
0.0
  0
VERTEX
  5
5B6
  8
1
  6
CONTINUOUS
 62
     7
 10
-349.1309097014986
 20
173.4058381283612
 30
0.0
  0
VERTEX
  5
5B7
  8
1
  6
CONTINUOUS
 62
     7
 10
-349.1295481700611
 20
173.4039246674177
 30
0.0
  0
VERTEX
  5
5B8
  8
1
  6
CONTINUOUS
 62
     7
 10
-349.1281864593289
 20
173.4022177621866
 30
0.0
  0
VERTEX
  5
5B9
  8
1
  6
CONTINUOUS
 62
     7
 10
-349.1268245692303
 20
173.4007174203342
 30
0.0
  0
VERTEX
  5
5BA
  8
1
  6
CONTINUOUS
 62
     7
 10
-349.1254624996938
 20
173.3994236495272
 30
0.0
  0
VERTEX
  5
5BB
  8
1
  6
CONTINUOUS
 62
     7
 10
-349.1241002506482
 20
173.3983364574319
 30
0.0
  0
VERTEX
  5
5BC
  8
1
  6
CONTINUOUS
 62
     7
 10
-349.1227378220216
 20
173.397455851715
 30
0.0
  0
VERTEX
  5
5BD
  8
1
  6
CONTINUOUS
 62
     7
 10
-349.1213752137427
 20
173.3967818400428
 30
0.0
  0
VERTEX
  5
5BE
  8
1
  6
CONTINUOUS
 62
     7
 10
-349.1200124257401
 20
173.3963144300819
 30
0.0
  0
VERTEX
  5
5BF
  8
1
  6
CONTINUOUS
 62
     7
 10
-349.1186494579423
 20
173.3960536294988
 30
0.0
  0
VERTEX
  5
5C0
  8
1
  6
CONTINUOUS
 62
     7
 10
-349.1172863102777
 20
173.39599944596
 30
0.0
  0
VERTEX
  5
5C1
  8
1
  6
CONTINUOUS
 62
     7
 10
-349.1159229826748
 20
173.3961518871319
 30
0.0
  0
VERTEX
  5
5C2
  8
1
  6
CONTINUOUS
 62
     7
 10
-349.114559475062
 20
173.396510960681
 30
0.0
  0
VERTEX
  5
5C3
  8
1
  6
CONTINUOUS
 62
     7
 10
-349.1131957873682
 20
173.397076674274
 30
0.0
  0
VERTEX
  5
5C4
  8
1
  6
CONTINUOUS
 62
     7
 10
-349.1118319195216
 20
173.3978490355771
 30
0.0
  0
VERTEX
  5
5C5
  8
1
  6
CONTINUOUS
 62
     7
 10
-349.1104678714509
 20
173.3988280522571
 30
0.0
  0
VERTEX
  5
5C6
  8
1
  6
CONTINUOUS
 62
     7
 10
-349.1091036430844
 20
173.4000137319802
 30
0.0
  0
SEQEND
  5
64E
  8
1
  6
CONTINUOUS
 62
     7
  0
POLYLINE
  5
E1
  8
1
  6
CONTINUOUS
 62
     7
 66
     1
 10
0.0
 20
0.0
 30
0.0
  0
VERTEX
  5
5C7
  8
1
  6
CONTINUOUS
 62
     7
 10
-348.5097448233569
 20
173.4286979316686
 30
0.0
  0
VERTEX
  5
5C8
  8
1
  6
CONTINUOUS
 62
     7
 10
-348.5203763644159
 20
173.4637592292542
 30
0.0
  0
VERTEX
  5
5C9
  8
1
  6
CONTINUOUS
 62
     7
 10
-348.5309970118619
 20
173.5114466360462
 30
0.0
  0
VERTEX
  5
5CA
  8
1
  6
CONTINUOUS
 62
     7
 10
-348.5416067998254
 20
173.5717510690022
 30
0.0
  0
VERTEX
  5
5CB
  8
1
  6
CONTINUOUS
 62
     7
 10
-348.5522057614268
 20
173.6445823228039
 30
0.0
  0
VERTEX
  5
5CC
  8
1
  6
CONTINUOUS
 62
     7
 10
-348.5627939290015
 20
173.7297872380014
 30
0.0
  0
VERTEX
  5
5CD
  8
1
  6
CONTINUOUS
 62
     7
 10
-348.5733713348652
 20
173.8272110062444
 30
0.0
  0
VERTEX
  5
5CE
  8
1
  6
CONTINUOUS
 62
     7
 10
-348.583938011333
 20
173.9366988191831
 30
0.0
  0
VERTEX
  5
5CF
  8
1
  6
CONTINUOUS
 62
     7
 10
-348.59449399072
 20
174.0580958684671
 30
0.0
  0
VERTEX
  5
5D0
  8
1
  6
CONTINUOUS
 62
     7
 10
-348.6050393053418
 20
174.1912473457462
 30
0.0
  0
VERTEX
  5
5D1
  8
1
  6
CONTINUOUS
 62
     7
 10
-348.6155739875136
 20
174.3359984426704
 30
0.0
  0
VERTEX
  5
5D2
  8
1
  6
CONTINUOUS
 62
     7
 10
-348.6260980695507
 20
174.4921943508893
 30
0.0
  0
VERTEX
  5
5D3
  8
1
  6
CONTINUOUS
 62
     7
 10
-348.6366115837683
 20
174.659680262053
 30
0.0
  0
VERTEX
  5
5D4
  8
1
  6
CONTINUOUS
 62
     7
 10
-348.6471145624818
 20
174.8383013678111
 30
0.0
  0
VERTEX
  5
5D5
  8
1
  6
CONTINUOUS
 62
     7
 10
-348.65760703798
 20
175.0279010113022
 30
0.0
  0
VERTEX
  5
5D6
  8
1
  6
CONTINUOUS
 62
     7
 10
-348.6680890417683
 20
175.2282673987905
 30
0.0
  0
VERTEX
  5
5D7
  8
1
  6
CONTINUOUS
 62
     7
 10
-348.6785606044528
 20
175.4391255166425
 30
0.0
  0
VERTEX
  5
5D8
  8
1
  6
CONTINUOUS
 62
     7
 10
-348.6890217565905
 20
175.6601968766191
 30
0.0
  0
VERTEX
  5
5D9
  8
1
  6
CONTINUOUS
 62
     7
 10
-348.6994725287383
 20
175.891202990481
 30
0.0
  0
VERTEX
  5
5DA
  8
1
  6
CONTINUOUS
 62
     7
 10
-348.709912951453
 20
176.1318653699888
 30
0.0
  0
VERTEX
  5
5DB
  8
1
  6
CONTINUOUS
 62
     7
 10
-348.7203430552916
 20
176.3819055269032
 30
0.0
  0
VERTEX
  5
5DC
  8
1
  6
CONTINUOUS
 62
     7
 10
-348.730762870811
 20
176.6410449729851
 30
0.0
  0
VERTEX
  5
5DD
  8
1
  6
CONTINUOUS
 62
     7
 10
-348.741172428568
 20
176.9090052199952
 30
0.0
  0
VERTEX
  5
5DE
  8
1
  6
CONTINUOUS
 62
     7
 10
-348.7515717591197
 20
177.185507779694
 30
0.0
  0
VERTEX
  5
5DF
  8
1
  6
CONTINUOUS
 62
     7
 10
-348.7619608930227
 20
177.4702741638425
 30
0.0
  0
VERTEX
  5
5E0
  8
1
  6
CONTINUOUS
 62
     7
 10
-348.7723398608327
 20
177.7630258145805
 30
0.0
  0
VERTEX
  5
5E1
  8
1
  6
CONTINUOUS
 62
     7
 10
-348.7827086926677
 20
178.063462619634
 30
0.0
  0
VERTEX
  5
5E2
  8
1
  6
CONTINUOUS
 62
     7
 10
-348.7930674175912
 20
178.3712325118035
 30
0.0
  0
VERTEX
  5
5E3
  8
1
  6
CONTINUOUS
 62
     7
 10
-348.803416064511
 20
178.6859757533256
 30
0.0
  0
VERTEX
  5
5E4
  8
1
  6
CONTINUOUS
 62
     7
 10
-348.8137546623351
 20
179.0073326064372
 30
0.0
  0
VERTEX
  5
5E5
  8
1
  6
CONTINUOUS
 62
     7
 10
-348.8240832399711
 20
179.3349433333749
 30
0.0
  0
VERTEX
  5
5E6
  8
1
  6
CONTINUOUS
 62
     7
 10
-348.8344018263269
 20
179.6684481963755
 30
0.0
  0
VERTEX
  5
5E7
  8
1
  6
CONTINUOUS
 62
     7
 10
-348.8447104503105
 20
180.0074874576756
 30
0.0
  0
VERTEX
  5
5E8
  8
1
  6
CONTINUOUS
 62
     7
 10
-348.8550091408295
 20
180.351701379512
 30
0.0
  0
VERTEX
  5
5E9
  8
1
  6
CONTINUOUS
 62
     7
 10
-348.8652979267919
 20
180.7007302241214
 30
0.0
  0
VERTEX
  5
5EA
  8
1
  6
CONTINUOUS
 62
     7
 10
-348.8755768371056
 20
181.0542142537406
 30
0.0
  0
VERTEX
  5
5EB
  8
1
  6
CONTINUOUS
 62
     7
 10
-348.8858459006782
 20
181.4117937306061
 30
0.0
  0
VERTEX
  5
5EC
  8
1
  6
CONTINUOUS
 62
     7
 10
-348.8961051463008
 20
181.7731066118712
 30
0.0
  0
VERTEX
  5
5ED
  8
1
  6
CONTINUOUS
 62
     7
 10
-348.9063546018174
 20
182.1377721934387
 30
0.0
  0
VERTEX
  5
5EE
  8
1
  6
CONTINUOUS
 62
     7
 10
-348.9165942946133
 20
182.5054007260002
 30
0.0
  0
VERTEX
  5
5EF
  8
1
  6
CONTINUOUS
 62
     7
 10
-348.9268242520705
 20
182.8756024007698
 30
0.0
  0
VERTEX
  5
5F0
  8
1
  6
CONTINUOUS
 62
     7
 10
-348.9370445015714
 20
183.247987408962
 30
0.0
  0
VERTEX
  5
5F1
  8
1
  6
CONTINUOUS
 62
     7
 10
-348.9472550704979
 20
183.6221659417909
 30
0.0
  0
VERTEX
  5
5F2
  8
1
  6
CONTINUOUS
 62
     7
 10
-348.9574559862325
 20
183.9977481904708
 30
0.0
  0
VERTEX
  5
5F3
  8
1
  6
CONTINUOUS
 62
     7
 10
-348.9676472761572
 20
184.3743443462162
 30
0.0
  0
VERTEX
  5
5F4
  8
1
  6
CONTINUOUS
 62
     7
 10
-348.9778289676541
 20
184.7515646002412
 30
0.0
  0
VERTEX
  5
5F5
  8
1
  6
CONTINUOUS
 62
     7
 10
-348.9880010881056
 20
185.12901914376
 30
0.0
  0
VERTEX
  5
5F6
  8
1
  6
CONTINUOUS
 62
     7
 10
-348.9981636648936
 20
185.5063181679871
 30
0.0
  0
VERTEX
  5
5F7
  8
1
  6
CONTINUOUS
 62
     7
 10
-349.0083167253969
 20
185.8830719204867
 30
0.0
  0
VERTEX
  5
5F8
  8
1
  6
CONTINUOUS
 62
     7
 10
-349.0184602965264
 20
186.2588977793148
 30
0.0
  0
VERTEX
  5
5F9
  8
1
  6
CONTINUOUS
 62
     7
 10
-349.0285944042749
 20
186.6334271421372
 30
0.0
  0
VERTEX
  5
5FA
  8
1
  6
CONTINUOUS
 62
     7
 10
-349.0387190745277
 20
187.0062930415272
 30
0.0
  0
VERTEX
  5
5FB
  8
1
  6
CONTINUOUS
 62
     7
 10
-349.0488343331701
 20
187.3771285100581
 30
0.0
  0
VERTEX
  5
5FC
  8
1
  6
CONTINUOUS
 62
     7
 10
-349.0589402060877
 20
187.7455665803035
 30
0.0
  0
VERTEX
  5
5FD
  8
1
  6
CONTINUOUS
 62
     7
 10
-349.0690367191658
 20
188.1112402848365
 30
0.0
  0
VERTEX
  5
5FE
  8
1
  6
CONTINUOUS
 62
     7
 10
-349.0791238982896
 20
188.4737826562306
 30
0.0
  0
VERTEX
  5
5FF
  8
1
  6
CONTINUOUS
 62
     7
 10
-349.0892017693447
 20
188.8328267270591
 30
0.0
  0
VERTEX
  5
600
  8
1
  6
CONTINUOUS
 62
     7
 10
-349.0992703582166
 20
189.1880055298955
 30
0.0
  0
VERTEX
  5
601
  8
1
  6
CONTINUOUS
 62
     7
 10
-349.1093296907904
 20
189.5389520973129
 30
0.0
  0
VERTEX
  5
602
  8
1
  6
CONTINUOUS
 62
     7
 10
-349.1193797929517
 20
189.885299461885
 30
0.0
  0
VERTEX
  5
603
  8
1
  6
CONTINUOUS
 62
     7
 10
-349.1294206905449
 20
190.2266831038619
 30
0.0
  0
VERTEX
  5
604
  8
1
  6
CONTINUOUS
 62
     7
 10
-349.1394524087841
 20
190.5627760914703
 30
0.0
  0
VERTEX
  5
605
  8
1
  6
CONTINUOUS
 62
     7
 10
-349.1494749723904
 20
190.8932809290586
 30
0.0
  0
VERTEX
  5
606
  8
1
  6
CONTINUOUS
 62
     7
 10
-349.1594884060714
 20
191.2179009076771
 30
0.0
  0
VERTEX
  5
607
  8
1
  6
CONTINUOUS
 62
     7
 10
-349.1694927345347
 20
191.536339318376
 30
0.0
  0
VERTEX
  5
608
  8
1
  6
CONTINUOUS
 62
     7
 10
-349.1794879824879
 20
191.8482994522057
 30
0.0
  0
VERTEX
  5
609
  8
1
  6
CONTINUOUS
 62
     7
 10
-349.189474174639
 20
192.1534846002166
 30
0.0
  0
VERTEX
  5
60A
  8
1
  6
CONTINUOUS
 62
     7
 10
-349.1994513356954
 20
192.4515980534589
 30
0.0
  0
VERTEX
  5
60B
  8
1
  6
CONTINUOUS
 62
     7
 10
-349.2094194903649
 20
192.7423431029828
 30
0.0
  0
VERTEX
  5
60C
  8
1
  6
CONTINUOUS
 62
     7
 10
-349.2193786633551
 20
193.0254230398387
 30
0.0
  0
VERTEX
  5
60D
  8
1
  6
CONTINUOUS
 62
     7
 10
-349.2293288793738
 20
193.300541155077
 30
0.0
  0
VERTEX
  5
60E
  8
1
  6
CONTINUOUS
 62
     7
 10
-349.2392701631287
 20
193.5674007397479
 30
0.0
  0
VERTEX
  5
60F
  8
1
  6
CONTINUOUS
 62
     7
 10
-349.2492025391679
 20
193.8257147297095
 30
0.0
  0
VERTEX
  5
610
  8
1
  6
CONTINUOUS
 62
     7
 10
-349.2591260309189
 20
194.075263848924
 30
0.0
  0
VERTEX
  5
611
  8
1
  6
CONTINUOUS
 62
     7
 10
-349.2690406613289
 20
194.3158578892135
 30
0.0
  0
VERTEX
  5
612
  8
1
  6
CONTINUOUS
 62
     7
 10
-349.2789464533426
 20
194.5473067535783
 30
0.0
  0
VERTEX
  5
613
  8
1
  6
CONTINUOUS
 62
     7
 10
-349.2888434299055
 20
194.7694203450188
 30
0.0
  0
VERTEX
  5
614
  8
1
  6
CONTINUOUS
 62
     7
 10
-349.2987316139625
 20
194.9820085665353
 30
0.0
  0
VERTEX
  5
615
  8
1
  6
CONTINUOUS
 62
     7
 10
-349.3086110284589
 20
195.1848813211282
 30
0.0
  0
VERTEX
  5
616
  8
1
  6
CONTINUOUS
 62
     7
 10
-349.3184816963395
 20
195.3778485117977
 30
0.0
  0
VERTEX
  5
617
  8
1
  6
CONTINUOUS
 62
     7
 10
-349.3283436405497
 20
195.5607200415443
 30
0.0
  0
VERTEX
  5
618
  8
1
  6
CONTINUOUS
 62
     7
 10
-349.3381968840345
 20
195.7333058133683
 30
0.0
  0
VERTEX
  5
619
  8
1
  6
CONTINUOUS
 62
     7
 10
-349.348041449739
 20
195.89541573027
 30
0.0
  0
VERTEX
  5
61A
  8
1
  6
CONTINUOUS
 62
     7
 10
-349.3578773606082
 20
196.0468596952497
 30
0.0
  0
VERTEX
  5
61B
  8
1
  6
CONTINUOUS
 62
     7
 10
-349.3677046395771
 20
196.1874636632738
 30
0.0
  0
VERTEX
  5
61C
  8
1
  6
CONTINUOUS
 62
     7
 10
-349.3775233095268
 20
196.3171372197718
 30
0.0
  0
VERTEX
  5
61D
  8
1
  6
CONTINUOUS
 62
     7
 10
-349.387333393321
 20
196.4358170985665
 30
0.0
  0
VERTEX
  5
61E
  8
1
  6
CONTINUOUS
 62
     7
 10
-349.3971349138233
 20
196.5434400477434
 30
0.0
  0
VERTEX
  5
61F
  8
1
  6
CONTINUOUS
 62
     7
 10
-349.4069278938973
 20
196.6399428153879
 30
0.0
  0
SEQEND
  5
64F
  8
1
  6
CONTINUOUS
 62
     7
  0
POLYLINE
  5
E2
  8
1
  6
CONTINUOUS
 62
     7
 66
     1
 10
0.0
 20
0.0
 30
0.0
  0
VERTEX
  5
620
  8
1
  6
CONTINUOUS
 62
     7
 10
-348.4770021634684
 20
173.4000134865964
 30
0.0
  0
VERTEX
  5
621
  8
1
  6
CONTINUOUS
 62
     7
 10
-348.4783685146435
 20
173.3988255554163
 30
0.0
  0
VERTEX
  5
622
  8
1
  6
CONTINUOUS
 62
     7
 10
-348.4797346849721
 20
173.3978449091422
 30
0.0
  0
VERTEX
  5
623
  8
1
  6
CONTINUOUS
 62
     7
 10
-348.4811006745258
 20
173.3970715399477
 30
0.0
  0
VERTEX
  5
624
  8
1
  6
CONTINUOUS
 62
     7
 10
-348.4824664833766
 20
173.3965054400065
 30
0.0
  0
VERTEX
  5
625
  8
1
  6
CONTINUOUS
 62
     7
 10
-348.4838321115963
 20
173.3961466014921
 30
0.0
  0
VERTEX
  5
626
  8
1
  6
CONTINUOUS
 62
     7
 10
-348.4851975592566
 20
173.395995016578
 30
0.0
  0
VERTEX
  5
627
  8
1
  6
CONTINUOUS
 62
     7
 10
-348.4865628264294
 20
173.3960506774379
 30
0.0
  0
VERTEX
  5
628
  8
1
  6
CONTINUOUS
 62
     7
 10
-348.4879279131865
 20
173.3963135762453
 30
0.0
  0
VERTEX
  5
629
  8
1
  6
CONTINUOUS
 62
     7
 10
-348.4892928195996
 20
173.3967837051738
 30
0.0
  0
VERTEX
  5
62A
  8
1
  6
CONTINUOUS
 62
     7
 10
-348.4906575457406
 20
173.397461056397
 30
0.0
  0
VERTEX
  5
62B
  8
1
  6
CONTINUOUS
 62
     7
 10
-348.4920220916813
 20
173.3983456220885
 30
0.0
  0
VERTEX
  5
62C
  8
1
  6
CONTINUOUS
 62
     7
 10
-348.4933864574936
 20
173.3994373944218
 30
0.0
  0
VERTEX
  5
62D
  8
1
  6
CONTINUOUS
 62
     7
 10
-348.4947506432491
 20
173.4007363655705
 30
0.0
  0
VERTEX
  5
62E
  8
1
  6
CONTINUOUS
 62
     7
 10
-348.4961146490198
 20
173.4022425277083
 30
0.0
  0
VERTEX
  5
62F
  8
1
  6
CONTINUOUS
 62
     7
 10
-348.4974784748775
 20
173.4039558730087
 30
0.0
  0
VERTEX
  5
630
  8
1
  6
CONTINUOUS
 62
     7
 10
-348.4988421208939
 20
173.4058763936452
 30
0.0
  0
VERTEX
  5
631
  8
1
  6
CONTINUOUS
 62
     7
 10
-348.5002055871408
 20
173.4080040817914
 30
0.0
  0
VERTEX
  5
632
  8
1
  6
CONTINUOUS
 62
     7
 10
-348.5015688736901
 20
173.410338929621
 30
0.0
  0
VERTEX
  5
633
  8
1
  6
CONTINUOUS
 62
     7
 10
-348.5029319806135
 20
173.4128809293074
 30
0.0
  0
VERTEX
  5
634
  8
1
  6
CONTINUOUS
 62
     7
 10
-348.504294907983
 20
173.4156300730244
 30
0.0
  0
VERTEX
  5
635
  8
1
  6
CONTINUOUS
 62
     7
 10
-348.5056576558703
 20
173.4185863529454
 30
0.0
  0
VERTEX
  5
636
  8
1
  6
CONTINUOUS
 62
     7
 10
-348.5070202243471
 20
173.4217497612441
 30
0.0
  0
VERTEX
  5
637
  8
1
  6
CONTINUOUS
 62
     7
 10
-348.5083826134854
 20
173.4251202900939
 30
0.0
  0
VERTEX
  5
638
  8
1
  6
CONTINUOUS
 62
     7
 10
-348.5097448233569
 20
173.4286979316686
 30
0.0
  0
SEQEND
  5
650
  8
1
  6
CONTINUOUS
 62
     7
  0
LINE
  5
E3
  8
1
  6
CONTINUOUS
 62
     7
 10
-349.4069278938973
 20
196.6399428153879
 30
0.0
 11
-349.4763782197451
 21
197.0
 31
0.0
  0
ARC
  5
E4
  8
1
  6
CONTINUOUS
 62
     7
 10
4371.623459024356
 20
322.7721220426726
 30
0.0
 40
4722.48983088247
 50
181.5415781106198
 51
181.811438823774
  0
LINE
  5
E5
  8
1
  6
CONTINUOUS
 62
     7
 10
-348.5063993760197
 20
173.4927777729862
 30
0.0
 11
-348.4770021634684
 21
173.4000134865964
 31
0.0
  0
LINE
  5
E6
  8
1
  6
CONTINUOUS
 62
     7
 10
-350.2084287010431
 20
173.4000000000046
 30
0.0
 11
-350.2196649830324
 21
173.4070392480519
 31
0.0
  0
LINE
  5
E7
  8
1
  6
CONTINUOUS
 62
     7
 10
-352.2084292316961
 20
173.4000000000034
 30
0.0
 11
-352.2421368924843
 21
173.4633003112122
 31
0.0
  0
LINE
  5
E8
  8
1
  6
CONTINUOUS
 62
     7
 10
-354.2084289867757
 20
173.4
 30
0.0
 11
-354.2646088025967
 21
173.5755420478259
 31
0.0
  0
LINE
  5
E9
  8
1
  6
CONTINUOUS
 62
     7
 10
-356.2084287418718
 20
173.4000000000034
 30
0.0
 11
-356.287080712709
 21
173.7432052743797
 31
0.0
  0
LINE
  5
EA
  8
1
  6
CONTINUOUS
 62
     7
 10
-356.3763785868312
 20
195.9999999999941
 30
0.0
 11
-356.3314343995186
 21
195.8875479663046
 31
0.0
  0
LINE
  5
EB
  8
1
  6
CONTINUOUS
 62
     7
 10
-354.3763779337265
 20
195.9999999999941
 30
0.0
 11
-354.3089624894063
 21
195.7475082486962
 31
0.0
  0
LINE
  5
EC
  8
1
  6
CONTINUOUS
 62
     7
 10
-352.3763784235608
 20
195.9999999999985
 30
0.0
 11
-352.2864905792942
 21
195.5524304007006
 31
0.0
  0
ARC
  5
ED
  8
1
  6
CONTINUOUS
 62
     7
 10
-360.536446032224
 20
183.0890194537294
 30
0.0
 40
19.99999999999999
 50
130.921921106997
 51
149.2358233646284
  0
ARC
  5
EE
  8
1
  6
CONTINUOUS
 62
     7
 10
-360.536446032224
 20
186.3109805462706
 30
0.0
 40
19.99999999999999
 50
210.7641766353716
 51
229.0734343634167
  0
ARC
  5
EF
  8
1
  6
CONTINUOUS
 62
     7
 10
-377.2924036235296
 20
176.3366191532606
 30
0.0
 40
0.5000000000000004
 50
180.0
 51
210.7641766353712
  0
ARC
  5
F0
  8
1
  6
CONTINUOUS
 62
     7
 10
-377.2924036235296
 20
193.0633808467394
 30
0.0
 40
0.4999999999999796
 50
149.2358233646288
 51
180.0
  0
ARC
  5
F1
  8
1
  6
CONTINUOUS
 62
     7
 10
-333.9424036235296
 20
170.25
 30
0.0
 40
1.250000000000029
 50
180.0000000000001
 51
269.9999999999994
  0
ARC
  5
F2
  8
1
  6
CONTINUOUS
 62
     7
 10
-317.4424036235296
 20
199.15
 30
0.0
 40
1.250000000000029
 50
0.0
 51
90.0
  0
ARC
  5
F3
  8
1
  6
CONTINUOUS
 62
     7
 10
-317.4424036235296
 20
170.25
 30
0.0
 40
1.249999999999973
 50
270.0
 51
0.0
  0
LINE
  5
F4
  8
1
  6
CONTINUOUS
 62
     7
 10
-333.9424036235296
 20
168.9999999999999
 30
0.0
 11
-317.4424036235296
 21
168.9999999999999
 31
0.0
  0
ARC
  5
F5
  8
1
  6
CONTINUOUS
 62
     7
 10
-333.9424036235296
 20
199.15
 30
0.0
 40
1.250000000000001
 50
90.00000000000064
 51
179.9999999999999
  0
LINE
  5
F6
  8
1
  6
CONTINUOUS
 62
     7
 10
-317.4424036235296
 20
200.4
 30
0.0
 11
-333.9424036235296
 21
200.4
 31
0.0
  0
ARC
  5
F7
  8
1
  6
CONTINUOUS
 62
     7
 10
-346.658482390733
 20
198.3
 30
0.0
 40
0.5000000000000004
 50
90.0
 51
164.9999999999999
  0
ARC
  5
F8
  8
1
  6
CONTINUOUS
 62
     7
 10
-346.658482390733
 20
171.1
 30
0.0
 40
0.4999999999999986
 50
195.0000000000001
 51
269.9999999999999
  0
LINE
  5
F9
  8
1
  6
CONTINUOUS
 62
     7
 10
-346.658482390733
 20
170.6
 30
0.0
 11
-335.1924036235296
 21
170.6
 31
0.0
  0
LINE
  5
FA
  8
1
  6
CONTINUOUS
 62
     7
 10
-335.1924036235296
 20
198.8
 30
0.0
 11
-346.658482390733
 21
198.8
 31
0.0
  0
LINE
  5
FB
  8
1
  6
CONTINUOUS
 62
     7
 10
-347.1414453038775
 20
198.4294095225513
 30
0.0
 11
-347.7924036235296
 21
196.0
 31
0.0
  0
LINE
  5
FC
  8
1
  6
CONTINUOUS
 62
     7
 10
-347.7924036235296
 20
173.4
 30
0.0
 11
-347.1414453038775
 21
170.9705904774488
 31
0.0
  0
LINE
  5
FD
  8
1
  6
CONTINUOUS
 62
     7
 10
-357.4097996179851
 20
173.4626661580443
 30
0.0
 11
-357.1391092790211
 21
172.4575806162545
 31
0.0
  0
LINE
  5
FE
  8
1
  6
CONTINUOUS
 62
     7
 10
-355.409804379816
 20
173.4624474545758
 30
0.0
 11
-355.1392085744863
 21
172.4577139503187
 31
0.0
  0
LINE
  5
FF
  8
1
  6
CONTINUOUS
 62
     7
 10
-353.4104804466323
 20
173.4647883514674
 30
0.0
 11
-353.1399348166868
 21
172.4602042692741
 31
0.0
  0
LINE
  5
100
  8
1
  6
CONTINUOUS
 62
     7
 10
-351.4088654865967
 20
173.4589733548043
 30
0.0
 11
-351.138309429686
 21
172.4543048458476
 31
0.0
  0
LINE
  5
101
  8
1
  6
CONTINUOUS
 62
     7
 10
-350.1605970218436
 20
196.8346793507573
 30
0.0
 11
-350.3866563785595
 21
195.9999689650428
 31
0.0
  0
LINE
  5
102
  8
1
  6
CONTINUOUS
 62
     7
 10
-352.1389938345255
 20
196.9433053245121
 30
0.0
 11
-352.3930232434266
 21
195.9999875272215
 31
0.0
  0
LINE
  5
103
  8
1
  6
CONTINUOUS
 62
     7
 10
-354.137971176893
 20
196.946946719319
 30
0.0
 11
-354.3929989031298
 21
195.9999889919816
 31
0.0
  0
LINE
  5
104
  8
1
  6
CONTINUOUS
 62
     7
 10
-356.1382358744702
 20
196.9457032777623
 30
0.0
 11
-356.3929292340615
 21
195.9999887438201
 31
0.0
  0
LINE
  5
105
  8
1
  6
CONTINUOUS
 62
     7
 10
-357.1084696469754
 20
172.4003619362751
 30
0.0
 11
-356.4764187992041
 21
172.4003619357815
 31
0.0
  0
LINE
  5
106
  8
1
  6
CONTINUOUS
 62
     7
 10
-355.1084290474875
 20
172.4005129457335
 30
0.0
 11
-354.4763781995717
 21
172.4005129457335
 31
0.0
  0
LINE
  5
107
  8
1
  6
CONTINUOUS
 62
     7
 10
-353.1083884478551
 20
172.4003619357815
 30
0.0
 11
-352.4763376000838
 21
172.4003619362751
 31
0.0
  0
LINE
  5
108
  8
1
  6
CONTINUOUS
 62
     7
 10
-351.1083401786681
 20
172.4000674469339
 30
0.0
 11
-350.4762893307155
 21
172.4000674473596
 31
0.0
  0
LINE
  5
109
  8
1
  6
CONTINUOUS
 62
     7
 10
-351.4762733107861
 20
196.99978854832
 30
0.0
 11
-352.1083241585326
 21
196.9997885488819
 31
0.0
  0
LINE
  5
10A
  8
1
  6
CONTINUOUS
 62
     7
 10
-353.4763680882187
 20
196.9995273857412
 30
0.0
 11
-354.1084189360982
 21
196.9995273860249
 31
0.0
  0
LINE
  5
10B
  8
1
  6
CONTINUOUS
 62
     7
 10
-355.476388310961
 20
196.9995273860249
 30
0.0
 11
-356.1084391588405
 21
196.9995273857412
 31
0.0
  0
LINE
  5
10C
  8
1
  6
CONTINUOUS
 62
     7
 10
-357.4764830885265
 20
196.9997885488819
 30
0.0
 11
-357.7924036235296
 21
196.999788549135
 31
0.0
  0
LINE
  5
10D
  8
1
  6
CONTINUOUS
 62
     7
 10
-356.4448724303724
 20
172.4602042692741
 30
0.0
 11
-356.1917788826341
 21
173.4000133638704
 31
0.0
  0
LINE
  5
10E
  8
1
  6
CONTINUOUS
 62
     7
 10
-354.4455986725728
 20
172.4577139503187
 30
0.0
 11
-354.1918248629115
 21
173.4000125385389
 31
0.0
  0
LINE
  5
10F
  8
1
  6
CONTINUOUS
 62
     7
 10
-352.4456979680381
 20
172.4575806162545
 30
0.0
 11
-352.1918885429365
 21
173.4000127080191
 31
0.0
  0
LINE
  5
110
  8
1
  6
CONTINUOUS
 62
     7
 10
-350.4466940285519
 20
172.4538793862655
 30
0.0
 11
-350.1918957554665
 21
173.4000114590134
 31
0.0
  0
LINE
  5
111
  8
1
  6
CONTINUOUS
 62
     7
 10
-351.1743265219741
 20
195.9347419418953
 30
0.0
 11
-351.4448651507626
 21
196.9392634234676
 31
0.0
  0
LINE
  5
112
  8
1
  6
CONTINUOUS
 62
     7
 10
-353.1760256064157
 20
195.9411509202572
 30
0.0
 11
-353.4465713725889
 21
196.9457032777623
 31
0.0
  0
LINE
  5
113
  8
1
  6
CONTINUOUS
 62
     7
 10
-355.1761431495851
 20
195.9418455072194
 30
0.0
 11
-355.4468360701661
 21
196.946946719319
 31
0.0
  0
LINE
  5
114
  8
1
  6
CONTINUOUS
 62
     7
 10
-357.1751164687741
 20
195.9381212678055
 30
0.0
 11
-357.4458134125336
 21
196.9433053245121
 31
0.0
  0
LINE
  5
115
  8
1
  6
CONTINUOUS
 62
     7
 10
-349.2108481212279
 20
173.7589913255798
 30
0.0
 11
-349.188642338516
 21
173.6780426407016
 31
0.0
  0
LINE
  5
116
  8
1
  6
CONTINUOUS
 62
     7
 10
-349.1417955887821
 20
173.4285811222967
 30
0.0
 11
-348.5097262249215
 21
173.4286476878556
 31
0.0
  0
LINE
  5
117
  8
1
  6
CONTINUOUS
 62
     7
 10
-349.1569782467427
 20
195.7253459862665
 30
0.0
 11
-349.4069327259153
 21
196.639987695786
 31
0.0
  0
LINE
  5
118
  8
1
  6
CONTINUOUS
 62
     7
 10
-350.2084287010431
 20
173.4
 30
0.0
 11
-349.1255000950278
 21
173.4
 31
0.0
  0
LINE
  5
119
  8
1
  6
CONTINUOUS
 62
     7
 10
-352.2084292316961
 20
173.4
 30
0.0
 11
-351.3929807936356
 21
173.4
 31
0.0
  0
LINE
  5
11A
  8
1
  6
CONTINUOUS
 62
     7
 10
-354.2084289867757
 20
173.4
 30
0.0
 11
-353.393028364425
 21
173.4
 31
0.0
  0
LINE
  5
11B
  8
1
  6
CONTINUOUS
 62
     7
 10
-356.2084287418718
 20
173.4
 30
0.0
 11
-355.3929823841477
 21
173.4
 31
0.0
  0
LINE
  5
11C
  8
1
  6
CONTINUOUS
 62
     7
 10
-357.7924036235296
 20
173.4
 30
0.0
 11
-357.3929187041227
 21
173.4
 31
0.0
  0
LINE
  5
11D
  8
1
  6
CONTINUOUS
 62
     7
 10
-356.3763785868312
 20
196.0
 30
0.0
 11
-357.1917840036326
 21
196.0
 31
0.0
  0
LINE
  5
11E
  8
1
  6
CONTINUOUS
 62
     7
 10
-354.3763779337265
 20
196.0
 30
0.0
 11
-355.1918083439294
 21
196.0
 31
0.0
  0
LINE
  5
11F
  8
1
  6
CONTINUOUS
 62
     7
 10
-352.3763784235608
 20
196.0
 30
0.0
 11
-353.1918780129978
 21
196.0
 31
0.0
  0
LINE
  5
120
  8
1
  6
CONTINUOUS
 62
     7
 10
-350.3763782197452
 20
196.0
 30
0.0
 11
-351.1919058253938
 21
196.0
 31
0.0
  0
LINE
  5
121
  8
1
  6
CONTINUOUS
 62
     7
 10
-347.7924036235296
 20
196.0
 30
0.0
 11
-349.208429027314
 21
196.0
 31
0.0
  0
ENDBLK
  8
0
  0
BLOCK
  8
0
  2
D_FRAME_VIEW_3171
 70
     0
 10
0.0
 20
0.0
 30
0.0
  0
CIRCLE
  5
126
  8
1
  6
CONTINUOUS
 62
     7
 10
-416.949245871223
 20
184.7
 30
0.0
 40
5.8
  0
CIRCLE
  5
127
  8
1
  6
CONTINUOUS
 62
     7
 10
-416.949245871223
 20
184.7
 30
0.0
 40
6.6
  0
CIRCLE
  5
128
  8
1
  6
CONTINUOUS
 62
     7
 10
-416.949245871223
 20
184.7
 30
0.0
 40
7.5
  0
ARC
  5
129
  8
1
  6
CONTINUOUS
 62
     7
 10
-407.1342912949993
 20
184.7
 30
0.0
 40
4.999999999999964
 50
329.9999999999712
 51
29.99999999999944
  0
LINE
  5
12A
  8
1
  6
CONTINUOUS
 62
     7
 10
-407.7116415641891
 20
173.7
 30
0.0
 11
-402.8041642760784
 21
182.1999999999979
 31
0.0
  0
ARC
  5
12B
  8
1
  6
CONTINUOUS
 62
     7
 10
-412.0417685831111
 20
176.1999999999997
 30
0.0
 40
4.999999999999701
 50
270.0000000000009
 51
330.0000000000024
  0
LINE
  5
12C
  8
1
  6
CONTINUOUS
 62
     7
 10
-421.8567231593349
 20
171.2
 30
0.0
 11
-412.041768583111
 21
171.2
 31
0.0
  0
ARC
  5
12D
  8
1
  6
CONTINUOUS
 62
     7
 10
-421.856723159335
 20
176.1999999999998
 30
0.0
 40
4.999999999999806
 50
209.9999999999985
 51
270.0000000000006
  0
LINE
  5
12E
  8
1
  6
CONTINUOUS
 62
     7
 10
-431.0943274663689
 20
182.2
 30
0.0
 11
-426.1868501782571
 21
173.7
 31
0.0
  0
ARC
  5
12F
  8
1
  6
CONTINUOUS
 62
     7
 10
-426.7642004474466
 20
184.7
 30
0.0
 40
5.000000000000077
 50
149.9999999999727
 51
209.9999999999997
  0
LINE
  5
130
  8
1
  6
CONTINUOUS
 62
     7
 10
-426.1868501782571
 20
195.7
 30
0.0
 11
-431.0943274663676
 21
187.2000000000021
 31
0.0
  0
ARC
  5
131
  8
1
  6
CONTINUOUS
 62
     7
 10
-421.856723159335
 20
193.2000000000002
 30
0.0
 40
4.999999999999755
 50
89.99999999996562
 51
150.0000000000019
  0
LINE
  5
132
  8
1
  6
CONTINUOUS
 62
     7
 10
-412.0417685831112
 20
198.2
 30
0.0
 11
-421.856723159332
 21
198.2
 31
0.0
  0
ARC
  5
133
  8
1
  6
CONTINUOUS
 62
     7
 10
-412.0417685831114
 20
193.1999999999997
 30
0.0
 40
5.000000000000268
 50
30.00000000000148
 51
89.99999999999808
  0
LINE
  5
134
  8
1
  6
CONTINUOUS
 62
     7
 10
-402.8041642760772
 20
187.2
 30
0.0
 11
-407.711641564189
 21
195.7
 31
0.0
  0
ARC
  5
135
  8
1
  6
CONTINUOUS
 62
     7
 10
-416.949245871223
 20
184.7
 30
0.0
 40
15.70000000000005
 50
190.6719292857622
 51
353.6002285478107
  0
ARC
  5
136
  8
1
  6
CONTINUOUS
 62
     7
 10
-401.029446877517
 20
187.7
 30
0.0
 40
0.4999999999999984
 50
190.6719292857621
 51
270.0
  0
ARC
  5
137
  8
1
  6
CONTINUOUS
 62
     7
 10
-401.340705859508
 20
189.5708957036761
 30
0.0
 40
2.381412452067841
 50
231.7784635816893
 51
264.6133219620694
  0
ARC
  5
138
  8
1
  6
CONTINUOUS
 62
     9
 10
-416.949245871223
 20
184.7
 30
0.0
 40
14.45000000000002
 50
11.98247269411519
 51
50.00563380774918
  0
ARC
  5
139
  8
1
  6
CONTINUOUS
 62
     7
 10
-432.8690448649289
 20
181.7
 30
0.0
 40
0.5000000000000017
 50
10.67192928576208
 51
89.99999999999996
  0
ARC
  5
13A
  8
1
  6
CONTINUOUS
 62
     7
 10
-432.557785882938
 20
179.8291042963238
 30
0.0
 40
2.381412452067883
 50
51.77846358168966
 51
84.61332196206905
  0
LINE
  5
13B
  8
1
  6
CONTINUOUS
 62
     7
 10
-433.9665899648235
 20
182.2
 30
0.0
 11
-432.3342264296513
 21
182.2
 31
0.0
  0
LINE
  5
13C
  8
1
  6
CONTINUOUS
 62
     7
 10
-399.9319017776225
 20
187.2
 30
0.0
 11
-401.5642653127946
 21
187.2
 31
0.0
  0
ARC
  5
13D
  8
1
  6
CONTINUOUS
 62
     7
 10
-416.949245871223
 20
184.7
 30
0.0
 40
14.30000000000003
 50
190.7982599677368
 51
229.2017400322634
  0
ARC
  5
13E
  8
1
  6
CONTINUOUS
 62
     7
 10
-416.949245871223
 20
184.7
 30
0.0
 40
14.30000000000004
 50
130.7982599677372
 51
169.2017400322631
  0
ARC
  5
13F
  8
1
  6
CONTINUOUS
 62
     7
 10
-416.949245871223
 20
184.7
 30
0.0
 40
14.30000000000003
 50
70.79825996773701
 51
109.2017400322634
  0
ARC
  5
140
  8
1
  6
CONTINUOUS
 62
     7
 10
-416.949245871223
 20
184.7
 30
0.0
 40
14.30000000000003
 50
10.79825996773661
 51
49.20174003226379
  0
ARC
  5
141
  8
1
  6
CONTINUOUS
 62
     7
 10
-416.949245871223
 20
184.7
 30
0.0
 40
14.30000000000003
 50
310.7982599677362
 51
349.2017400322637
  0
LINE
  5
142
  8
1
  6
CONTINUOUS
 62
     7
 10
-412.699245871223
 20
171.0461543878656
 30
0.0
 11
-412.699245871223
 21
171.2
 31
0.0
  0
LINE
  5
143
  8
1
  6
CONTINUOUS
 62
     7
 10
-421.199245871223
 20
171.2
 30
0.0
 11
-421.199245871223
 21
171.0461543878657
 31
0.0
  0
LINE
  5
144
  8
1
  6
CONTINUOUS
 62
     7
 10
-412.699245871223
 20
198.3538456121343
 30
0.0
 11
-412.699245871223
 21
198.2
 31
0.0
  0
LINE
  5
145
  8
1
  6
CONTINUOUS
 62
     7
 10
-421.199245871223
 20
198.2
 30
0.0
 11
-421.199245871223
 21
198.3538456121343
 31
0.0
  0
LINE
  5
146
  8
1
  6
CONTINUOUS
 62
     7
 10
-428.1553298228367
 20
193.5833373497456
 30
0.0
 11
-428.1531598303831
 21
193.5817607579426
 31
0.0
  0
LINE
  5
147
  8
1
  6
CONTINUOUS
 62
     7
 10
-405.0396451155102
 20
192.6111906540903
 30
0.0
 11
-405.0378196168538
 21
192.612516956499
 31
0.0
  0
LINE
  5
148
  8
1
  6
CONTINUOUS
 62
     7
 10
-405.7431619196093
 20
175.8166626502544
 30
0.0
 11
-405.7474239742963
 21
175.8197592142412
 31
0.0
  0
LINE
  5
149
  8
1
  6
CONTINUOUS
 62
     7
 10
-428.8588466269358
 20
176.7888093459097
 30
0.0
 11
-428.8606721255923
 21
176.787483043501
 31
0.0
  0
ARC
  5
14A
  8
1
  6
CONTINUOUS
 62
     9
 10
-416.949245871223
 20
184.7
 30
0.0
 40
13.72940952255126
 50
19.61718536119754
 51
40.38281463880232
  0
ARC
  5
14B
  8
1
  6
CONTINUOUS
 62
     7
 10
-416.949245871223
 20
184.7
 30
0.0
 40
14.1
 50
313.2892916116689
 51
346.7107083883312
  0
ARC
  5
14C
  8
1
  6
CONTINUOUS
 62
     7
 10
-416.949245871223
 20
184.7
 30
0.0
 40
14.1
 50
253.2892916116694
 51
286.7107083883309
  0
ARC
  5
14D
  8
1
  6
CONTINUOUS
 62
     7
 10
-416.949245871223
 20
184.7
 30
0.0
 40
14.1
 50
193.2892916116695
 51
226.7107083883298
  0
ARC
  5
14E
  8
1
  6
CONTINUOUS
 62
     7
 10
-416.949245871223
 20
184.7
 30
0.0
 40
14.1
 50
133.2892916116697
 51
166.7107083883308
  0
ARC
  5
14F
  8
1
  6
CONTINUOUS
 62
     7
 10
-416.949245871223
 20
184.7
 30
0.0
 40
14.1
 50
73.28929161166889
 51
106.7107083883312
  0
ARC
  5
150
  8
1
  6
CONTINUOUS
 62
     7
 10
-416.949245871223
 20
184.7
 30
0.0
 40
14.1
 50
13.28929161166849
 51
46.71070838833157
  0
ARC
  5
151
  8
1
  6
CONTINUOUS
 62
     7
 10
-400.1115649145116
 20
186.15
 30
0.0
 40
0.2999999999999999
 50
4.921961504646902
 51
90.0
  0
ARC
  5
152
  8
1
  6
CONTINUOUS
 62
     7
 10
-433.7869268279343
 20
183.25
 30
0.0
 40
0.2999999999999999
 50
184.921961504647
 51
270.0
  0
ENDBLK
  8
0
  0
ENDSEC
  0
SECTION
  2
ENTITIES
  0
INSERT
  5
122
  8
1
  6
CONTINUOUS
 62
     7
  2
D_FRAME_VIEW_3550
 10
0.0
 20
0.0
 30
0.0
  0
INSERT
  5
153
  8
1
  6
CONTINUOUS
 62
     7
  2
D_FRAME_VIEW_3171
 10
0.0
 20
0.0
 30
0.0
  0
ARC
  5
154
  8
1
  6
CONTINUOUS
 62
     7
 10
-416.949245871223
 20
184.7
 30
0.0
 40
17.20000000000001
 50
355.0780384953539
 51
8.35748009566629
  0
LINE
  5
155
  8
1
  6
CONTINUOUS
 62
     7
 10
-428.1553298228367
 20
175.8166626502544
 30
0.0
 11
-427.9910407699911
 21
175.9360256340325
 31
0.0
  0
ARC
  5
156
  8
1
  6
CONTINUOUS
 62
     7
 10
-433.7869268279343
 20
186.15
 30
0.0
 40
0.3
 50
90.0
 51
175.0780384953554
  0
ARC
  5
157
  8
1
  6
CONTINUOUS
 62
     7
 10
-416.949245871223
 20
184.7
 30
0.0
 40
15.70000000000005
 50
10.67192928576219
 51
173.6002285478108
  0
LINE
  5
158
  8
1
  6
CONTINUOUS
 62
     7
 10
-431.4475671325203
 20
182.95
 30
0.0
 11
-433.7869268279343
 21
182.95
 31
0.0
  0
LINE
  5
159
  8
1
  6
CONTINUOUS
 62
     7
 10
-405.2020946182976
 20
176.9068358183387
 30
0.0
 11
-405.0378196168538
 21
176.787483043501
 31
0.0
  0
LINE
  5
15A
  8
1
  6
CONTINUOUS
 62
     7
 10
-352.6915750947315
 20
184.1019664054463
 30
0.0
 11
-352.8039801658651
 21
188.0414041472954
 31
0.0
  0
LINE
  5
15B
  8
1
  6
CONTINUOUS
 62
     7
 10
-403.0987999663192
 20
181.142592483938
 30
0.0
 11
-403.3801183107857
 21
181.2023885439725
 31
0.0
  0
LINE
  5
15C
  8
1
  6
CONTINUOUS
 62
     7
 10
-335.5924036235296
 20
182.95
 30
0.0
 11
-344.8425546446658
 21
182.95
 31
0.0
  0
LINE
  5
15D
  8
1
  6
CONTINUOUS
 62
     7
 10
-335.1924036235296
 20
183.7
 30
0.0
 11
-317.9037773275119
 21
183.7
 31
0.0
  0
LINE
  5
15E
  8
1
  6
CONTINUOUS
 62
     7
 10
-347.7924036235296
 20
173.4
 30
0.0
 11
-347.7924036235296
 21
196.0
 31
0.0
  0
LINE
  5
15F
  8
1
  6
CONTINUOUS
 62
     7
 10
-402.4509246099258
 20
186.45
 30
0.0
 11
-400.1115649145117
 21
186.45
 31
0.0
  0
LINE
  5
160
  8
1
  6
CONTINUOUS
 62
     7
 10
-405.7431619196093
 20
193.5833373497456
 30
0.0
 11
-405.9074501576387
 21
193.4639749579662
 31
0.0
  0
LINE
  5
161
  8
1
  6
CONTINUOUS
 62
     7
 10
-349.1093000533603
 20
173.4
 30
0.0
 11
-348.4934071760735
 21
173.4
 31
0.0
  0
LINE
  5
162
  8
1
  6
CONTINUOUS
 62
     7
 10
-335.1924036235296
 20
199.15
 30
0.0
 11
-335.1924036235296
 21
170.2499999999999
 31
0.0
  0
LINE
  5
163
  8
1
  6
CONTINUOUS
 62
     7
 10
-430.7996917761267
 20
188.257407516062
 30
0.0
 11
-430.6010579439891
 21
188.2151865916715
 31
0.0
  0
LINE
  5
164
  8
1
  6
CONTINUOUS
 62
     7
 10
-317.857303561165
 20
187.2
 30
0.0
 11
-335.1924036235296
 21
187.2
 31
0.0
  0
ARC
  5
165
  8
1
  6
CONTINUOUS
 62
     7
 10
-416.949245871223
 20
184.7
 30
0.0
 40
17.20000000000001
 50
175.0780384953539
 51
188.3574800956662
  0
ARC
  5
166
  8
1
  6
CONTINUOUS
 62
     7
 10
-416.949245871223
 20
184.7
 30
0.0
 40
14.30000000000003
 50
250.7982599677364
 51
289.2017400322627
  0
LINE
  5
167
  8
1
  6
CONTINUOUS
 62
     7
 10
-403.0987999663192
 20
188.257407516062
 30
0.0
 11
-403.2974347836162
 21
188.2151863822694
 31
0.0
  0
LINE
  5
168
  8
1
  6
CONTINUOUS
 62
     7
 10
-400.1115649145116
 20
182.95
 30
0.0
 11
-402.4509869868936
 21
182.95
 31
0.0
  0
ARC
  5
169
  8
1
  6
CONTINUOUS
 62
     7
 10
-400.1115649145116
 20
183.25
 30
0.0
 40
0.3000000000000001
 50
270.0
 51
355.0780384953553
  0
LINE
  5
16A
  8
1
  6
CONTINUOUS
 62
     7
 10
-344.8425546446659
 20
186.45
 30
0.0
 11
-335.5924036235296
 21
186.45
 31
0.0
  0
LINE
  5
16B
  8
1
  6
CONTINUOUS
 62
     7
 10
-354.6016874542821
 20
180.9812970908455
 30
0.0
 11
-354.8257019135947
 21
188.7929896194644
 31
0.0
  0
LINE
  5
16C
  8
1
  6
CONTINUOUS
 62
     7
 10
-355.9943557478333
 20
188.79296672997
 30
0.0
 11
-355.7689275719521
 21
180.9813148355516
 31
0.0
  0
LINE
  5
16D
  8
1
  6
CONTINUOUS
 62
     7
 10
-377.7924036235296
 20
176.3366191532606
 30
0.0
 11
-377.7924036235296
 21
193.0633808467394
 31
0.0
  0
LINE
  5
16E
  8
1
  6
CONTINUOUS
 62
     7
 10
-335.5924036235296
 20
186.45
 30
0.0
 11
-335.5924036235296
 21
182.95
 31
0.0
  0
LINE
  5
16F
  8
1
  6
CONTINUOUS
 62
     7
 10
-357.7924036235296
 20
198.2
 30
0.0
 11
-357.7924036235296
 21
171.2
 31
0.0
  0
LINE
  5
170
  8
1
  6
CONTINUOUS
 62
     7
 10
-357.7924036235296
 20
171.2
 30
0.0
 11
-373.6382881519502
 21
171.2
 31
0.0
  0
LINE
  5
171
  8
1
  6
CONTINUOUS
 62
     9
 10
-347.1414453038775
 20
170.9705904774488
 30
0.0
 11
-347.1414453038775
 21
198.4294095225513
 31
0.0
  0
LINE
  5
172
  8
1
  6
CONTINUOUS
 62
     7
 10
-433.7869268279343
 20
186.45
 30
0.0
 11
-431.4475047555525
 21
186.45
 31
0.0
  0
LINE
  5
173
  8
1
  6
CONTINUOUS
 62
     7
 10
-348.4771948418214
 20
173.4
 30
0.0
 11
-347.7924036235296
 21
173.4
 31
0.0
  0
LINE
  5
174
  8
1
  6
CONTINUOUS
 62
     7
 10
-373.6382881519447
 20
198.2
 30
0.0
 11
-357.7924036235296
 21
198.2
 31
0.0
  0
LINE
  5
175
  8
1
  6
CONTINUOUS
 62
     7
 10
-430.7996917761267
 20
181.142592483938
 30
0.0
 11
-430.6010579439891
 21
181.1848134083286
 31
0.0
  0
LINE
  5
176
  8
1
  6
CONTINUOUS
 62
     7
 10
-428.6963990182115
 20
192.4931655577787
 30
0.0
 11
-428.8606721255923
 21
192.612516956499
 31
0.0
  0
TEXT
  5
177
  8
1
  6
CONTINUOUS
 62
     7
 10
-396.225784669251
 20
153.0284200325122
 30
0.0
 40
3.0
  1
GLMFS-16D11
  0
ENDSEC
  0
EOF
