  0
SECTION
  2
HEADER
  9
$ACADVER
  1
AC1006
  9
$DWGCODEPAGE
  3
ansi_932
  9
$INSBASE
 10
0.0
 20
0.0
 30
0.0
  9
$EXTMIN
 10
-434.149245871223
 20
153.3704545454545
  9
$EXTMAX
 10
-316.1924036235296
 20
205.4000000000001
  9
$LIMMIN
 10
0.0
 20
0.0
  9
$LIMMAX
 10
12.0
 20
9.0
  9
$ORTHOMODE
 70
     0
  9
$REGENMODE
 70
     1
  9
$FILLMODE
 70
     1
  9
$QTEXTMODE
 70
     0
  9
$MIRRTEXT
 70
     1
  9
$DRAGMODE
 70
     2
  9
$LTSCALE
 40
1.0
  9
$OSMODE
 70
    37
  9
$ATTMODE
 70
     1
  9
$TEXTSIZE
 40
0.2
  9
$TRACEWID
 40
0.05
  9
$TEXTSTYLE
  7
STANDARD
  9
$CLAYER
  8
0
  9
$CELTYPE
  6
BYLAYER
  9
$CECOLOR
 62
   256
  9
$DIMSCALE
 40
1.0
  9
$DIMASZ
 40
3.0
  9
$DIMEXO
 40
0.0625
  9
$DIMDLI
 40
0.38
  9
$DIMRND
 40
0.0
  9
$DIMDLE
 40
0.0
  9
$DIMEXE
 40
1.5
  9
$DIMTP
 40
0.0
  9
$DIMTM
 40
0.0
  9
$DIMTXT
 40
3.0
  9
$DIMCEN
 40
0.09
  9
$DIMTSZ
 40
0.0
  9
$DIMTOL
 70
     0
  9
$DIMLIM
 70
     0
  9
$DIMTIH
 70
     1
  9
$DIMTOH
 70
     1
  9
$DIMSE1
 70
     0
  9
$DIMSE2
 70
     0
  9
$DIMTAD
 70
     1
  9
$DIMZIN
 70
     0
  9
$DIMBLK
  1

  9
$DIMASO
 70
     1
  9
$DIMSHO
 70
     1
  9
$DIMPOST
  1

  9
$DIMAPOST
  1

  9
$DIMALT
 70
     0
  9
$DIMALTD
 70
     2
  9
$DIMALTF
 40
25.4
  9
$DIMLFAC
 40
1.0
  9
$DIMTOFL
 70
     0
  9
$DIMTVP
 40
0.0
  9
$DIMTIX
 70
     0
  9
$DIMSOXD
 70
     0
  9
$DIMSAH
 70
     0
  9
$DIMBLK1
  1

  9
$DIMBLK2
  1

  9
$LUNITS
 70
     2
  9
$LUPREC
 70
     4
  9
$SKETCHINC
 40
0.1
  9
$FILLETRAD
 40
0.5
  9
$AUNITS
 70
     0
  9
$AUPREC
 70
     0
  9
$MENU
  1
.
  9
$ELEVATION
 40
0.0
  9
$THICKNESS
 40
0.0
  9
$LIMCHECK
 70
     0
  9
$CHAMFERA
 40
0.0
  9
$CHAMFERB
 40
0.0
  9
$SKPOLY
 70
     0
  9
$TDCREATE
 40
2459289.41096765
  9
$TDUPDATE
 40
2459289.410967836
  9
$TDINDWG
 40
0.0000000116
  9
$TDUSRTIMER
 40
0.0000000116
  9
$USRTIMER
 70
     1
  9
$ANGBASE
 50
0.0
  9
$ANGDIR
 70
     0
  9
$PDMODE
 70
     0
  9
$PDSIZE
 40
0.0
  9
$PLINEWID
 40
0.0
  9
$COORDS
 70
     1
  9
$SPLFRAME
 70
     0
  9
$SPLINETYPE
 70
     6
  9
$SPLINESEGS
 70
     8
  9
$ATTDIA
 70
     0
  9
$ATTREQ
 70
     1
  9
$HANDLING
 70
     1
  9
$HANDSEED
  5
68C
  9
$SURFTAB1
 70
     6
  9
$SURFTAB2
 70
     6
  9
$SURFTYPE
 70
     6
  9
$SURFU
 70
     6
  9
$SURFV
 70
     6
  9
$UCSNAME
  2

  9
$UCSORG
 10
0.0
 20
0.0
 30
0.0
  9
$UCSXDIR
 10
1.0
 20
0.0
 30
0.0
  9
$UCSYDIR
 10
0.0
 20
1.0
 30
0.0
  9
$USERI1
 70
     0
  9
$USERI2
 70
     0
  9
$USERI3
 70
     0
  9
$USERI4
 70
     0
  9
$USERI5
 70
     0
  9
$USERR1
 40
0.0
  9
$USERR2
 40
0.0
  9
$USERR3
 40
0.0
  9
$USERR4
 40
0.0
  9
$USERR5
 40
0.0
  9
$WORLDVIEW
 70
     1
  0
ENDSEC
  0
SECTION
  2
TABLES
  0
TABLE
  2
VPORT
 70
     1
  0
VPORT
  2
*ACTIVE
 70
     0
 10
0.0
 20
0.0
 11
1.0
 21
1.0
 12
-375.1708247473763
 22
179.3852272727273
 13
0.0
 23
0.0
 14
0.5
 24
0.5
 15
0.5
 25
0.5
 16
0.0
 26
0.0
 36
1.0
 17
0.0
 27
0.0
 37
0.0
 40
52.02954545454551
 41
1.6
 42
50.0
 43
0.0
 44
0.0
 50
0.0
 51
0.0
 71
     0
 72
   100
 73
     1
 74
     3
 75
     0
 76
     0
 77
     0
 78
     0
  0
ENDTAB
  0
TABLE
  2
LTYPE
 70
     1
  0
LTYPE
  2
CONTINUOUS
 70
     0
  3
Solid line
 72
    65
 73
     0
 40
0.0
  0
ENDTAB
  0
TABLE
  2
LAYER
 70
     2
  0
LAYER
  2
0
 70
     0
 62
     7
  6
CONTINUOUS
  0
LAYER
  2
1
 70
     0
 62
     7
  6
CONTINUOUS
  0
ENDTAB
  0
TABLE
  2
STYLE
 70
     2
  0
STYLE
  2
STANDARD
 70
     0
 40
0.0
 41
1.0
 50
0.0
 71
     0
 42
0.2
  3
txt
  4

  0
STYLE
  2
ＭＳ_ゴシック
 70
     0
 40
0.0
 41
1.0
 50
0.0
 71
     0
 42
0.2
  3
ＭＳ ゴシック.shx
  4

  0
ENDTAB
  0
TABLE
  2
VIEW
 70
     0
  0
ENDTAB
  0
TABLE
  2
UCS
 70
     0
  0
ENDTAB
  0
ENDSEC
  0
SECTION
  2
BLOCKS
  0
BLOCK
  8
0
  2
D_FRAME_VIEW_3133
 70
     0
 10
0.0
 20
0.0
 30
0.0
  0
POLYLINE
  5
71
  8
1
  6
CONTINUOUS
 62
     7
 66
     1
 10
0.0
 20
0.0
 30
0.0
  0
VERTEX
  5
187
  8
1
  6
CONTINUOUS
 62
     7
 10
-317.4424036235296
 20
192.6074074074074
 30
0.0
  0
VERTEX
  5
188
  8
1
  6
CONTINUOUS
 62
     7
 10
-317.4426799058971
 20
192.591437368874
 30
0.0
  0
VERTEX
  5
189
  8
1
  6
CONTINUOUS
 62
     7
 10
-317.4435039243521
 20
192.5755834579427
 30
0.0
  0
VERTEX
  5
18A
  8
1
  6
CONTINUOUS
 62
     7
 10
-317.4448684359235
 20
192.5598955246148
 30
0.0
  0
VERTEX
  5
18B
  8
1
  6
CONTINUOUS
 62
     7
 10
-317.4467661976399
 20
192.5444234188917
 30
0.0
  0
VERTEX
  5
18C
  8
1
  6
CONTINUOUS
 62
     7
 10
-317.449287524893
 20
192.5286471929463
 30
0.0
  0
VERTEX
  5
18D
  8
1
  6
CONTINUOUS
 62
     7
 10
-317.4523601542311
 20
192.5131310068423
 30
0.0
  0
VERTEX
  5
18E
  8
1
  6
CONTINUOUS
 62
     7
 10
-317.4559631559183
 20
192.4979168424036
 30
0.0
  0
VERTEX
  5
18F
  8
1
  6
CONTINUOUS
 62
     7
 10
-317.4600756002184
 20
192.4830466814538
 30
0.0
  0
VERTEX
  5
190
  8
1
  6
CONTINUOUS
 62
     7
 10
-317.466159320182
 20
192.4642612867509
 30
0.0
  0
VERTEX
  5
191
  8
1
  6
CONTINUOUS
 62
     7
 10
-317.4730492184285
 20
192.4460635683542
 30
0.0
  0
VERTEX
  5
192
  8
1
  6
CONTINUOUS
 62
     7
 10
-317.4806870193888
 20
192.4284941089038
 30
0.0
  0
VERTEX
  5
193
  8
1
  6
CONTINUOUS
 62
     7
 10
-317.489014447494
 20
192.4115934910394
 30
0.0
  0
VERTEX
  5
194
  8
1
  6
CONTINUOUS
 62
     7
 10
-317.4979732271751
 20
192.3954022974009
 30
0.0
  0
VERTEX
  5
195
  8
1
  6
CONTINUOUS
 62
     7
 10
-317.5075050828635
 20
192.3799611106282
 30
0.0
  0
VERTEX
  5
196
  8
1
  6
CONTINUOUS
 62
     7
 10
-317.5182026431006
 20
192.3643839943658
 30
0.0
  0
VERTEX
  5
197
  8
1
  6
CONTINUOUS
 62
     7
 10
-317.529476226939
 20
192.3495802170916
 30
0.0
  0
VERTEX
  5
198
  8
1
  6
CONTINUOUS
 62
     7
 10
-317.5412693444527
 20
192.3355561239727
 30
0.0
  0
VERTEX
  5
199
  8
1
  6
CONTINUOUS
 62
     7
 10
-317.5535255057158
 20
192.3223180601763
 30
0.0
  0
VERTEX
  5
19A
  8
1
  6
CONTINUOUS
 62
     7
 10
-317.5710235985991
 20
192.305408071553
 30
0.0
  0
VERTEX
  5
19B
  8
1
  6
CONTINUOUS
 62
     7
 10
-317.589254012764
 20
192.2898850149582
 30
0.0
  0
VERTEX
  5
19C
  8
1
  6
CONTINUOUS
 62
     7
 10
-317.6081091887148
 20
192.27573230693
 30
0.0
  0
VERTEX
  5
19D
  8
1
  6
CONTINUOUS
 62
     7
 10
-317.6279541475981
 20
192.2626385917187
 30
0.0
  0
VERTEX
  5
19E
  8
1
  6
CONTINUOUS
 62
     7
 10
-317.6483323123489
 20
192.2508778813852
 30
0.0
  0
VERTEX
  5
19F
  8
1
  6
CONTINUOUS
 62
     7
 10
-317.6691647579918
 20
192.2404235915641
 30
0.0
  0
VERTEX
  5
1A0
  8
1
  6
CONTINUOUS
 62
     7
 10
-317.6903725595513
 20
192.2312491378902
 30
0.0
  0
VERTEX
  5
1A1
  8
1
  6
CONTINUOUS
 62
     7
 10
-317.7199899956472
 20
192.2206767059632
 30
0.0
  0
VERTEX
  5
1A2
  8
1
  6
CONTINUOUS
 62
     7
 10
-317.7501615043072
 20
192.212345001656
 30
0.0
  0
VERTEX
  5
1A3
  8
1
  6
CONTINUOUS
 62
     7
 10
-317.7807480383815
 20
192.20619711777
 30
0.0
  0
VERTEX
  5
1A4
  8
1
  6
CONTINUOUS
 62
     7
 10
-317.8060897054439
 20
192.2027401724091
 30
0.0
  0
VERTEX
  5
1A5
  8
1
  6
CONTINUOUS
 62
     7
 10
-317.8316281487707
 20
192.2006815175633
 30
0.0
  0
VERTEX
  5
1A6
  8
1
  6
CONTINUOUS
 62
     7
 10
-317.857303561165
 20
192.2
 30
0.0
  0
SEQEND
  5
676
  8
1
  6
CONTINUOUS
 62
     7
  0
LINE
  5
72
  8
1
  6
CONTINUOUS
 62
     7
 10
-317.4424036235296
 20
192.6074074074074
 30
0.0
 11
-317.4424036235296
 21
188.2462962962963
 31
0.0
  0
POLYLINE
  5
73
  8
1
  6
CONTINUOUS
 62
     7
 66
     1
 10
0.0
 20
0.0
 30
0.0
  0
VERTEX
  5
1A7
  8
1
  6
CONTINUOUS
 62
     7
 10
-317.9037773275119
 20
188.7
 30
0.0
  0
VERTEX
  5
1A8
  8
1
  6
CONTINUOUS
 62
     7
 10
-317.876060975862
 20
188.6992255794342
 30
0.0
  0
VERTEX
  5
1A9
  8
1
  6
CONTINUOUS
 62
     7
 10
-317.8484371140209
 20
188.6968945115685
 30
0.0
  0
VERTEX
  5
1AA
  8
1
  6
CONTINUOUS
 62
     7
 10
-317.8207729626519
 20
188.6929607130872
 30
0.0
  0
VERTEX
  5
1AB
  8
1
  6
CONTINUOUS
 62
     7
 10
-317.7932991114396
 20
188.6874132370981
 30
0.0
  0
VERTEX
  5
1AC
  8
1
  6
CONTINUOUS
 62
     7
 10
-317.7654733248266
 20
188.6800490386095
 30
0.0
  0
VERTEX
  5
1AD
  8
1
  6
CONTINUOUS
 62
     7
 10
-317.7379647177998
 20
188.6709376734322
 30
0.0
  0
VERTEX
  5
1AE
  8
1
  6
CONTINUOUS
 62
     7
 10
-317.710615690159
 20
188.6599395112509
 30
0.0
  0
VERTEX
  5
1AF
  8
1
  6
CONTINUOUS
 62
     7
 10
-317.6837391104852
 20
188.6470762127583
 30
0.0
  0
VERTEX
  5
1B0
  8
1
  6
CONTINUOUS
 62
     7
 10
-317.6610029849566
 20
188.6344408184431
 30
0.0
  0
VERTEX
  5
1B1
  8
1
  6
CONTINUOUS
 62
     7
 10
-317.6387396512536
 20
188.6203327079662
 30
0.0
  0
VERTEX
  5
1B2
  8
1
  6
CONTINUOUS
 62
     7
 10
-317.6170472278629
 20
188.604726892705
 30
0.0
  0
VERTEX
  5
1B3
  8
1
  6
CONTINUOUS
 62
     7
 10
-317.6008399821155
 20
188.5917110904646
 30
0.0
  0
VERTEX
  5
1B4
  8
1
  6
CONTINUOUS
 62
     7
 10
-317.5850392096727
 20
188.5777539127662
 30
0.0
  0
VERTEX
  5
1B5
  8
1
  6
CONTINUOUS
 62
     7
 10
-317.5697081172485
 20
188.5628501156758
 30
0.0
  0
VERTEX
  5
1B6
  8
1
  6
CONTINUOUS
 62
     7
 10
-317.5549099115572
 20
188.5469944552594
 30
0.0
  0
VERTEX
  5
1B7
  8
1
  6
CONTINUOUS
 62
     7
 10
-317.5444390921696
 20
188.5347666227655
 30
0.0
  0
VERTEX
  5
1B8
  8
1
  6
CONTINUOUS
 62
     7
 10
-317.5343015183685
 20
188.5220087311316
 30
0.0
  0
VERTEX
  5
1B9
  8
1
  6
CONTINUOUS
 62
     7
 10
-317.5244734010002
 20
188.5086461299969
 30
0.0
  0
VERTEX
  5
1BA
  8
1
  6
CONTINUOUS
 62
     7
 10
-317.5150367382088
 20
188.4947420797383
 30
0.0
  0
VERTEX
  5
1BB
  8
1
  6
CONTINUOUS
 62
     7
 10
-317.5058597262157
 20
188.4800247995437
 30
0.0
  0
VERTEX
  5
1BC
  8
1
  6
CONTINUOUS
 62
     7
 10
-317.4971533914375
 20
188.4647484836121
 30
0.0
  0
VERTEX
  5
1BD
  8
1
  6
CONTINUOUS
 62
     7
 10
-317.4888939396511
 20
188.4487982036439
 30
0.0
  0
VERTEX
  5
1BE
  8
1
  6
CONTINUOUS
 62
     7
 10
-317.4811851562284
 20
188.4322965510412
 30
0.0
  0
VERTEX
  5
1BF
  8
1
  6
CONTINUOUS
 62
     7
 10
-317.4755874599307
 20
188.4190709008817
 30
0.0
  0
VERTEX
  5
1C0
  8
1
  6
CONTINUOUS
 62
     7
 10
-317.4703654084216
 20
188.4055285987322
 30
0.0
  0
VERTEX
  5
1C1
  8
1
  6
CONTINUOUS
 62
     7
 10
-317.4655099200984
 20
188.3915966873884
 30
0.0
  0
VERTEX
  5
1C2
  8
1
  6
CONTINUOUS
 62
     7
 10
-317.4610715403257
 20
188.3773695701302
 30
0.0
  0
VERTEX
  5
1C3
  8
1
  6
CONTINUOUS
 62
     7
 10
-317.4569919019962
 20
188.3625656115724
 30
0.0
  0
VERTEX
  5
1C4
  8
1
  6
CONTINUOUS
 62
     7
 10
-317.4533832528424
 20
188.3474913214961
 30
0.0
  0
VERTEX
  5
1C5
  8
1
  6
CONTINUOUS
 62
     7
 10
-317.4502411289106
 20
188.3320506527742
 30
0.0
  0
VERTEX
  5
1C6
  8
1
  6
CONTINUOUS
 62
     7
 10
-317.4476100996494
 20
188.3163846857124
 30
0.0
  0
VERTEX
  5
1C7
  8
1
  6
CONTINUOUS
 62
     7
 10
-317.4453539979245
 20
188.2991979754717
 30
0.0
  0
VERTEX
  5
1C8
  8
1
  6
CONTINUOUS
 62
     7
 10
-317.4437274671355
 20
188.281820255424
 30
0.0
  0
VERTEX
  5
1C9
  8
1
  6
CONTINUOUS
 62
     7
 10
-317.4427354841885
 20
188.2641114345444
 30
0.0
  0
VERTEX
  5
1CA
  8
1
  6
CONTINUOUS
 62
     7
 10
-317.4424036235296
 20
188.2462962962963
 30
0.0
  0
SEQEND
  5
677
  8
1
  6
CONTINUOUS
 62
     7
  0
LINE
  5
74
  8
1
  6
CONTINUOUS
 62
     7
 10
-316.1924036235296
 20
204.15
 30
0.0
 11
-316.1924036235296
 21
175.25
 31
0.0
  0
ARC
  5
75
  8
1
  6
CONTINUOUS
 62
     9
 10
-360.0459570141228
 20
189.7
 30
0.0
 40
14.6
 50
354.3002695485969
 51
5.699730451402785
  0
POLYLINE
  5
76
  8
1
  6
CONTINUOUS
 62
     9
 66
     1
 10
0.0
 20
0.0
 30
0.0
  0
VERTEX
  5
1CB
  8
1
  6
CONTINUOUS
 62
     9
 10
-344.8425546446659
 20
191.45
 30
0.0
  0
VERTEX
  5
1CC
  8
1
  6
CONTINUOUS
 62
     9
 10
-344.9103278819474
 20
191.4488427329094
 30
0.0
  0
VERTEX
  5
1CD
  8
1
  6
CONTINUOUS
 62
     9
 10
-344.9783073716952
 20
191.4452601473359
 30
0.0
  0
VERTEX
  5
1CE
  8
1
  6
CONTINUOUS
 62
     9
 10
-345.0466031175496
 20
191.4390113562202
 30
0.0
  0
VERTEX
  5
1CF
  8
1
  6
CONTINUOUS
 62
     9
 10
-345.1149589852321
 20
191.4297819335472
 30
0.0
  0
VERTEX
  5
1D0
  8
1
  6
CONTINUOUS
 62
     9
 10
-345.1796381525484
 20
191.4178761901133
 30
0.0
  0
VERTEX
  5
1D1
  8
1
  6
CONTINUOUS
 62
     9
 10
-345.2119332077219
 20
191.4105897844224
 30
0.0
  0
VERTEX
  5
1D2
  8
1
  6
CONTINUOUS
 62
     9
 10
-345.2440912248995
 20
191.4023065687431
 30
0.0
  0
VERTEX
  5
1D3
  8
1
  6
CONTINUOUS
 62
     9
 10
-345.2698305709997
 20
191.3948463859797
 30
0.0
  0
VERTEX
  5
1D4
  8
1
  6
CONTINUOUS
 62
     9
 10
-345.2954358649973
 20
191.3865933710632
 30
0.0
  0
VERTEX
  5
1D5
  8
1
  6
CONTINUOUS
 62
     9
 10
-345.3208867072878
 20
191.3774510789384
 30
0.0
  0
VERTEX
  5
1D6
  8
1
  6
CONTINUOUS
 62
     9
 10
-345.3448231966641
 20
191.3678614016553
 30
0.0
  0
VERTEX
  5
1D7
  8
1
  6
CONTINUOUS
 62
     9
 10
-345.3684899015605
 20
191.3572626510099
 30
0.0
  0
VERTEX
  5
1D8
  8
1
  6
CONTINUOUS
 62
     9
 10
-345.3841633921739
 20
191.3495212036327
 30
0.0
  0
VERTEX
  5
1D9
  8
1
  6
CONTINUOUS
 62
     9
 10
-345.3996351876449
 20
191.3412129464243
 30
0.0
  0
VERTEX
  5
1DA
  8
1
  6
CONTINUOUS
 62
     9
 10
-345.414968509453
 20
191.332210314945
 30
0.0
  0
VERTEX
  5
1DB
  8
1
  6
CONTINUOUS
 62
     9
 10
-345.4299914323755
 20
191.3224974352121
 30
0.0
  0
VERTEX
  5
1DC
  8
1
  6
CONTINUOUS
 62
     9
 10
-345.4373784161183
 20
191.3173367942385
 30
0.0
  0
VERTEX
  5
1DD
  8
1
  6
CONTINUOUS
 62
     9
 10
-345.4446508444552
 20
191.3119675949393
 30
0.0
  0
VERTEX
  5
1DE
  8
1
  6
CONTINUOUS
 62
     9
 10
-345.4547993618609
 20
191.3039209990274
 30
0.0
  0
VERTEX
  5
1DF
  8
1
  6
CONTINUOUS
 62
     9
 10
-345.4646389597852
 20
191.295380151402
 30
0.0
  0
VERTEX
  5
1E0
  8
1
  6
CONTINUOUS
 62
     9
 10
-345.4717966697731
 20
191.2886057425997
 30
0.0
  0
VERTEX
  5
1E1
  8
1
  6
CONTINUOUS
 62
     9
 10
-345.4787078540156
 20
191.2815111084809
 30
0.0
  0
VERTEX
  5
1E2
  8
1
  6
CONTINUOUS
 62
     9
 10
-345.4831679552405
 20
191.2765844061752
 30
0.0
  0
VERTEX
  5
1E3
  8
1
  6
CONTINUOUS
 62
     9
 10
-345.4865465584656
 20
191.2726372160027
 30
0.0
  0
VERTEX
  5
1E4
  8
1
  6
CONTINUOUS
 62
     9
 10
-345.4914513495327
 20
191.2665170851749
 30
0.0
  0
VERTEX
  5
1E5
  8
1
  6
CONTINUOUS
 62
     9
 10
-345.4961194088568
 20
191.2601719547068
 30
0.0
  0
VERTEX
  5
1E6
  8
1
  6
CONTINUOUS
 62
     9
 10
-345.5005406019667
 20
191.2535670514062
 30
0.0
  0
VERTEX
  5
1E7
  8
1
  6
CONTINUOUS
 62
     9
 10
-345.5026421278782
 20
191.2501740708497
 30
0.0
  0
VERTEX
  5
1E8
  8
1
  6
CONTINUOUS
 62
     9
 10
-345.5046613248821
 20
191.2467271055989
 30
0.0
  0
VERTEX
  5
1E9
  8
1
  6
CONTINUOUS
 62
     9
 10
-345.5072315322756
 20
191.2420227352095
 30
0.0
  0
VERTEX
  5
1EA
  8
1
  6
CONTINUOUS
 62
     9
 10
-345.5094276770188
 20
191.2376577239097
 30
0.0
  0
VERTEX
  5
1EB
  8
1
  6
CONTINUOUS
 62
     9
 10
-345.5109905004617
 20
191.2343104369151
 30
0.0
  0
VERTEX
  5
1EC
  8
1
  6
CONTINUOUS
 62
     9
 10
-345.5124664893827
 20
191.2309223950305
 30
0.0
  0
VERTEX
  5
1ED
  8
1
  6
CONTINUOUS
 62
     9
 10
-345.5138567233903
 20
191.2274837170991
 30
0.0
  0
VERTEX
  5
1EE
  8
1
  6
CONTINUOUS
 62
     9
 10
-345.5151527591437
 20
191.2240079896125
 30
0.0
  0
VERTEX
  5
1EF
  8
1
  6
CONTINUOUS
 62
     9
 10
-345.5163640879144
 20
191.2204583968738
 30
0.0
  0
VERTEX
  5
1F0
  8
1
  6
CONTINUOUS
 62
     9
 10
-345.5174727209596
 20
191.2168762150106
 30
0.0
  0
VERTEX
  5
1F1
  8
1
  6
CONTINUOUS
 62
     9
 10
-345.5184795897741
 20
191.2132496108086
 30
0.0
  0
VERTEX
  5
1F2
  8
1
  6
CONTINUOUS
 62
     9
 10
-345.5193774003658
 20
191.2095966676786
 30
0.0
  0
VERTEX
  5
1F3
  8
1
  6
CONTINUOUS
 62
     9
 10
-345.5204087125387
 20
191.2046493359767
 30
0.0
  0
VERTEX
  5
1F4
  8
1
  6
CONTINUOUS
 62
     9
 10
-345.5212511170362
 20
191.1995529531906
 30
0.0
  0
VERTEX
  5
1F5
  8
1
  6
CONTINUOUS
 62
     9
 10
-345.5217439449781
 20
191.1956740062018
 30
0.0
  0
VERTEX
  5
1F6
  8
1
  6
CONTINUOUS
 62
     9
 10
-345.5221102389651
 20
191.1917869284622
 30
0.0
  0
VERTEX
  5
1F7
  8
1
  6
CONTINUOUS
 62
     9
 10
-345.5223504890278
 20
191.1878771952449
 30
0.0
  0
VERTEX
  5
1F8
  8
1
  6
CONTINUOUS
 62
     9
 10
-345.5224630284564
 20
191.1839689313371
 30
0.0
  0
VERTEX
  5
1F9
  8
1
  6
CONTINUOUS
 62
     9
 10
-345.522447421856
 20
191.1800087343581
 30
0.0
  0
VERTEX
  5
1FA
  8
1
  6
CONTINUOUS
 62
     9
 10
-345.5223026373532
 20
191.1760597127625
 30
0.0
  0
VERTEX
  5
1FB
  8
1
  6
CONTINUOUS
 62
     9
 10
-345.5220289187955
 20
191.1721075789446
 30
0.0
  0
VERTEX
  5
1FC
  8
1
  6
CONTINUOUS
 62
     9
 10
-345.5216292744656
 20
191.1681756671112
 30
0.0
  0
VERTEX
  5
1FD
  8
1
  6
CONTINUOUS
 62
     9
 10
-345.5208967813434
 20
191.1629172768303
 30
0.0
  0
VERTEX
  5
1FE
  8
1
  6
CONTINUOUS
 62
     9
 10
-345.5201742316617
 20
191.1588450435719
 30
0.0
  0
VERTEX
  5
1FF
  8
1
  6
CONTINUOUS
 62
     9
 10
-345.5193235291933
 20
191.1548043196969
 30
0.0
  0
VERTEX
  5
200
  8
1
  6
CONTINUOUS
 62
     9
 10
-345.518138870988
 20
191.15
 30
0.0
  0
SEQEND
  5
678
  8
1
  6
CONTINUOUS
 62
     9
  0
POLYLINE
  5
77
  8
1
  6
CONTINUOUS
 62
     9
 66
     1
 10
0.0
 20
0.0
 30
0.0
  0
VERTEX
  5
201
  8
1
  6
CONTINUOUS
 62
     9
 10
-345.5181388709879
 20
188.25
 30
0.0
  0
VERTEX
  5
202
  8
1
  6
CONTINUOUS
 62
     9
 10
-345.5192866313723
 20
188.2453577504868
 30
0.0
  0
VERTEX
  5
203
  8
1
  6
CONTINUOUS
 62
     9
 10
-345.5200445817111
 20
188.2418138634484
 30
0.0
  0
VERTEX
  5
204
  8
1
  6
CONTINUOUS
 62
     9
 10
-345.5207049109422
 20
188.2382417878513
 30
0.0
  0
VERTEX
  5
205
  8
1
  6
CONTINUOUS
 62
     9
 10
-345.5212664064205
 20
188.2346312317047
 30
0.0
  0
VERTEX
  5
206
  8
1
  6
CONTINUOUS
 62
     9
 10
-345.5217238557767
 20
188.2309974742083
 30
0.0
  0
VERTEX
  5
207
  8
1
  6
CONTINUOUS
 62
     9
 10
-345.5220780333892
 20
188.2273013189853
 30
0.0
  0
VERTEX
  5
208
  8
1
  6
CONTINUOUS
 62
     9
 10
-345.5223207939446
 20
188.2235878804777
 30
0.0
  0
VERTEX
  5
209
  8
1
  6
CONTINUOUS
 62
     9
 10
-345.522450317389
 20
188.2198449420079
 30
0.0
  0
VERTEX
  5
20A
  8
1
  6
CONTINUOUS
 62
     9
 10
-345.5224637766537
 20
188.2160921203661
 30
0.0
  0
VERTEX
  5
20B
  8
1
  6
CONTINUOUS
 62
     9
 10
-345.5222965704837
 20
188.2110357807782
 30
0.0
  0
VERTEX
  5
20C
  8
1
  6
CONTINUOUS
 62
     9
 10
-345.5219540191784
 20
188.2063875650459
 30
0.0
  0
VERTEX
  5
20D
  8
1
  6
CONTINUOUS
 62
     9
 10
-345.5214305607581
 20
188.2017473252189
 30
0.0
  0
VERTEX
  5
20E
  8
1
  6
CONTINUOUS
 62
     9
 10
-345.5207211908527
 20
188.1970903898895
 30
0.0
  0
VERTEX
  5
20F
  8
1
  6
CONTINUOUS
 62
     9
 10
-345.5198313909248
 20
188.1924579916804
 30
0.0
  0
VERTEX
  5
210
  8
1
  6
CONTINUOUS
 62
     9
 10
-345.5190363740091
 20
188.1889592737735
 30
0.0
  0
VERTEX
  5
211
  8
1
  6
CONTINUOUS
 62
     9
 10
-345.5181407574591
 20
188.1854825563777
 30
0.0
  0
VERTEX
  5
212
  8
1
  6
CONTINUOUS
 62
     9
 10
-345.5171424994176
 20
188.182017589031
 30
0.0
  0
VERTEX
  5
213
  8
1
  6
CONTINUOUS
 62
     9
 10
-345.5160473603308
 20
188.1785808224552
 30
0.0
  0
VERTEX
  5
214
  8
1
  6
CONTINUOUS
 62
     9
 10
-345.5144266593596
 20
188.174008814243
 30
0.0
  0
VERTEX
  5
215
  8
1
  6
CONTINUOUS
 62
     9
 10
-345.5125844086493
 20
188.1693592102832
 30
0.0
  0
VERTEX
  5
216
  8
1
  6
CONTINUOUS
 62
     9
 10
-345.5110825326132
 20
188.1658939188358
 30
0.0
  0
VERTEX
  5
217
  8
1
  6
CONTINUOUS
 62
     9
 10
-345.50948975279
 20
188.1624710802627
 30
0.0
  0
VERTEX
  5
218
  8
1
  6
CONTINUOUS
 62
     9
 10
-345.507804086883
 20
188.1590814182086
 30
0.0
  0
VERTEX
  5
219
  8
1
  6
CONTINUOUS
 62
     9
 10
-345.5060343988469
 20
188.1557375652649
 30
0.0
  0
VERTEX
  5
21A
  8
1
  6
CONTINUOUS
 62
     9
 10
-345.5041671894306
 20
188.1524108330277
 30
0.0
  0
VERTEX
  5
21B
  8
1
  6
CONTINUOUS
 62
     9
 10
-345.5022220446721
 20
188.1491327600912
 30
0.0
  0
VERTEX
  5
21C
  8
1
  6
CONTINUOUS
 62
     9
 10
-345.4981015669798
 20
188.1427082725918
 30
0.0
  0
VERTEX
  5
21D
  8
1
  6
CONTINUOUS
 62
     9
 10
-345.4951851951561
 20
188.1385115805322
 30
0.0
  0
VERTEX
  5
21E
  8
1
  6
CONTINUOUS
 62
     9
 10
-345.4917843030898
 20
188.1339172777771
 30
0.0
  0
VERTEX
  5
21F
  8
1
  6
CONTINUOUS
 62
     9
 10
-345.4882451356764
 20
188.1294262414509
 30
0.0
  0
VERTEX
  5
220
  8
1
  6
CONTINUOUS
 62
     9
 10
-345.484581275467
 20
188.1250425272578
 30
0.0
  0
VERTEX
  5
221
  8
1
  6
CONTINUOUS
 62
     9
 10
-345.4807820679346
 20
188.1207426599254
 30
0.0
  0
VERTEX
  5
222
  8
1
  6
CONTINUOUS
 62
     9
 10
-345.476875547924
 20
188.1165483725981
 30
0.0
  0
VERTEX
  5
223
  8
1
  6
CONTINUOUS
 62
     9
 10
-345.4708024002659
 20
188.1104209426485
 30
0.0
  0
VERTEX
  5
224
  8
1
  6
CONTINUOUS
 62
     9
 10
-345.4645269750424
 20
188.1045179194886
 30
0.0
  0
VERTEX
  5
225
  8
1
  6
CONTINUOUS
 62
     9
 10
-345.4545292400564
 20
188.0958555105818
 30
0.0
  0
VERTEX
  5
226
  8
1
  6
CONTINUOUS
 62
     9
 10
-345.4441473066072
 20
188.087650658813
 30
0.0
  0
VERTEX
  5
227
  8
1
  6
CONTINUOUS
 62
     9
 10
-345.4334594370057
 20
188.0798907815546
 30
0.0
  0
VERTEX
  5
228
  8
1
  6
CONTINUOUS
 62
     9
 10
-345.4224111597157
 20
188.072479890416
 30
0.0
  0
VERTEX
  5
229
  8
1
  6
CONTINUOUS
 62
     9
 10
-345.4111405870563
 20
188.0654628676188
 30
0.0
  0
VERTEX
  5
22A
  8
1
  6
CONTINUOUS
 62
     9
 10
-345.399586645713
 20
188.0587598382844
 30
0.0
  0
VERTEX
  5
22B
  8
1
  6
CONTINUOUS
 62
     9
 10
-345.3878684061248
 20
188.0524041866066
 30
0.0
  0
VERTEX
  5
22C
  8
1
  6
CONTINUOUS
 62
     9
 10
-345.3759981241457
 20
188.0463673469694
 30
0.0
  0
VERTEX
  5
22D
  8
1
  6
CONTINUOUS
 62
     9
 10
-345.3543789618919
 20
188.0362728527667
 30
0.0
  0
VERTEX
  5
22E
  8
1
  6
CONTINUOUS
 62
     9
 10
-345.3324087198945
 20
188.0270352553796
 30
0.0
  0
VERTEX
  5
22F
  8
1
  6
CONTINUOUS
 62
     9
 10
-345.3101845881263
 20
188.0185816476001
 30
0.0
  0
VERTEX
  5
230
  8
1
  6
CONTINUOUS
 62
     9
 10
-345.2818861222698
 20
188.0089283135979
 30
0.0
  0
VERTEX
  5
231
  8
1
  6
CONTINUOUS
 62
     9
 10
-345.2533705286156
 20
188.0002926048913
 30
0.0
  0
VERTEX
  5
232
  8
1
  6
CONTINUOUS
 62
     9
 10
-345.2245798396407
 20
187.9925385028514
 30
0.0
  0
VERTEX
  5
233
  8
1
  6
CONTINUOUS
 62
     9
 10
-345.1956645984315
 20
187.9856185796064
 30
0.0
  0
VERTEX
  5
234
  8
1
  6
CONTINUOUS
 62
     9
 10
-345.1598743209219
 20
187.9781253601811
 30
0.0
  0
VERTEX
  5
235
  8
1
  6
CONTINUOUS
 62
     9
 10
-345.0967859358308
 20
187.9674451826193
 30
0.0
  0
VERTEX
  5
236
  8
1
  6
CONTINUOUS
 62
     9
 10
-345.0335581799185
 20
187.9595770468909
 30
0.0
  0
VERTEX
  5
237
  8
1
  6
CONTINUOUS
 62
     9
 10
-344.9699344129294
 20
187.9541589709089
 30
0.0
  0
VERTEX
  5
238
  8
1
  6
CONTINUOUS
 62
     9
 10
-344.9063672250871
 20
187.9510248736496
 30
0.0
  0
VERTEX
  5
239
  8
1
  6
CONTINUOUS
 62
     9
 10
-344.8425546446658
 20
187.95
 30
0.0
  0
SEQEND
  5
679
  8
1
  6
CONTINUOUS
 62
     9
  0
LINE
  5
78
  8
1
  6
CONTINUOUS
 62
     9
 10
-346.658482390733
 20
203.8
 30
0.0
 11
-346.658482390733
 21
175.6
 31
0.0
  0
POLYLINE
  5
79
  8
1
  6
CONTINUOUS
 62
     7
 66
     1
 10
0.0
 20
0.0
 30
0.0
  0
VERTEX
  5
23A
  8
1
  6
CONTINUOUS
 62
     7
 10
-357.139115905983
 20
177.4576052291737
 30
0.0
  0
VERTEX
  5
23B
  8
1
  6
CONTINUOUS
 62
     7
 10
-357.1481893465045
 20
177.4962540041396
 30
0.0
  0
VERTEX
  5
23C
  8
1
  6
CONTINUOUS
 62
     7
 10
-357.157262787026
 20
177.5447810688922
 30
0.0
  0
VERTEX
  5
23D
  8
1
  6
CONTINUOUS
 62
     7
 10
-357.1663362275474
 20
177.6031662236443
 30
0.0
  0
VERTEX
  5
23E
  8
1
  6
CONTINUOUS
 62
     7
 10
-357.1754096680689
 20
177.6713892686085
 30
0.0
  0
VERTEX
  5
23F
  8
1
  6
CONTINUOUS
 62
     7
 10
-357.1844831085904
 20
177.7494300039973
 30
0.0
  0
VERTEX
  5
240
  8
1
  6
CONTINUOUS
 62
     7
 10
-357.1935565491117
 20
177.8372623219428
 30
0.0
  0
VERTEX
  5
241
  8
1
  6
CONTINUOUS
 62
     7
 10
-357.2026299896333
 20
177.9348019589353
 30
0.0
  0
VERTEX
  5
242
  8
1
  6
CONTINUOUS
 62
     7
 10
-357.2117034301548
 20
178.0419315916864
 30
0.0
  0
VERTEX
  5
243
  8
1
  6
CONTINUOUS
 62
     7
 10
-357.2207768706763
 20
178.1585335155981
 30
0.0
  0
VERTEX
  5
244
  8
1
  6
CONTINUOUS
 62
     7
 10
-357.2298503111978
 20
178.2844900260725
 30
0.0
  0
VERTEX
  5
245
  8
1
  6
CONTINUOUS
 62
     7
 10
-357.2389237517193
 20
178.4196834185117
 30
0.0
  0
VERTEX
  5
246
  8
1
  6
CONTINUOUS
 62
     7
 10
-357.2479971922408
 20
178.5639959883176
 30
0.0
  0
VERTEX
  5
247
  8
1
  6
CONTINUOUS
 62
     7
 10
-357.2570706327622
 20
178.7173100308923
 30
0.0
  0
VERTEX
  5
248
  8
1
  6
CONTINUOUS
 62
     7
 10
-357.2661440732837
 20
178.8795078416381
 30
0.0
  0
VERTEX
  5
249
  8
1
  6
CONTINUOUS
 62
     7
 10
-357.2752175138052
 20
179.0504717159566
 30
0.0
  0
VERTEX
  5
24A
  8
1
  6
CONTINUOUS
 62
     7
 10
-357.2842909543267
 20
179.2300839492503
 30
0.0
  0
VERTEX
  5
24B
  8
1
  6
CONTINUOUS
 62
     7
 10
-357.2933643948482
 20
179.4182268369209
 30
0.0
  0
VERTEX
  5
24C
  8
1
  6
CONTINUOUS
 62
     7
 10
-357.3024378353696
 20
179.6147821756359
 30
0.0
  0
VERTEX
  5
24D
  8
1
  6
CONTINUOUS
 62
     7
 10
-357.3115112758911
 20
179.8196011889485
 30
0.0
  0
VERTEX
  5
24E
  8
1
  6
CONTINUOUS
 62
     7
 10
-357.3205847164126
 20
180.0324873350761
 30
0.0
  0
VERTEX
  5
24F
  8
1
  6
CONTINUOUS
 62
     7
 10
-357.3296581569342
 20
180.2532399190081
 30
0.0
  0
VERTEX
  5
250
  8
1
  6
CONTINUOUS
 62
     7
 10
-357.3387315974556
 20
180.481658245734
 30
0.0
  0
VERTEX
  5
251
  8
1
  6
CONTINUOUS
 62
     7
 10
-357.347805037977
 20
180.7175416202433
 30
0.0
  0
VERTEX
  5
252
  8
1
  6
CONTINUOUS
 62
     7
 10
-357.3568784784985
 20
180.9606893475254
 30
0.0
  0
VERTEX
  5
253
  8
1
  6
CONTINUOUS
 62
     7
 10
-357.36595191902
 20
181.2109007325698
 30
0.0
  0
VERTEX
  5
254
  8
1
  6
CONTINUOUS
 62
     7
 10
-357.3750253595415
 20
181.467975080366
 30
0.0
  0
VERTEX
  5
255
  8
1
  6
CONTINUOUS
 62
     7
 10
-357.384098800063
 20
181.7317116959033
 30
0.0
  0
VERTEX
  5
256
  8
1
  6
CONTINUOUS
 62
     7
 10
-357.3931722405844
 20
182.0019098841713
 30
0.0
  0
VERTEX
  5
257
  8
1
  6
CONTINUOUS
 62
     7
 10
-357.402245681106
 20
182.2783689501595
 30
0.0
  0
VERTEX
  5
258
  8
1
  6
CONTINUOUS
 62
     7
 10
-357.4113191216273
 20
182.5608881988573
 30
0.0
  0
VERTEX
  5
259
  8
1
  6
CONTINUOUS
 62
     7
 10
-357.4203925621489
 20
182.8492586906936
 30
0.0
  0
VERTEX
  5
25A
  8
1
  6
CONTINUOUS
 62
     7
 10
-357.4294660026704
 20
183.1432328170371
 30
0.0
  0
VERTEX
  5
25B
  8
1
  6
CONTINUOUS
 62
     7
 10
-357.4385394431919
 20
183.4425516420259
 30
0.0
  0
VERTEX
  5
25C
  8
1
  6
CONTINUOUS
 62
     7
 10
-357.4476128837134
 20
183.7469562283546
 30
0.0
  0
VERTEX
  5
25D
  8
1
  6
CONTINUOUS
 62
     7
 10
-357.4566863242349
 20
184.0561876387179
 30
0.0
  0
VERTEX
  5
25E
  8
1
  6
CONTINUOUS
 62
     7
 10
-357.4657597647563
 20
184.3699869358105
 30
0.0
  0
VERTEX
  5
25F
  8
1
  6
CONTINUOUS
 62
     7
 10
-357.4748332052778
 20
184.6880951823269
 30
0.0
  0
VERTEX
  5
260
  8
1
  6
CONTINUOUS
 62
     7
 10
-357.4839066457993
 20
185.0102534409619
 30
0.0
  0
VERTEX
  5
261
  8
1
  6
CONTINUOUS
 62
     7
 10
-357.4929800863208
 20
185.3362027744101
 30
0.0
  0
VERTEX
  5
262
  8
1
  6
CONTINUOUS
 62
     7
 10
-357.5020535268422
 20
185.6656842453661
 30
0.0
  0
VERTEX
  5
263
  8
1
  6
CONTINUOUS
 62
     7
 10
-357.5111269673637
 20
185.9984389165247
 30
0.0
  0
VERTEX
  5
264
  8
1
  6
CONTINUOUS
 62
     7
 10
-357.5202004078852
 20
186.3342078505804
 30
0.0
  0
VERTEX
  5
265
  8
1
  6
CONTINUOUS
 62
     7
 10
-357.5292738484067
 20
186.6727313248199
 30
0.0
  0
VERTEX
  5
266
  8
1
  6
CONTINUOUS
 62
     7
 10
-357.5383472889282
 20
187.0137359915038
 30
0.0
  0
VERTEX
  5
267
  8
1
  6
CONTINUOUS
 62
     7
 10
-357.5474207294496
 20
187.3569369654051
 30
0.0
  0
VERTEX
  5
268
  8
1
  6
CONTINUOUS
 62
     7
 10
-357.5564941699711
 20
187.7020489970196
 30
0.0
  0
VERTEX
  5
269
  8
1
  6
CONTINUOUS
 62
     7
 10
-357.5655676104926
 20
188.048786836843
 30
0.0
  0
VERTEX
  5
26A
  8
1
  6
CONTINUOUS
 62
     7
 10
-357.5746410510141
 20
188.3968652353712
 30
0.0
  0
VERTEX
  5
26B
  8
1
  6
CONTINUOUS
 62
     7
 10
-357.5837144915355
 20
188.7459989430997
 30
0.0
  0
VERTEX
  5
26C
  8
1
  6
CONTINUOUS
 62
     7
 10
-357.592787932057
 20
189.0959027105243
 30
0.0
  0
VERTEX
  5
26D
  8
1
  6
CONTINUOUS
 62
     7
 10
-357.6018613725785
 20
189.4462912881408
 30
0.0
  0
VERTEX
  5
26E
  8
1
  6
CONTINUOUS
 62
     7
 10
-357.6109348131
 20
189.7968794264449
 30
0.0
  0
VERTEX
  5
26F
  8
1
  6
CONTINUOUS
 62
     7
 10
-357.6200082536214
 20
190.1473818759324
 30
0.0
  0
VERTEX
  5
270
  8
1
  6
CONTINUOUS
 62
     7
 10
-357.6290816941429
 20
190.4975133870989
 30
0.0
  0
VERTEX
  5
271
  8
1
  6
CONTINUOUS
 62
     7
 10
-357.6381551346645
 20
190.8469887191023
 30
0.0
  0
VERTEX
  5
272
  8
1
  6
CONTINUOUS
 62
     7
 10
-357.6472285751859
 20
191.1955250253908
 30
0.0
  0
VERTEX
  5
273
  8
1
  6
CONTINUOUS
 62
     7
 10
-357.6563020157074
 20
191.5428451055366
 30
0.0
  0
VERTEX
  5
274
  8
1
  6
CONTINUOUS
 62
     7
 10
-357.6653754562289
 20
191.8886725725442
 30
0.0
  0
VERTEX
  5
275
  8
1
  6
CONTINUOUS
 62
     7
 10
-357.6744488967503
 20
192.2327310394181
 30
0.0
  0
VERTEX
  5
276
  8
1
  6
CONTINUOUS
 62
     7
 10
-357.6835223372719
 20
192.5747441191628
 30
0.0
  0
VERTEX
  5
277
  8
1
  6
CONTINUOUS
 62
     7
 10
-357.6925957777933
 20
192.9144354247827
 30
0.0
  0
VERTEX
  5
278
  8
1
  6
CONTINUOUS
 62
     7
 10
-357.7016692183148
 20
193.2515285692825
 30
0.0
  0
VERTEX
  5
279
  8
1
  6
CONTINUOUS
 62
     7
 10
-357.7107426588362
 20
193.5857471656665
 30
0.0
  0
VERTEX
  5
27A
  8
1
  6
CONTINUOUS
 62
     7
 10
-357.7198160993578
 20
193.9168148269393
 30
0.0
  0
VERTEX
  5
27B
  8
1
  6
CONTINUOUS
 62
     7
 10
-357.7288895398793
 20
194.2444551661054
 30
0.0
  0
VERTEX
  5
27C
  8
1
  6
CONTINUOUS
 62
     7
 10
-357.7379629804008
 20
194.5683917961693
 30
0.0
  0
VERTEX
  5
27D
  8
1
  6
CONTINUOUS
 62
     7
 10
-357.7470364209222
 20
194.8883483301354
 30
0.0
  0
VERTEX
  5
27E
  8
1
  6
CONTINUOUS
 62
     7
 10
-357.7561098614437
 20
195.204052004317
 30
0.0
  0
VERTEX
  5
27F
  8
1
  6
CONTINUOUS
 62
     7
 10
-357.7651833019652
 20
195.51525709431
 30
0.0
  0
VERTEX
  5
280
  8
1
  6
CONTINUOUS
 62
     7
 10
-357.7742567424867
 20
195.8217300975929
 30
0.0
  0
VERTEX
  5
281
  8
1
  6
CONTINUOUS
 62
     7
 10
-357.7833301830082
 20
196.1232375715325
 30
0.0
  0
VERTEX
  5
282
  8
1
  6
CONTINUOUS
 62
     7
 10
-357.7924036235296
 20
196.419546073494
 30
0.0
  0
SEQEND
  5
67A
  8
1
  6
CONTINUOUS
 62
     7
  0
POLYLINE
  5
7A
  8
1
  6
CONTINUOUS
 62
     7
 66
     1
 10
0.0
 20
0.0
 30
0.0
  0
VERTEX
  5
283
  8
1
  6
CONTINUOUS
 62
     7
 10
-355.1392122815338
 20
177.4577277295824
 30
0.0
  0
VERTEX
  5
284
  8
1
  6
CONTINUOUS
 62
     7
 10
-355.1493083944192
 20
177.5014121339329
 30
0.0
  0
VERTEX
  5
285
  8
1
  6
CONTINUOUS
 62
     7
 10
-355.1594045073045
 20
177.5574054078416
 30
0.0
  0
VERTEX
  5
286
  8
1
  6
CONTINUOUS
 62
     7
 10
-355.1695006201898
 20
177.6257049657126
 30
0.0
  0
VERTEX
  5
287
  8
1
  6
CONTINUOUS
 62
     7
 10
-355.1795967330751
 20
177.7062441976263
 30
0.0
  0
VERTEX
  5
288
  8
1
  6
CONTINUOUS
 62
     7
 10
-355.1896928459605
 20
177.7988898316148
 30
0.0
  0
VERTEX
  5
289
  8
1
  6
CONTINUOUS
 62
     7
 10
-355.1997889588459
 20
177.9035054822742
 30
0.0
  0
VERTEX
  5
28A
  8
1
  6
CONTINUOUS
 62
     7
 10
-355.2098850717312
 20
178.0199547642004
 30
0.0
  0
VERTEX
  5
28B
  8
1
  6
CONTINUOUS
 62
     7
 10
-355.2199811846166
 20
178.1481012919898
 30
0.0
  0
VERTEX
  5
28C
  8
1
  6
CONTINUOUS
 62
     7
 10
-355.2300772975019
 20
178.2878086802384
 30
0.0
  0
VERTEX
  5
28D
  8
1
  6
CONTINUOUS
 62
     7
 10
-355.2401734103872
 20
178.4389405435422
 30
0.0
  0
VERTEX
  5
28E
  8
1
  6
CONTINUOUS
 62
     7
 10
-355.2502695232726
 20
178.6013604964974
 30
0.0
  0
VERTEX
  5
28F
  8
1
  6
CONTINUOUS
 62
     7
 10
-355.260365636158
 20
178.7749321537002
 30
0.0
  0
VERTEX
  5
290
  8
1
  6
CONTINUOUS
 62
     7
 10
-355.2704617490432
 20
178.9595191297465
 30
0.0
  0
VERTEX
  5
291
  8
1
  6
CONTINUOUS
 62
     7
 10
-355.2805578619287
 20
179.154984143653
 30
0.0
  0
VERTEX
  5
292
  8
1
  6
CONTINUOUS
 62
     7
 10
-355.2906539748139
 20
179.361143861214
 30
0.0
  0
VERTEX
  5
293
  8
1
  6
CONTINUOUS
 62
     7
 10
-355.3007500876993
 20
179.577747663678
 30
0.0
  0
VERTEX
  5
294
  8
1
  6
CONTINUOUS
 62
     7
 10
-355.3108462005847
 20
179.8045395981792
 30
0.0
  0
VERTEX
  5
295
  8
1
  6
CONTINUOUS
 62
     7
 10
-355.3209423134701
 20
180.0412637118516
 30
0.0
  0
VERTEX
  5
296
  8
1
  6
CONTINUOUS
 62
     7
 10
-355.3310384263553
 20
180.2876640518293
 30
0.0
  0
VERTEX
  5
297
  8
1
  6
CONTINUOUS
 62
     7
 10
-355.3411345392408
 20
180.5434846652466
 30
0.0
  0
VERTEX
  5
298
  8
1
  6
CONTINUOUS
 62
     7
 10
-355.3512306521261
 20
180.8084695992374
 30
0.0
  0
VERTEX
  5
299
  8
1
  6
CONTINUOUS
 62
     7
 10
-355.3613267650114
 20
181.0823629009358
 30
0.0
  0
VERTEX
  5
29A
  8
1
  6
CONTINUOUS
 62
     7
 10
-355.3714228778968
 20
181.3649086174762
 30
0.0
  0
VERTEX
  5
29B
  8
1
  6
CONTINUOUS
 62
     7
 10
-355.3815189907821
 20
181.6558507959924
 30
0.0
  0
VERTEX
  5
29C
  8
1
  6
CONTINUOUS
 62
     7
 10
-355.3916151036674
 20
181.9549333130859
 30
0.0
  0
VERTEX
  5
29D
  8
1
  6
CONTINUOUS
 62
     7
 10
-355.4017112165528
 20
182.2618736626201
 30
0.0
  0
VERTEX
  5
29E
  8
1
  6
CONTINUOUS
 62
     7
 10
-355.4118073294382
 20
182.5763346731782
 30
0.0
  0
VERTEX
  5
29F
  8
1
  6
CONTINUOUS
 62
     7
 10
-355.4219034423235
 20
182.8979723865106
 30
0.0
  0
VERTEX
  5
2A0
  8
1
  6
CONTINUOUS
 62
     7
 10
-355.4319995552089
 20
183.2264428443681
 30
0.0
  0
VERTEX
  5
2A1
  8
1
  6
CONTINUOUS
 62
     7
 10
-355.4420956680942
 20
183.5614020885012
 30
0.0
  0
VERTEX
  5
2A2
  8
1
  6
CONTINUOUS
 62
     7
 10
-355.4521917809795
 20
183.9025061606605
 30
0.0
  0
VERTEX
  5
2A3
  8
1
  6
CONTINUOUS
 62
     7
 10
-355.4622878938649
 20
184.2494111025966
 30
0.0
  0
VERTEX
  5
2A4
  8
1
  6
CONTINUOUS
 62
     7
 10
-355.4723840067502
 20
184.6017729560601
 30
0.0
  0
VERTEX
  5
2A5
  8
1
  6
CONTINUOUS
 62
     7
 10
-355.4824801196356
 20
184.9592477628016
 30
0.0
  0
VERTEX
  5
2A6
  8
1
  6
CONTINUOUS
 62
     7
 10
-355.4925762325209
 20
185.3214915645716
 30
0.0
  0
VERTEX
  5
2A7
  8
1
  6
CONTINUOUS
 62
     7
 10
-355.5026723454063
 20
185.6881603960669
 30
0.0
  0
VERTEX
  5
2A8
  8
1
  6
CONTINUOUS
 62
     7
 10
-355.5127684582916
 20
186.0589002739421
 30
0.0
  0
VERTEX
  5
2A9
  8
1
  6
CONTINUOUS
 62
     7
 10
-355.522864571177
 20
186.4333272334302
 30
0.0
  0
VERTEX
  5
2AA
  8
1
  6
CONTINUOUS
 62
     7
 10
-355.5329606840623
 20
186.8110517251031
 30
0.0
  0
VERTEX
  5
2AB
  8
1
  6
CONTINUOUS
 62
     7
 10
-355.5430567969477
 20
187.1916841995325
 30
0.0
  0
VERTEX
  5
2AC
  8
1
  6
CONTINUOUS
 62
     7
 10
-355.553152909833
 20
187.5748351072902
 30
0.0
  0
VERTEX
  5
2AD
  8
1
  6
CONTINUOUS
 62
     7
 10
-355.5632490227183
 20
187.9601148989481
 30
0.0
  0
VERTEX
  5
2AE
  8
1
  6
CONTINUOUS
 62
     7
 10
-355.5733451356037
 20
188.347134025078
 30
0.0
  0
VERTEX
  5
2AF
  8
1
  6
CONTINUOUS
 62
     7
 10
-355.5834412484891
 20
188.7355029362516
 30
0.0
  0
VERTEX
  5
2B0
  8
1
  6
CONTINUOUS
 62
     7
 10
-355.5935373613744
 20
189.1248320830409
 30
0.0
  0
VERTEX
  5
2B1
  8
1
  6
CONTINUOUS
 62
     7
 10
-355.6036334742598
 20
189.5147319160175
 30
0.0
  0
VERTEX
  5
2B2
  8
1
  6
CONTINUOUS
 62
     7
 10
-355.6137295871451
 20
189.9048128857534
 30
0.0
  0
VERTEX
  5
2B3
  8
1
  6
CONTINUOUS
 62
     7
 10
-355.6238257000305
 20
190.2946858130764
 30
0.0
  0
VERTEX
  5
2B4
  8
1
  6
CONTINUOUS
 62
     7
 10
-355.6339218129158
 20
190.6839631464148
 30
0.0
  0
VERTEX
  5
2B5
  8
1
  6
CONTINUOUS
 62
     7
 10
-355.6440179258011
 20
191.0722577812963
 30
0.0
  0
VERTEX
  5
2B6
  8
1
  6
CONTINUOUS
 62
     7
 10
-355.6541140386865
 20
191.4591826132618
 30
0.0
  0
VERTEX
  5
2B7
  8
1
  6
CONTINUOUS
 62
     7
 10
-355.6642101515718
 20
191.8443505378516
 30
0.0
  0
VERTEX
  5
2B8
  8
1
  6
CONTINUOUS
 62
     7
 10
-355.6743062644572
 20
192.2273744506063
 30
0.0
  0
VERTEX
  5
2B9
  8
1
  6
CONTINUOUS
 62
     7
 10
-355.6844023773425
 20
192.6078672470665
 30
0.0
  0
VERTEX
  5
2BA
  8
1
  6
CONTINUOUS
 62
     7
 10
-355.6944984902279
 20
192.9854418227726
 30
0.0
  0
VERTEX
  5
2BB
  8
1
  6
CONTINUOUS
 62
     7
 10
-355.7045946031132
 20
193.3597110732652
 30
0.0
  0
VERTEX
  5
2BC
  8
1
  6
CONTINUOUS
 62
     7
 10
-355.7146907159985
 20
193.7302878940849
 30
0.0
  0
VERTEX
  5
2BD
  8
1
  6
CONTINUOUS
 62
     7
 10
-355.724786828884
 20
194.0967851807722
 30
0.0
  0
VERTEX
  5
2BE
  8
1
  6
CONTINUOUS
 62
     7
 10
-355.7348829417692
 20
194.4588207781904
 30
0.0
  0
VERTEX
  5
2BF
  8
1
  6
CONTINUOUS
 62
     7
 10
-355.7449790546546
 20
194.8160447963604
 30
0.0
  0
VERTEX
  5
2C0
  8
1
  6
CONTINUOUS
 62
     7
 10
-355.7550751675399
 20
195.1681202759115
 30
0.0
  0
VERTEX
  5
2C1
  8
1
  6
CONTINUOUS
 62
     7
 10
-355.7651712804252
 20
195.5147102920065
 30
0.0
  0
VERTEX
  5
2C2
  8
1
  6
CONTINUOUS
 62
     7
 10
-355.7752673933107
 20
195.8554779198079
 30
0.0
  0
VERTEX
  5
2C3
  8
1
  6
CONTINUOUS
 62
     7
 10
-355.785363506196
 20
196.1900862344783
 30
0.0
  0
VERTEX
  5
2C4
  8
1
  6
CONTINUOUS
 62
     7
 10
-355.7954596190813
 20
196.5181983111802
 30
0.0
  0
VERTEX
  5
2C5
  8
1
  6
CONTINUOUS
 62
     7
 10
-355.8055557319666
 20
196.8394772250763
 30
0.0
  0
VERTEX
  5
2C6
  8
1
  6
CONTINUOUS
 62
     7
 10
-355.815651844852
 20
197.1535860513293
 30
0.0
  0
VERTEX
  5
2C7
  8
1
  6
CONTINUOUS
 62
     7
 10
-355.8257479577373
 20
197.4601878651018
 30
0.0
  0
VERTEX
  5
2C8
  8
1
  6
CONTINUOUS
 62
     7
 10
-355.8358440706227
 20
197.7589457415563
 30
0.0
  0
VERTEX
  5
2C9
  8
1
  6
CONTINUOUS
 62
     7
 10
-355.845940183508
 20
198.049528240889
 30
0.0
  0
VERTEX
  5
2CA
  8
1
  6
CONTINUOUS
 62
     7
 10
-355.8560362963934
 20
198.3316585027218
 30
0.0
  0
VERTEX
  5
2CB
  8
1
  6
CONTINUOUS
 62
     7
 10
-355.8661324092787
 20
198.605090958112
 30
0.0
  0
VERTEX
  5
2CC
  8
1
  6
CONTINUOUS
 62
     7
 10
-355.8762285221641
 20
198.8695804087447
 30
0.0
  0
VERTEX
  5
2CD
  8
1
  6
CONTINUOUS
 62
     7
 10
-355.8863246350495
 20
199.1248816563044
 30
0.0
  0
VERTEX
  5
2CE
  8
1
  6
CONTINUOUS
 62
     7
 10
-355.8964207479348
 20
199.3707495024762
 30
0.0
  0
VERTEX
  5
2CF
  8
1
  6
CONTINUOUS
 62
     7
 10
-355.9065168608201
 20
199.6069387489447
 30
0.0
  0
VERTEX
  5
2D0
  8
1
  6
CONTINUOUS
 62
     7
 10
-355.9166129737056
 20
199.8332041973948
 30
0.0
  0
VERTEX
  5
2D1
  8
1
  6
CONTINUOUS
 62
     7
 10
-355.9267090865908
 20
200.0493006495113
 30
0.0
  0
VERTEX
  5
2D2
  8
1
  6
CONTINUOUS
 62
     7
 10
-355.9368051994762
 20
200.2549829069791
 30
0.0
  0
VERTEX
  5
2D3
  8
1
  6
CONTINUOUS
 62
     7
 10
-355.9469013123615
 20
200.4500057714829
 30
0.0
  0
VERTEX
  5
2D4
  8
1
  6
CONTINUOUS
 62
     7
 10
-355.9569974252469
 20
200.6341280434098
 30
0.0
  0
VERTEX
  5
2D5
  8
1
  6
CONTINUOUS
 62
     7
 10
-355.9670935381322
 20
200.8071729465019
 30
0.0
  0
VERTEX
  5
2D6
  8
1
  6
CONTINUOUS
 62
     7
 10
-355.9771896510175
 20
200.9690157558943
 30
0.0
  0
VERTEX
  5
2D7
  8
1
  6
CONTINUOUS
 62
     7
 10
-355.9872857639028
 20
201.1195332357067
 30
0.0
  0
VERTEX
  5
2D8
  8
1
  6
CONTINUOUS
 62
     7
 10
-355.9973818767883
 20
201.2586021500586
 30
0.0
  0
VERTEX
  5
2D9
  8
1
  6
CONTINUOUS
 62
     7
 10
-356.0074779896735
 20
201.3860992630694
 30
0.0
  0
VERTEX
  5
2DA
  8
1
  6
CONTINUOUS
 62
     7
 10
-356.017574102559
 20
201.501901338859
 30
0.0
  0
VERTEX
  5
2DB
  8
1
  6
CONTINUOUS
 62
     7
 10
-356.0276702154443
 20
201.6058851415466
 30
0.0
  0
VERTEX
  5
2DC
  8
1
  6
CONTINUOUS
 62
     7
 10
-356.0377663283296
 20
201.6979274352518
 30
0.0
  0
VERTEX
  5
2DD
  8
1
  6
CONTINUOUS
 62
     7
 10
-356.047862441215
 20
201.7779049840944
 30
0.0
  0
VERTEX
  5
2DE
  8
1
  6
CONTINUOUS
 62
     7
 10
-356.0579585541003
 20
201.8456945521936
 30
0.0
  0
VERTEX
  5
2DF
  8
1
  6
CONTINUOUS
 62
     7
 10
-356.0680546669856
 20
201.9011750230294
 30
0.0
  0
VERTEX
  5
2E0
  8
1
  6
CONTINUOUS
 62
     7
 10
-356.078150779871
 20
201.94428686863
 30
0.0
  0
VERTEX
  5
2E1
  8
1
  6
CONTINUOUS
 62
     7
 10
-356.0882468927564
 20
201.9750402623197
 30
0.0
  0
VERTEX
  5
2E2
  8
1
  6
CONTINUOUS
 62
     7
 10
-356.0983430056417
 20
201.9934491271244
 30
0.0
  0
VERTEX
  5
2E3
  8
1
  6
CONTINUOUS
 62
     7
 10
-356.1084391185271
 20
201.9995273860703
 30
0.0
  0
SEQEND
  5
67B
  8
1
  6
CONTINUOUS
 62
     7
  0
POLYLINE
  5
7B
  8
1
  6
CONTINUOUS
 62
     7
 66
     1
 10
0.0
 20
0.0
 30
0.0
  0
VERTEX
  5
2E4
  8
1
  6
CONTINUOUS
 62
     7
 10
-353.1399387642846
 20
177.4602193321608
 30
0.0
  0
VERTEX
  5
2E5
  8
1
  6
CONTINUOUS
 62
     7
 10
-353.1500270989877
 20
177.5049135141478
 30
0.0
  0
VERTEX
  5
2E6
  8
1
  6
CONTINUOUS
 62
     7
 10
-353.1601154336909
 20
177.5619355896772
 30
0.0
  0
VERTEX
  5
2E7
  8
1
  6
CONTINUOUS
 62
     7
 10
-353.1702037683941
 20
177.6311761168677
 30
0.0
  0
VERTEX
  5
2E8
  8
1
  6
CONTINUOUS
 62
     7
 10
-353.1802921030971
 20
177.7125254168789
 30
0.0
  0
VERTEX
  5
2E9
  8
1
  6
CONTINUOUS
 62
     7
 10
-353.1903804378003
 20
177.8058738108707
 30
0.0
  0
VERTEX
  5
2EA
  8
1
  6
CONTINUOUS
 62
     7
 10
-353.2004687725035
 20
177.9111116200025
 30
0.0
  0
VERTEX
  5
2EB
  8
1
  6
CONTINUOUS
 62
     7
 10
-353.2105571072066
 20
178.0281291654342
 30
0.0
  0
VERTEX
  5
2EC
  8
1
  6
CONTINUOUS
 62
     7
 10
-353.2206454419098
 20
178.1568167683253
 30
0.0
  0
VERTEX
  5
2ED
  8
1
  6
CONTINUOUS
 62
     7
 10
-353.230733776613
 20
178.2970647498357
 30
0.0
  0
VERTEX
  5
2EE
  8
1
  6
CONTINUOUS
 62
     7
 10
-353.240822111316
 20
178.4487634311249
 30
0.0
  0
VERTEX
  5
2EF
  8
1
  6
CONTINUOUS
 62
     7
 10
-353.2509104460192
 20
178.6118031333526
 30
0.0
  0
VERTEX
  5
2F0
  8
1
  6
CONTINUOUS
 62
     7
 10
-353.2609987807223
 20
178.7860686475472
 30
0.0
  0
VERTEX
  5
2F1
  8
1
  6
CONTINUOUS
 62
     7
 10
-353.2710871154255
 20
178.9713750268671
 30
0.0
  0
VERTEX
  5
2F2
  8
1
  6
CONTINUOUS
 62
     7
 10
-353.2811754501286
 20
179.1674896014369
 30
0.0
  0
VERTEX
  5
2F3
  8
1
  6
CONTINUOUS
 62
     7
 10
-353.2912637848318
 20
179.3741787737896
 30
0.0
  0
VERTEX
  5
2F4
  8
1
  6
CONTINUOUS
 62
     7
 10
-353.3013521195349
 20
179.5912089464587
 30
0.0
  0
VERTEX
  5
2F5
  8
1
  6
CONTINUOUS
 62
     7
 10
-353.3114404542381
 20
179.8183465219772
 30
0.0
  0
VERTEX
  5
2F6
  8
1
  6
CONTINUOUS
 62
     7
 10
-353.3215287889412
 20
180.0553579028786
 30
0.0
  0
VERTEX
  5
2F7
  8
1
  6
CONTINUOUS
 62
     7
 10
-353.3316171236443
 20
180.3020094916959
 30
0.0
  0
VERTEX
  5
2F8
  8
1
  6
CONTINUOUS
 62
     7
 10
-353.3417054583475
 20
180.5580676909624
 30
0.0
  0
VERTEX
  5
2F9
  8
1
  6
CONTINUOUS
 62
     7
 10
-353.3517937930507
 20
180.8232989032113
 30
0.0
  0
VERTEX
  5
2FA
  8
1
  6
CONTINUOUS
 62
     7
 10
-353.3618821277537
 20
181.0974695309758
 30
0.0
  0
VERTEX
  5
2FB
  8
1
  6
CONTINUOUS
 62
     7
 10
-353.3719704624569
 20
181.3803439112528
 30
0.0
  0
VERTEX
  5
2FC
  8
1
  6
CONTINUOUS
 62
     7
 10
-353.3820587971601
 20
181.6716403928626
 30
0.0
  0
VERTEX
  5
2FD
  8
1
  6
CONTINUOUS
 62
     7
 10
-353.3921471318632
 20
181.9710321649245
 30
0.0
  0
VERTEX
  5
2FE
  8
1
  6
CONTINUOUS
 62
     7
 10
-353.4022354665663
 20
182.2781905167329
 30
0.0
  0
VERTEX
  5
2FF
  8
1
  6
CONTINUOUS
 62
     7
 10
-353.4123238012695
 20
182.5927867375826
 30
0.0
  0
VERTEX
  5
300
  8
1
  6
CONTINUOUS
 62
     7
 10
-353.4224121359727
 20
182.9144921167683
 30
0.0
  0
VERTEX
  5
301
  8
1
  6
CONTINUOUS
 62
     7
 10
-353.4325004706758
 20
183.2429779435845
 30
0.0
  0
VERTEX
  5
302
  8
1
  6
CONTINUOUS
 62
     7
 10
-353.442588805379
 20
183.5779155073259
 30
0.0
  0
VERTEX
  5
303
  8
1
  6
CONTINUOUS
 62
     7
 10
-353.4526771400821
 20
183.9189760972871
 30
0.0
  0
VERTEX
  5
304
  8
1
  6
CONTINUOUS
 62
     7
 10
-353.4627654747853
 20
184.2658310027628
 30
0.0
  0
VERTEX
  5
305
  8
1
  6
CONTINUOUS
 62
     7
 10
-353.4728538094884
 20
184.6181515130475
 30
0.0
  0
VERTEX
  5
306
  8
1
  6
CONTINUOUS
 62
     7
 10
-353.4829421441917
 20
184.9756084589184
 30
0.0
  0
VERTEX
  5
307
  8
1
  6
CONTINUOUS
 62
     7
 10
-353.4930304788948
 20
185.3378511456823
 30
0.0
  0
VERTEX
  5
308
  8
1
  6
CONTINUOUS
 62
     7
 10
-353.5031188135979
 20
185.7044985644945
 30
0.0
  0
VERTEX
  5
309
  8
1
  6
CONTINUOUS
 62
     7
 10
-353.513207148301
 20
186.0751674254096
 30
0.0
  0
VERTEX
  5
30A
  8
1
  6
CONTINUOUS
 62
     7
 10
-353.5232954830041
 20
186.449474438482
 30
0.0
  0
VERTEX
  5
30B
  8
1
  6
CONTINUOUS
 62
     7
 10
-353.5333838177072
 20
186.8270363137664
 30
0.0
  0
VERTEX
  5
30C
  8
1
  6
CONTINUOUS
 62
     7
 10
-353.5434721524105
 20
187.2074697613172
 30
0.0
  0
VERTEX
  5
30D
  8
1
  6
CONTINUOUS
 62
     7
 10
-353.5535604871135
 20
187.5903914911889
 30
0.0
  0
VERTEX
  5
30E
  8
1
  6
CONTINUOUS
 62
     7
 10
-353.5636488218167
 20
187.9754182134361
 30
0.0
  0
VERTEX
  5
30F
  8
1
  6
CONTINUOUS
 62
     7
 10
-353.5737371565198
 20
188.3621666381132
 30
0.0
  0
VERTEX
  5
310
  8
1
  6
CONTINUOUS
 62
     7
 10
-353.583825491223
 20
188.7502534752749
 30
0.0
  0
VERTEX
  5
311
  8
1
  6
CONTINUOUS
 62
     7
 10
-353.5939138259261
 20
189.1392954197862
 30
0.0
  0
VERTEX
  5
312
  8
1
  6
CONTINUOUS
 62
     7
 10
-353.6040021606293
 20
189.5289069484595
 30
0.0
  0
VERTEX
  5
313
  8
1
  6
CONTINUOUS
 62
     7
 10
-353.6140904953324
 20
189.9186980090251
 30
0.0
  0
VERTEX
  5
314
  8
1
  6
CONTINUOUS
 62
     7
 10
-353.6241788300356
 20
190.3082779965754
 30
0.0
  0
VERTEX
  5
315
  8
1
  6
CONTINUOUS
 62
     7
 10
-353.6342671647387
 20
190.6972563062021
 30
0.0
  0
VERTEX
  5
316
  8
1
  6
CONTINUOUS
 62
     7
 10
-353.6443554994419
 20
191.0852423329978
 30
0.0
  0
VERTEX
  5
317
  8
1
  6
CONTINUOUS
 62
     7
 10
-353.6544438341451
 20
191.4718454720543
 30
0.0
  0
VERTEX
  5
318
  8
1
  6
CONTINUOUS
 62
     7
 10
-353.6645321688482
 20
191.8566751184637
 30
0.0
  0
VERTEX
  5
319
  8
1
  6
CONTINUOUS
 62
     7
 10
-353.6746205035513
 20
192.2393406673184
 30
0.0
  0
VERTEX
  5
31A
  8
1
  6
CONTINUOUS
 62
     7
 10
-353.6847088382544
 20
192.6194515137104
 30
0.0
  0
VERTEX
  5
31B
  8
1
  6
CONTINUOUS
 62
     7
 10
-353.6947971729576
 20
192.9966170527318
 30
0.0
  0
VERTEX
  5
31C
  8
1
  6
CONTINUOUS
 62
     7
 10
-353.7048855076607
 20
193.3704466851757
 30
0.0
  0
VERTEX
  5
31D
  8
1
  6
CONTINUOUS
 62
     7
 10
-353.7149738423639
 20
193.7405587099391
 30
0.0
  0
VERTEX
  5
31E
  8
1
  6
CONTINUOUS
 62
     7
 10
-353.7250621770669
 20
194.1065983143347
 30
0.0
  0
VERTEX
  5
31F
  8
1
  6
CONTINUOUS
 62
     7
 10
-353.7351505117702
 20
194.468215744793
 30
0.0
  0
VERTEX
  5
320
  8
1
  6
CONTINUOUS
 62
     7
 10
-353.7452388464733
 20
194.8250612477446
 30
0.0
  0
VERTEX
  5
321
  8
1
  6
CONTINUOUS
 62
     7
 10
-353.7553271811765
 20
195.1767850696203
 30
0.0
  0
VERTEX
  5
322
  8
1
  6
CONTINUOUS
 62
     7
 10
-353.7654155158796
 20
195.5230374568505
 30
0.0
  0
VERTEX
  5
323
  8
1
  6
CONTINUOUS
 62
     7
 10
-353.7755038505828
 20
195.863468655866
 30
0.0
  0
VERTEX
  5
324
  8
1
  6
CONTINUOUS
 62
     7
 10
-353.7855921852859
 20
196.1977289130974
 30
0.0
  0
VERTEX
  5
325
  8
1
  6
CONTINUOUS
 62
     7
 10
-353.795680519989
 20
196.5254684749754
 30
0.0
  0
VERTEX
  5
326
  8
1
  6
CONTINUOUS
 62
     7
 10
-353.8057688546921
 20
196.8463375879305
 30
0.0
  0
VERTEX
  5
327
  8
1
  6
CONTINUOUS
 62
     7
 10
-353.8158571893953
 20
197.1599864983934
 30
0.0
  0
VERTEX
  5
328
  8
1
  6
CONTINUOUS
 62
     7
 10
-353.8259455240985
 20
197.4660777082188
 30
0.0
  0
VERTEX
  5
329
  8
1
  6
CONTINUOUS
 62
     7
 10
-353.8360338588016
 20
197.764329551874
 30
0.0
  0
VERTEX
  5
32A
  8
1
  6
CONTINUOUS
 62
     7
 10
-353.8461221935048
 20
198.0544762548282
 30
0.0
  0
VERTEX
  5
32B
  8
1
  6
CONTINUOUS
 62
     7
 10
-353.856210528208
 20
198.3362520436882
 30
0.0
  0
VERTEX
  5
32C
  8
1
  6
CONTINUOUS
 62
     7
 10
-353.866298862911
 20
198.6093911450608
 30
0.0
  0
VERTEX
  5
32D
  8
1
  6
CONTINUOUS
 62
     7
 10
-353.8763871976142
 20
198.8736277855526
 30
0.0
  0
VERTEX
  5
32E
  8
1
  6
CONTINUOUS
 62
     7
 10
-353.8864755323173
 20
199.1286961917707
 30
0.0
  0
VERTEX
  5
32F
  8
1
  6
CONTINUOUS
 62
     7
 10
-353.8965638670205
 20
199.3743305903217
 30
0.0
  0
VERTEX
  5
330
  8
1
  6
CONTINUOUS
 62
     7
 10
-353.9066522017237
 20
199.6102652078124
 30
0.0
  0
VERTEX
  5
331
  8
1
  6
CONTINUOUS
 62
     7
 10
-353.9167405364267
 20
199.8362342708497
 30
0.0
  0
VERTEX
  5
332
  8
1
  6
CONTINUOUS
 62
     7
 10
-353.9268288711299
 20
200.0519720060403
 30
0.0
  0
VERTEX
  5
333
  8
1
  6
CONTINUOUS
 62
     7
 10
-353.936917205833
 20
200.2572233341087
 30
0.0
  0
VERTEX
  5
334
  8
1
  6
CONTINUOUS
 62
     7
 10
-353.9470055405363
 20
200.4518075365105
 30
0.0
  0
VERTEX
  5
335
  8
1
  6
CONTINUOUS
 62
     7
 10
-353.9570938752393
 20
200.6355754779215
 30
0.0
  0
VERTEX
  5
336
  8
1
  6
CONTINUOUS
 62
     7
 10
-353.9671822099424
 20
200.8083781381928
 30
0.0
  0
VERTEX
  5
337
  8
1
  6
CONTINUOUS
 62
     7
 10
-353.9772705446456
 20
200.9700664971753
 30
0.0
  0
VERTEX
  5
338
  8
1
  6
CONTINUOUS
 62
     7
 10
-353.9873588793488
 20
201.1204915347201
 30
0.0
  0
VERTEX
  5
339
  8
1
  6
CONTINUOUS
 62
     7
 10
-353.997447214052
 20
201.2595042306783
 30
0.0
  0
VERTEX
  5
33A
  8
1
  6
CONTINUOUS
 62
     7
 10
-354.0075355487551
 20
201.3869555649007
 30
0.0
  0
VERTEX
  5
33B
  8
1
  6
CONTINUOUS
 62
     7
 10
-354.0176238834583
 20
201.5026965172385
 30
0.0
  0
VERTEX
  5
33C
  8
1
  6
CONTINUOUS
 62
     7
 10
-354.0277122181614
 20
201.6065780675426
 30
0.0
  0
VERTEX
  5
33D
  8
1
  6
CONTINUOUS
 62
     7
 10
-354.0378005528645
 20
201.698451195664
 30
0.0
  0
VERTEX
  5
33E
  8
1
  6
CONTINUOUS
 62
     7
 10
-354.0478888875677
 20
201.778174011127
 30
0.0
  0
VERTEX
  5
33F
  8
1
  6
CONTINUOUS
 62
     7
 10
-354.0579772222707
 20
201.8456831872996
 30
0.0
  0
VERTEX
  5
340
  8
1
  6
CONTINUOUS
 62
     7
 10
-354.068065556974
 20
201.9009641058696
 30
0.0
  0
VERTEX
  5
341
  8
1
  6
CONTINUOUS
 62
     7
 10
-354.0781538916771
 20
201.9440028759153
 30
0.0
  0
VERTEX
  5
342
  8
1
  6
CONTINUOUS
 62
     7
 10
-354.0882422263803
 20
201.9747856065159
 30
0.0
  0
VERTEX
  5
343
  8
1
  6
CONTINUOUS
 62
     7
 10
-354.0983305610834
 20
201.9932984067497
 30
0.0
  0
VERTEX
  5
344
  8
1
  6
CONTINUOUS
 62
     7
 10
-354.1084188957865
 20
201.9995273856956
 30
0.0
  0
SEQEND
  5
67C
  8
1
  6
CONTINUOUS
 62
     7
  0
POLYLINE
  5
7C
  8
1
  6
CONTINUOUS
 62
     7
 66
     1
 10
0.0
 20
0.0
 30
0.0
  0
VERTEX
  5
345
  8
1
  6
CONTINUOUS
 62
     7
 10
-351.1383180650385
 20
177.4543362409633
 30
0.0
  0
VERTEX
  5
346
  8
1
  6
CONTINUOUS
 62
     7
 10
-351.1493408610759
 20
177.5017549065569
 30
0.0
  0
VERTEX
  5
347
  8
1
  6
CONTINUOUS
 62
     7
 10
-351.1603636571134
 20
177.5637773781721
 30
0.0
  0
VERTEX
  5
348
  8
1
  6
CONTINUOUS
 62
     7
 10
-351.1713864531508
 20
177.6402957271137
 30
0.0
  0
VERTEX
  5
349
  8
1
  6
CONTINUOUS
 62
     7
 10
-351.1824092491883
 20
177.7312020246863
 30
0.0
  0
VERTEX
  5
34A
  8
1
  6
CONTINUOUS
 62
     7
 10
-351.1934320452257
 20
177.8363883421945
 30
0.0
  0
VERTEX
  5
34B
  8
1
  6
CONTINUOUS
 62
     7
 10
-351.204454841263
 20
177.9557467509431
 30
0.0
  0
VERTEX
  5
34C
  8
1
  6
CONTINUOUS
 62
     7
 10
-351.2154776373005
 20
178.0891693222368
 30
0.0
  0
VERTEX
  5
34D
  8
1
  6
CONTINUOUS
 62
     7
 10
-351.2265004333381
 20
178.2365481273802
 30
0.0
  0
VERTEX
  5
34E
  8
1
  6
CONTINUOUS
 62
     7
 10
-351.2375232293754
 20
178.3977717851518
 30
0.0
  0
VERTEX
  5
34F
  8
1
  6
CONTINUOUS
 62
     7
 10
-351.2485460254128
 20
178.5726490749125
 30
0.0
  0
VERTEX
  5
350
  8
1
  6
CONTINUOUS
 62
     7
 10
-351.2595688214503
 20
178.7609086962465
 30
0.0
  0
VERTEX
  5
351
  8
1
  6
CONTINUOUS
 62
     7
 10
-351.2705916174877
 20
178.9622758481402
 30
0.0
  0
VERTEX
  5
352
  8
1
  6
CONTINUOUS
 62
     7
 10
-351.2816144135251
 20
179.17647572958
 30
0.0
  0
VERTEX
  5
353
  8
1
  6
CONTINUOUS
 62
     7
 10
-351.2926372095626
 20
179.4032335395524
 30
0.0
  0
VERTEX
  5
354
  8
1
  6
CONTINUOUS
 62
     7
 10
-351.3036600056
 20
179.6422744770436
 30
0.0
  0
VERTEX
  5
355
  8
1
  6
CONTINUOUS
 62
     7
 10
-351.3146828016373
 20
179.8933237410401
 30
0.0
  0
VERTEX
  5
356
  8
1
  6
CONTINUOUS
 62
     7
 10
-351.3257055976749
 20
180.1561065305282
 30
0.0
  0
VERTEX
  5
357
  8
1
  6
CONTINUOUS
 62
     7
 10
-351.3367283937123
 20
180.4303480444943
 30
0.0
  0
VERTEX
  5
358
  8
1
  6
CONTINUOUS
 62
     7
 10
-351.3477511897497
 20
180.7157728501678
 30
0.0
  0
VERTEX
  5
359
  8
1
  6
CONTINUOUS
 62
     7
 10
-351.3587739857871
 20
181.0120587297409
 30
0.0
  0
VERTEX
  5
35A
  8
1
  6
CONTINUOUS
 62
     7
 10
-351.3697967818246
 20
181.3188053217273
 30
0.0
  0
VERTEX
  5
35B
  8
1
  6
CONTINUOUS
 62
     7
 10
-351.380819577862
 20
181.6356048390221
 30
0.0
  0
VERTEX
  5
35C
  8
1
  6
CONTINUOUS
 62
     7
 10
-351.3918423738993
 20
181.9620494945204
 30
0.0
  0
VERTEX
  5
35D
  8
1
  6
CONTINUOUS
 62
     7
 10
-351.4028651699368
 20
182.2977315011173
 30
0.0
  0
VERTEX
  5
35E
  8
1
  6
CONTINUOUS
 62
     7
 10
-351.4138879659743
 20
182.642243071708
 30
0.0
  0
VERTEX
  5
35F
  8
1
  6
CONTINUOUS
 62
     7
 10
-351.4249107620117
 20
182.9951764191874
 30
0.0
  0
VERTEX
  5
360
  8
1
  6
CONTINUOUS
 62
     7
 10
-351.4359335580491
 20
183.3561237564507
 30
0.0
  0
VERTEX
  5
361
  8
1
  6
CONTINUOUS
 62
     7
 10
-351.4469563540865
 20
183.724677296393
 30
0.0
  0
VERTEX
  5
362
  8
1
  6
CONTINUOUS
 62
     7
 10
-351.457979150124
 20
184.1004292324993
 30
0.0
  0
VERTEX
  5
363
  8
1
  6
CONTINUOUS
 62
     7
 10
-351.4690019461614
 20
184.4829528786059
 30
0.0
  0
VERTEX
  5
364
  8
1
  6
CONTINUOUS
 62
     7
 10
-351.4800247421988
 20
184.8717673953377
 30
0.0
  0
VERTEX
  5
365
  8
1
  6
CONTINUOUS
 62
     7
 10
-351.4910475382363
 20
185.2663822945873
 30
0.0
  0
VERTEX
  5
366
  8
1
  6
CONTINUOUS
 62
     7
 10
-351.5020703342737
 20
185.6663070882474
 30
0.0
  0
VERTEX
  5
367
  8
1
  6
CONTINUOUS
 62
     7
 10
-351.5130931303111
 20
186.0710512882108
 30
0.0
  0
VERTEX
  5
368
  8
1
  6
CONTINUOUS
 62
     7
 10
-351.5241159263486
 20
186.48012440637
 30
0.0
  0
VERTEX
  5
369
  8
1
  6
CONTINUOUS
 62
     7
 10
-351.535138722386
 20
186.8930359546178
 30
0.0
  0
VERTEX
  5
36A
  8
1
  6
CONTINUOUS
 62
     7
 10
-351.5461615184234
 20
187.3092954448469
 30
0.0
  0
VERTEX
  5
36B
  8
1
  6
CONTINUOUS
 62
     7
 10
-351.5571843144608
 20
187.7284123889499
 30
0.0
  0
VERTEX
  5
36C
  8
1
  6
CONTINUOUS
 62
     7
 10
-351.5682071104982
 20
188.1498962988196
 30
0.0
  0
VERTEX
  5
36D
  8
1
  6
CONTINUOUS
 62
     7
 10
-351.5792299065358
 20
188.5732538150186
 30
0.0
  0
VERTEX
  5
36E
  8
1
  6
CONTINUOUS
 62
     7
 10
-351.5902527025731
 20
188.9979769070343
 30
0.0
  0
VERTEX
  5
36F
  8
1
  6
CONTINUOUS
 62
     7
 10
-351.6012754986105
 20
189.423552870847
 30
0.0
  0
VERTEX
  5
370
  8
1
  6
CONTINUOUS
 62
     7
 10
-351.612298294648
 20
189.8494690004476
 30
0.0
  0
VERTEX
  5
371
  8
1
  6
CONTINUOUS
 62
     7
 10
-351.6233210906855
 20
190.2752125898272
 30
0.0
  0
VERTEX
  5
372
  8
1
  6
CONTINUOUS
 62
     7
 10
-351.6343438867228
 20
190.7002709329766
 30
0.0
  0
VERTEX
  5
373
  8
1
  6
CONTINUOUS
 62
     7
 10
-351.6453666827603
 20
191.1241313238868
 30
0.0
  0
VERTEX
  5
374
  8
1
  6
CONTINUOUS
 62
     7
 10
-351.6563894787977
 20
191.5462810565488
 30
0.0
  0
VERTEX
  5
375
  8
1
  6
CONTINUOUS
 62
     7
 10
-351.6674122748352
 20
191.9662074249534
 30
0.0
  0
VERTEX
  5
376
  8
1
  6
CONTINUOUS
 62
     7
 10
-351.6784350708725
 20
192.3833977230916
 30
0.0
  0
VERTEX
  5
377
  8
1
  6
CONTINUOUS
 62
     7
 10
-351.68945786691
 20
192.7973418528277
 30
0.0
  0
VERTEX
  5
378
  8
1
  6
CONTINUOUS
 62
     7
 10
-351.7004806629474
 20
193.207554383893
 30
0.0
  0
VERTEX
  5
379
  8
1
  6
CONTINUOUS
 62
     7
 10
-351.7115034589849
 20
193.6135634735962
 30
0.0
  0
VERTEX
  5
37A
  8
1
  6
CONTINUOUS
 62
     7
 10
-351.7225262550223
 20
194.0148974208687
 30
0.0
  0
VERTEX
  5
37B
  8
1
  6
CONTINUOUS
 62
     7
 10
-351.7335490510597
 20
194.4110845246419
 30
0.0
  0
VERTEX
  5
37C
  8
1
  6
CONTINUOUS
 62
     7
 10
-351.7445718470971
 20
194.8016530838472
 30
0.0
  0
VERTEX
  5
37D
  8
1
  6
CONTINUOUS
 62
     7
 10
-351.7555946431345
 20
195.1861313974161
 30
0.0
  0
VERTEX
  5
37E
  8
1
  6
CONTINUOUS
 62
     7
 10
-351.7666174391719
 20
195.5640477642798
 30
0.0
  0
VERTEX
  5
37F
  8
1
  6
CONTINUOUS
 62
     7
 10
-351.7776402352094
 20
195.9349304833698
 30
0.0
  0
VERTEX
  5
380
  8
1
  6
CONTINUOUS
 62
     7
 10
-351.7886630312468
 20
196.2983078536175
 30
0.0
  0
VERTEX
  5
381
  8
1
  6
CONTINUOUS
 62
     7
 10
-351.7996858272842
 20
196.6537106618937
 30
0.0
  0
VERTEX
  5
382
  8
1
  6
CONTINUOUS
 62
     7
 10
-351.8107086233217
 20
197.0007191678995
 30
0.0
  0
VERTEX
  5
383
  8
1
  6
CONTINUOUS
 62
     7
 10
-351.8217314193591
 20
197.3389591471345
 30
0.0
  0
VERTEX
  5
384
  8
1
  6
CONTINUOUS
 62
     7
 10
-351.8327542153966
 20
197.6680580699065
 30
0.0
  0
VERTEX
  5
385
  8
1
  6
CONTINUOUS
 62
     7
 10
-351.843777011434
 20
197.9876434065237
 30
0.0
  0
VERTEX
  5
386
  8
1
  6
CONTINUOUS
 62
     7
 10
-351.8547998074714
 20
198.297342627294
 30
0.0
  0
VERTEX
  5
387
  8
1
  6
CONTINUOUS
 62
     7
 10
-351.8658226035088
 20
198.5967832025254
 30
0.0
  0
VERTEX
  5
388
  8
1
  6
CONTINUOUS
 62
     7
 10
-351.8768453995463
 20
198.885592602526
 30
0.0
  0
VERTEX
  5
389
  8
1
  6
CONTINUOUS
 62
     7
 10
-351.8878681955837
 20
199.1633982976037
 30
0.0
  0
VERTEX
  5
38A
  8
1
  6
CONTINUOUS
 62
     7
 10
-351.8988909916211
 20
199.4298277580666
 30
0.0
  0
VERTEX
  5
38B
  8
1
  6
CONTINUOUS
 62
     7
 10
-351.9099137876586
 20
199.6845093928107
 30
0.0
  0
VERTEX
  5
38C
  8
1
  6
CONTINUOUS
 62
     7
 10
-351.9209365836959
 20
199.9271258609853
 30
0.0
  0
VERTEX
  5
38D
  8
1
  6
CONTINUOUS
 62
     7
 10
-351.9319593797334
 20
200.1574427432526
 30
0.0
  0
VERTEX
  5
38E
  8
1
  6
CONTINUOUS
 62
     7
 10
-351.9429821757708
 20
200.375232618706
 30
0.0
  0
VERTEX
  5
38F
  8
1
  6
CONTINUOUS
 62
     7
 10
-351.9540049718083
 20
200.5802680664388
 30
0.0
  0
VERTEX
  5
390
  8
1
  6
CONTINUOUS
 62
     7
 10
-351.9650277678457
 20
200.7723216655442
 30
0.0
  0
VERTEX
  5
391
  8
1
  6
CONTINUOUS
 62
     7
 10
-351.9760505638831
 20
200.9511659951156
 30
0.0
  0
VERTEX
  5
392
  8
1
  6
CONTINUOUS
 62
     7
 10
-351.9870733599206
 20
201.1165736342464
 30
0.0
  0
VERTEX
  5
393
  8
1
  6
CONTINUOUS
 62
     7
 10
-351.998096155958
 20
201.2683171620295
 30
0.0
  0
VERTEX
  5
394
  8
1
  6
CONTINUOUS
 62
     7
 10
-352.0091189519954
 20
201.4061691575586
 30
0.0
  0
VERTEX
  5
395
  8
1
  6
CONTINUOUS
 62
     7
 10
-352.0201417480329
 20
201.5299022882462
 30
0.0
  0
VERTEX
  5
396
  8
1
  6
CONTINUOUS
 62
     7
 10
-352.0311645440703
 20
201.6393322099578
 30
0.0
  0
VERTEX
  5
397
  8
1
  6
CONTINUOUS
 62
     7
 10
-352.0421873401077
 20
201.7343866286333
 30
0.0
  0
VERTEX
  5
398
  8
1
  6
CONTINUOUS
 62
     7
 10
-352.0532101361452
 20
201.8150112758947
 30
0.0
  0
VERTEX
  5
399
  8
1
  6
CONTINUOUS
 62
     7
 10
-352.0642329321826
 20
201.881151883364
 30
0.0
  0
VERTEX
  5
39A
  8
1
  6
CONTINUOUS
 62
     7
 10
-352.07525572822
 20
201.9327541826631
 30
0.0
  0
VERTEX
  5
39B
  8
1
  6
CONTINUOUS
 62
     7
 10
-352.0862785242575
 20
201.9697639054142
 30
0.0
  0
VERTEX
  5
39C
  8
1
  6
CONTINUOUS
 62
     7
 10
-352.0973013202949
 20
201.9921267832391
 30
0.0
  0
VERTEX
  5
39D
  8
1
  6
CONTINUOUS
 62
     7
 10
-352.1083241163323
 20
201.9997885477598
 30
0.0
  0
SEQEND
  5
67D
  8
1
  6
CONTINUOUS
 62
     7
  0
LINE
  5
7D
  8
1
  6
CONTINUOUS
 62
     7
 10
-350.1084290273141
 20
202.0
 30
0.0
 11
-350.1606010878194
 21
201.8346537037645
 31
0.0
  0
LINE
  5
7E
  8
1
  6
CONTINUOUS
 62
     7
 10
-350.3763782197452
 20
201.0
 30
0.0
 11
-350.1084290273141
 21
202.0
 31
0.0
  0
LINE
  5
7F
  8
1
  6
CONTINUOUS
 62
     7
 10
-351.4999737234629
 20
179.2411819774123
 30
0.0
 11
-351.4087808505359
 21
178.4584968650467
 31
0.0
  0
LINE
  5
80
  8
1
  6
CONTINUOUS
 62
     7
 10
-351.6123332768853
 20
181.3650234111244
 30
0.0
 11
-351.4999737234629
 21
179.2411819774123
 31
0.0
  0
LINE
  5
81
  8
1
  6
CONTINUOUS
 62
     7
 10
-351.724692826165
 20
184.5166680071446
 30
0.0
 11
-351.6123332768853
 21
181.3650234111244
 31
0.0
  0
LINE
  5
82
  8
1
  6
CONTINUOUS
 62
     7
 10
-351.8370523771496
 20
188.3074800616318
 30
0.0
 11
-351.724692826165
 21
184.5166680071446
 31
0.0
  0
LINE
  5
83
  8
1
  6
CONTINUOUS
 62
     7
 10
-351.9494119275834
 20
192.2700066185905
 30
0.0
 11
-351.8370523771496
 21
188.3074800616318
 31
0.0
  0
LINE
  5
84
  8
1
  6
CONTINUOUS
 62
     7
 10
-352.0617714781767
 20
195.9156203373469
 30
0.0
 11
-351.9494119275834
 21
192.2700066185905
 31
0.0
  0
LINE
  5
85
  8
1
  6
CONTINUOUS
 62
     7
 10
-352.1741310287311
 20
198.7947730263704
 30
0.0
 11
-352.0617714781767
 21
195.9156203373469
 31
0.0
  0
LINE
  5
86
  8
1
  6
CONTINUOUS
 62
     7
 10
-352.2864905792942
 20
200.5524304007006
 30
0.0
 11
-352.1741310287311
 21
198.7947730263704
 31
0.0
  0
LINE
  5
87
  8
1
  6
CONTINUOUS
 62
     7
 10
-353.5224456354737
 20
179.5690155089264
 30
0.0
 11
-353.4100860849119
 21
178.4633000070074
 31
0.0
  0
LINE
  5
88
  8
1
  6
CONTINUOUS
 62
     7
 10
-353.6348051860355
 20
181.9240037095006
 30
0.0
 11
-353.5224456354737
 21
179.5690155089264
 31
0.0
  0
LINE
  5
89
  8
1
  6
CONTINUOUS
 62
     7
 10
-353.7471647365973
 20
185.2378661319362
 30
0.0
 11
-353.6348051860355
 21
181.9240037095006
 31
0.0
  0
LINE
  5
8A
  8
1
  6
CONTINUOUS
 62
     7
 10
-353.8595242871591
 20
189.101963531438
 30
0.0
 11
-353.7471647365973
 21
185.2378661319362
 31
0.0
  0
LINE
  5
8B
  8
1
  6
CONTINUOUS
 62
     7
 10
-353.9718838377209
 20
193.0398060475792
 30
0.0
 11
-353.8595242871591
 21
189.101963531438
 31
0.0
  0
LINE
  5
8C
  8
1
  6
CONTINUOUS
 62
     7
 10
-354.0842433882827
 20
196.5658101567325
 30
0.0
 11
-353.9718838377209
 21
193.0398060475792
 31
0.0
  0
LINE
  5
8D
  8
1
  6
CONTINUOUS
 62
     7
 10
-354.1966029388445
 20
199.2451769829524
 30
0.0
 11
-354.0842433882827
 21
196.5658101567325
 31
0.0
  0
LINE
  5
8E
  8
1
  6
CONTINUOUS
 62
     7
 10
-354.3089624894063
 20
200.7475082486962
 30
0.0
 11
-354.1966029388445
 21
199.2451769829524
 31
0.0
  0
LINE
  5
8F
  8
1
  6
CONTINUOUS
 62
     7
 10
-355.4325579950242
 20
178.5755415425019
 30
0.0
 11
-355.4097318673776
 21
178.4619778362121
 31
0.0
  0
LINE
  5
90
  8
1
  6
CONTINUOUS
 62
     7
 10
-355.5449175455861
 20
179.9473210700577
 30
0.0
 11
-355.4325579950242
 21
178.5755415425019
 31
0.0
  0
LINE
  5
91
  8
1
  6
CONTINUOUS
 62
     7
 10
-355.6572770961479
 20
182.5217236533153
 30
0.0
 11
-355.5449175455861
 21
179.9473210700577
 31
0.0
  0
LINE
  5
92
  8
1
  6
CONTINUOUS
 62
     7
 10
-355.7696366467097
 20
185.9812943731154
 30
0.0
 11
-355.6572770961479
 21
182.5217236533153
 31
0.0
  0
LINE
  5
93
  8
1
  6
CONTINUOUS
 62
     7
 10
-356.1067152983951
 20
197.1817948554659
 30
0.0
 11
-355.9943557478333
 21
193.79296672997
 31
0.0
  0
LINE
  5
94
  8
1
  6
CONTINUOUS
 62
     7
 10
-356.2190748489568
 20
199.6480273479195
 30
0.0
 11
-356.1067152983951
 21
197.1817948554659
 31
0.0
  0
LINE
  5
95
  8
1
  6
CONTINUOUS
 62
     7
 10
-356.3314343995186
 20
200.8875479663046
 30
0.0
 11
-356.2190748489568
 21
199.6480273479195
 31
0.0
  0
LINE
  5
96
  8
1
  6
CONTINUOUS
 62
     7
 10
-357.4550299051367
 20
178.7432045704556
 30
0.0
 11
-357.4097061603618
 21
178.4618824224853
 31
0.0
  0
LINE
  5
97
  8
1
  6
CONTINUOUS
 62
     7
 10
-357.5673894556984
 20
180.3742139870422
 30
0.0
 11
-357.4550299051367
 21
178.7432045704556
 31
0.0
  0
LINE
  5
98
  8
1
  6
CONTINUOUS
 62
     7
 10
-357.6797490062602
 20
183.1552054088092
 30
0.0
 11
-357.5673894556984
 21
180.3742139870422
 31
0.0
  0
LINE
  5
99
  8
1
  6
CONTINUOUS
 62
     7
 10
-357.792108556822
 20
186.7432490186706
 30
0.0
 11
-357.6797490062602
 21
183.1552054088092
 31
0.0
  0
POLYLINE
  5
9A
  8
1
  6
CONTINUOUS
 62
     7
 66
     1
 10
0.0
 20
0.0
 30
0.0
  0
VERTEX
  5
39E
  8
1
  6
CONTINUOUS
 62
     7
 10
-357.1084696489938
 20
177.4003619363095
 30
0.0
  0
VERTEX
  5
39F
  8
1
  6
CONTINUOUS
 62
     7
 10
-357.1092679564238
 20
177.4004141256522
 30
0.0
  0
VERTEX
  5
3A0
  8
1
  6
CONTINUOUS
 62
     7
 10
-357.1100662638537
 20
177.4005434534579
 30
0.0
  0
VERTEX
  5
3A1
  8
1
  6
CONTINUOUS
 62
     7
 10
-357.1108645712837
 20
177.400749905969
 30
0.0
  0
VERTEX
  5
3A2
  8
1
  6
CONTINUOUS
 62
     7
 10
-357.1116628787137
 20
177.4010334694279
 30
0.0
  0
VERTEX
  5
3A3
  8
1
  6
CONTINUOUS
 62
     7
 10
-357.1124611861437
 20
177.4013941300772
 30
0.0
  0
VERTEX
  5
3A4
  8
1
  6
CONTINUOUS
 62
     7
 10
-357.1132594935736
 20
177.4018318741591
 30
0.0
  0
VERTEX
  5
3A5
  8
1
  6
CONTINUOUS
 62
     7
 10
-357.1140578010036
 20
177.4023466879162
 30
0.0
  0
VERTEX
  5
3A6
  8
1
  6
CONTINUOUS
 62
     7
 10
-357.1148561084336
 20
177.402938557591
 30
0.0
  0
VERTEX
  5
3A7
  8
1
  6
CONTINUOUS
 62
     7
 10
-357.1156544158635
 20
177.4036074694258
 30
0.0
  0
VERTEX
  5
3A8
  8
1
  6
CONTINUOUS
 62
     7
 10
-357.1164527232935
 20
177.4043534096631
 30
0.0
  0
VERTEX
  5
3A9
  8
1
  6
CONTINUOUS
 62
     7
 10
-357.1172510307235
 20
177.4051763645454
 30
0.0
  0
VERTEX
  5
3AA
  8
1
  6
CONTINUOUS
 62
     7
 10
-357.1180493381535
 20
177.4060763203151
 30
0.0
  0
VERTEX
  5
3AB
  8
1
  6
CONTINUOUS
 62
     7
 10
-357.1188476455834
 20
177.4070532632146
 30
0.0
  0
VERTEX
  5
3AC
  8
1
  6
CONTINUOUS
 62
     7
 10
-357.1196459530133
 20
177.4081071794863
 30
0.0
  0
VERTEX
  5
3AD
  8
1
  6
CONTINUOUS
 62
     7
 10
-357.1204442604434
 20
177.4092380553729
 30
0.0
  0
VERTEX
  5
3AE
  8
1
  6
CONTINUOUS
 62
     7
 10
-357.1212425678733
 20
177.4104458771165
 30
0.0
  0
VERTEX
  5
3AF
  8
1
  6
CONTINUOUS
 62
     7
 10
-357.1220408753032
 20
177.4117306309598
 30
0.0
  0
VERTEX
  5
3B0
  8
1
  6
CONTINUOUS
 62
     7
 10
-357.1228391827333
 20
177.4130923031451
 30
0.0
  0
VERTEX
  5
3B1
  8
1
  6
CONTINUOUS
 62
     7
 10
-357.1236374901632
 20
177.4145308799149
 30
0.0
  0
VERTEX
  5
3B2
  8
1
  6
CONTINUOUS
 62
     7
 10
-357.1244357975932
 20
177.4160463475116
 30
0.0
  0
VERTEX
  5
3B3
  8
1
  6
CONTINUOUS
 62
     7
 10
-357.1252341050232
 20
177.4176386921778
 30
0.0
  0
VERTEX
  5
3B4
  8
1
  6
CONTINUOUS
 62
     7
 10
-357.1260324124531
 20
177.4193079001557
 30
0.0
  0
VERTEX
  5
3B5
  8
1
  6
CONTINUOUS
 62
     7
 10
-357.1268307198832
 20
177.421053957688
 30
0.0
  0
VERTEX
  5
3B6
  8
1
  6
CONTINUOUS
 62
     7
 10
-357.1276290273131
 20
177.4228768510169
 30
0.0
  0
SEQEND
  5
67E
  8
1
  6
CONTINUOUS
 62
     7
  0
LINE
  5
9B
  8
1
  6
CONTINUOUS
 62
     7
 10
-356.1112623606464
 20
201.9990228325871
 30
0.0
 11
-356.1382446015314
 21
201.9456718331904
 31
0.0
  0
POLYLINE
  5
9C
  8
1
  6
CONTINUOUS
 62
     7
 66
     1
 10
0.0
 20
0.0
 30
0.0
  0
VERTEX
  5
3B7
  8
1
  6
CONTINUOUS
 62
     7
 10
-355.108429049505
 20
177.4005129457336
 30
0.0
  0
VERTEX
  5
3B8
  8
1
  6
CONTINUOUS
 62
     7
 10
-355.1091096041359
 20
177.4005409103088
 30
0.0
  0
VERTEX
  5
3B9
  8
1
  6
CONTINUOUS
 62
     7
 10
-355.1097901587668
 20
177.4006248037169
 30
0.0
  0
VERTEX
  5
3BA
  8
1
  6
CONTINUOUS
 62
     7
 10
-355.1104707133976
 20
177.4007646259581
 30
0.0
  0
VERTEX
  5
3BB
  8
1
  6
CONTINUOUS
 62
     7
 10
-355.1111512680286
 20
177.4009603770322
 30
0.0
  0
VERTEX
  5
3BC
  8
1
  6
CONTINUOUS
 62
     7
 10
-355.1118318226594
 20
177.4012120569394
 30
0.0
  0
VERTEX
  5
3BD
  8
1
  6
CONTINUOUS
 62
     7
 10
-355.1125123772904
 20
177.4015196656795
 30
0.0
  0
VERTEX
  5
3BE
  8
1
  6
CONTINUOUS
 62
     7
 10
-355.1131929319212
 20
177.4018832032526
 30
0.0
  0
VERTEX
  5
3BF
  8
1
  6
CONTINUOUS
 62
     7
 10
-355.1138734865522
 20
177.4023026696588
 30
0.0
  0
VERTEX
  5
3C0
  8
1
  6
CONTINUOUS
 62
     7
 10
-355.1145540411831
 20
177.4027780648979
 30
0.0
  0
VERTEX
  5
3C1
  8
1
  6
CONTINUOUS
 62
     7
 10
-355.1152345958139
 20
177.4033093889701
 30
0.0
  0
VERTEX
  5
3C2
  8
1
  6
CONTINUOUS
 62
     7
 10
-355.1159151504448
 20
177.4038966418753
 30
0.0
  0
VERTEX
  5
3C3
  8
1
  6
CONTINUOUS
 62
     7
 10
-355.1165957050757
 20
177.4045398236136
 30
0.0
  0
VERTEX
  5
3C4
  8
1
  6
CONTINUOUS
 62
     7
 10
-355.1172762597066
 20
177.4052389341849
 30
0.0
  0
VERTEX
  5
3C5
  8
1
  6
CONTINUOUS
 62
     7
 10
-355.1179568143374
 20
177.4059939735893
 30
0.0
  0
VERTEX
  5
3C6
  8
1
  6
CONTINUOUS
 62
     7
 10
-355.1186373689685
 20
177.4068049418267
 30
0.0
  0
VERTEX
  5
3C7
  8
1
  6
CONTINUOUS
 62
     7
 10
-355.1193179235993
 20
177.4076718388973
 30
0.0
  0
VERTEX
  5
3C8
  8
1
  6
CONTINUOUS
 62
     7
 10
-355.1199984782302
 20
177.4085946648009
 30
0.0
  0
VERTEX
  5
3C9
  8
1
  6
CONTINUOUS
 62
     7
 10
-355.1206790328611
 20
177.4095734195375
 30
0.0
  0
VERTEX
  5
3CA
  8
1
  6
CONTINUOUS
 62
     7
 10
-355.121359587492
 20
177.4106081031073
 30
0.0
  0
VERTEX
  5
3CB
  8
1
  6
CONTINUOUS
 62
     7
 10
-355.1220401421228
 20
177.4116987155102
 30
0.0
  0
VERTEX
  5
3CC
  8
1
  6
CONTINUOUS
 62
     7
 10
-355.1227206967538
 20
177.4128452567462
 30
0.0
  0
VERTEX
  5
3CD
  8
1
  6
CONTINUOUS
 62
     7
 10
-355.1234012513847
 20
177.4140477268154
 30
0.0
  0
VERTEX
  5
3CE
  8
1
  6
CONTINUOUS
 62
     7
 10
-355.1240818060155
 20
177.4153061257176
 30
0.0
  0
VERTEX
  5
3CF
  8
1
  6
CONTINUOUS
 62
     7
 10
-355.1247623606465
 20
177.416620453453
 30
0.0
  0
SEQEND
  5
67F
  8
1
  6
CONTINUOUS
 62
     7
  0
LINE
  5
9D
  8
1
  6
CONTINUOUS
 62
     7
 10
-354.1104290273131
 20
201.9992996728676
 30
0.0
 11
-354.1379760858635
 21
201.9469291995819
 31
0.0
  0
POLYLINE
  5
9E
  8
1
  6
CONTINUOUS
 62
     7
 66
     1
 10
0.0
 20
0.0
 30
0.0
  0
VERTEX
  5
3D0
  8
1
  6
CONTINUOUS
 62
     7
 10
-353.1083884458358
 20
177.4003619358159
 30
0.0
  0
VERTEX
  5
3D1
  8
1
  6
CONTINUOUS
 62
     7
 10
-353.1091526367308
 20
177.4003842535373
 30
0.0
  0
VERTEX
  5
3D2
  8
1
  6
CONTINUOUS
 62
     7
 10
-353.1099168276256
 20
177.4004772820888
 30
0.0
  0
VERTEX
  5
3D3
  8
1
  6
CONTINUOUS
 62
     7
 10
-353.1106810185205
 20
177.4006410335385
 30
0.0
  0
VERTEX
  5
3D4
  8
1
  6
CONTINUOUS
 62
     7
 10
-353.1114452094154
 20
177.4008755199543
 30
0.0
  0
VERTEX
  5
3D5
  8
1
  6
CONTINUOUS
 62
     7
 10
-353.1122094003103
 20
177.4011807534044
 30
0.0
  0
VERTEX
  5
3D6
  8
1
  6
CONTINUOUS
 62
     7
 10
-353.1129735912051
 20
177.4015567459567
 30
0.0
  0
VERTEX
  5
3D7
  8
1
  6
CONTINUOUS
 62
     7
 10
-353.1137377821
 20
177.4020035096793
 30
0.0
  0
VERTEX
  5
3D8
  8
1
  6
CONTINUOUS
 62
     7
 10
-353.1145019729948
 20
177.4025210566403
 30
0.0
  0
VERTEX
  5
3D9
  8
1
  6
CONTINUOUS
 62
     7
 10
-353.1152661638898
 20
177.4031093989077
 30
0.0
  0
VERTEX
  5
3DA
  8
1
  6
CONTINUOUS
 62
     7
 10
-353.1160303547846
 20
177.4037685485496
 30
0.0
  0
VERTEX
  5
3DB
  8
1
  6
CONTINUOUS
 62
     7
 10
-353.1167945456795
 20
177.404498517634
 30
0.0
  0
VERTEX
  5
3DC
  8
1
  6
CONTINUOUS
 62
     7
 10
-353.1175587365744
 20
177.4052993182291
 30
0.0
  0
VERTEX
  5
3DD
  8
1
  6
CONTINUOUS
 62
     7
 10
-353.1183229274693
 20
177.4061709624027
 30
0.0
  0
VERTEX
  5
3DE
  8
1
  6
CONTINUOUS
 62
     7
 10
-353.1190871183642
 20
177.4071134622231
 30
0.0
  0
VERTEX
  5
3DF
  8
1
  6
CONTINUOUS
 62
     7
 10
-353.119851309259
 20
177.4081268297581
 30
0.0
  0
VERTEX
  5
3E0
  8
1
  6
CONTINUOUS
 62
     7
 10
-353.1206155001539
 20
177.409211077076
 30
0.0
  0
VERTEX
  5
3E1
  8
1
  6
CONTINUOUS
 62
     7
 10
-353.1213796910489
 20
177.4103662162447
 30
0.0
  0
VERTEX
  5
3E2
  8
1
  6
CONTINUOUS
 62
     7
 10
-353.1221438819437
 20
177.4115922593323
 30
0.0
  0
VERTEX
  5
3E3
  8
1
  6
CONTINUOUS
 62
     7
 10
-353.1229080728386
 20
177.4128892184069
 30
0.0
  0
VERTEX
  5
3E4
  8
1
  6
CONTINUOUS
 62
     7
 10
-353.1236722637335
 20
177.4142571055364
 30
0.0
  0
VERTEX
  5
3E5
  8
1
  6
CONTINUOUS
 62
     7
 10
-353.1244364546284
 20
177.415695932789
 30
0.0
  0
VERTEX
  5
3E6
  8
1
  6
CONTINUOUS
 62
     7
 10
-353.1252006455233
 20
177.4172057122327
 30
0.0
  0
VERTEX
  5
3E7
  8
1
  6
CONTINUOUS
 62
     7
 10
-353.1259648364182
 20
177.4187864559356
 30
0.0
  0
VERTEX
  5
3E8
  8
1
  6
CONTINUOUS
 62
     7
 10
-353.126729027313
 20
177.4204381759656
 30
0.0
  0
SEQEND
  5
680
  8
1
  6
CONTINUOUS
 62
     7
  0
LINE
  5
9F
  8
1
  6
CONTINUOUS
 62
     7
 10
-352.112229027313
 20
201.9989660955557
 30
0.0
 11
-352.1390006682396
 21
201.9432799505352
 31
0.0
  0
POLYLINE
  5
A0
  8
1
  6
CONTINUOUS
 62
     7
 66
     1
 10
0.0
 20
0.0
 30
0.0
  0
VERTEX
  5
3E9
  8
1
  6
CONTINUOUS
 62
     7
 10
-351.1083401786681
 20
177.4000674469339
 30
0.0
  0
VERTEX
  5
3EA
  8
1
  6
CONTINUOUS
 62
     7
 10
-351.1089419135215
 20
177.4000767748458
 30
0.0
  0
VERTEX
  5
3EB
  8
1
  6
CONTINUOUS
 62
     7
 10
-351.1095436483751
 20
177.4001302796067
 30
0.0
  0
VERTEX
  5
3EC
  8
1
  6
CONTINUOUS
 62
     7
 10
-351.1101453832285
 20
177.4002279729707
 30
0.0
  0
VERTEX
  5
3ED
  8
1
  6
CONTINUOUS
 62
     7
 10
-351.110747118082
 20
177.4003698666921
 30
0.0
  0
VERTEX
  5
3EE
  8
1
  6
CONTINUOUS
 62
     7
 10
-351.1113488529355
 20
177.4005559725252
 30
0.0
  0
VERTEX
  5
3EF
  8
1
  6
CONTINUOUS
 62
     7
 10
-351.111950587789
 20
177.400786302224
 30
0.0
  0
VERTEX
  5
3F0
  8
1
  6
CONTINUOUS
 62
     7
 10
-351.1125523226425
 20
177.4010608675431
 30
0.0
  0
VERTEX
  5
3F1
  8
1
  6
CONTINUOUS
 62
     7
 10
-351.113154057496
 20
177.4013796802364
 30
0.0
  0
VERTEX
  5
3F2
  8
1
  6
CONTINUOUS
 62
     7
 10
-351.1137557923495
 20
177.4017427520583
 30
0.0
  0
VERTEX
  5
3F3
  8
1
  6
CONTINUOUS
 62
     7
 10
-351.114357527203
 20
177.4021500947631
 30
0.0
  0
VERTEX
  5
3F4
  8
1
  6
CONTINUOUS
 62
     7
 10
-351.1149592620564
 20
177.4026017201049
 30
0.0
  0
VERTEX
  5
3F5
  8
1
  6
CONTINUOUS
 62
     7
 10
-351.11556099691
 20
177.403097639838
 30
0.0
  0
VERTEX
  5
3F6
  8
1
  6
CONTINUOUS
 62
     7
 10
-351.1161627317634
 20
177.4036378657166
 30
0.0
  0
VERTEX
  5
3F7
  8
1
  6
CONTINUOUS
 62
     7
 10
-351.1167644666169
 20
177.404222409495
 30
0.0
  0
VERTEX
  5
3F8
  8
1
  6
CONTINUOUS
 62
     7
 10
-351.1173662014704
 20
177.4048512829274
 30
0.0
  0
VERTEX
  5
3F9
  8
1
  6
CONTINUOUS
 62
     7
 10
-351.1179679363239
 20
177.4055244977681
 30
0.0
  0
VERTEX
  5
3FA
  8
1
  6
CONTINUOUS
 62
     7
 10
-351.1185696711774
 20
177.4062420657712
 30
0.0
  0
VERTEX
  5
3FB
  8
1
  6
CONTINUOUS
 62
     7
 10
-351.1191714060308
 20
177.407003998691
 30
0.0
  0
VERTEX
  5
3FC
  8
1
  6
CONTINUOUS
 62
     7
 10
-351.1197731408844
 20
177.4078103082536
 30
0.0
  0
VERTEX
  5
3FD
  8
1
  6
CONTINUOUS
 62
     7
 10
-351.1203748757379
 20
177.4086609982763
 30
0.0
  0
VERTEX
  5
3FE
  8
1
  6
CONTINUOUS
 62
     7
 10
-351.1209766105913
 20
177.4095560538975
 30
0.0
  0
VERTEX
  5
3FF
  8
1
  6
CONTINUOUS
 62
     7
 10
-351.1215783454448
 20
177.4104954575589
 30
0.0
  0
VERTEX
  5
400
  8
1
  6
CONTINUOUS
 62
     7
 10
-351.1221800802983
 20
177.4114791917026
 30
0.0
  0
VERTEX
  5
401
  8
1
  6
CONTINUOUS
 62
     7
 10
-351.1227818151518
 20
177.4125072387704
 30
0.0
  0
VERTEX
  5
402
  8
1
  6
CONTINUOUS
 62
     7
 10
-351.1233835500053
 20
177.4135795812043
 30
0.0
  0
VERTEX
  5
403
  8
1
  6
CONTINUOUS
 62
     7
 10
-351.1239852848589
 20
177.4146962014462
 30
0.0
  0
VERTEX
  5
404
  8
1
  6
CONTINUOUS
 62
     7
 10
-351.1245870197123
 20
177.4158570819379
 30
0.0
  0
VERTEX
  5
405
  8
1
  6
CONTINUOUS
 62
     7
 10
-351.1251887545658
 20
177.4170622051215
 30
0.0
  0
VERTEX
  5
406
  8
1
  6
CONTINUOUS
 62
     7
 10
-351.1257904894192
 20
177.4183115534386
 30
0.0
  0
VERTEX
  5
407
  8
1
  6
CONTINUOUS
 62
     7
 10
-351.1263922242728
 20
177.4196051093316
 30
0.0
  0
VERTEX
  5
408
  8
1
  6
CONTINUOUS
 62
     7
 10
-351.1269939591262
 20
177.420942855242
 30
0.0
  0
VERTEX
  5
409
  8
1
  6
CONTINUOUS
 62
     7
 10
-351.1275956939797
 20
177.4223247736119
 30
0.0
  0
SEQEND
  5
681
  8
1
  6
CONTINUOUS
 62
     7
  0
LINE
  5
A1
  8
1
  6
CONTINUOUS
 62
     7
 10
-350.4762893711011
 20
177.4000674465036
 30
0.0
 11
-350.4466894152937
 21
177.4538960296165
 31
0.0
  0
LINE
  5
A2
  8
1
  6
CONTINUOUS
 62
     7
 10
-351.4762733087654
 20
201.9997885482663
 30
0.0
 11
-351.4448612981398
 21
201.9392487022701
 31
0.0
  0
LINE
  5
A3
  8
1
  6
CONTINUOUS
 62
     7
 10
-352.4763376382688
 20
177.4003619356239
 30
0.0
 11
-352.4456913410762
 21
177.4576052291737
 31
0.0
  0
LINE
  5
A4
  8
1
  6
CONTINUOUS
 62
     7
 10
-353.4763680882196
 20
201.9995273857412
 30
0.0
 11
-353.4465626455278
 21
201.9456718331905
 31
0.0
  0
LINE
  5
A5
  8
1
  6
CONTINUOUS
 62
     7
 10
-354.4763782419381
 20
177.4005129457337
 30
0.0
 11
-354.4455949655253
 21
177.4577277295824
 31
0.0
  0
LINE
  5
A6
  8
1
  6
CONTINUOUS
 62
     7
 10
-355.4763883109601
 20
201.9995273860249
 30
0.0
 11
-355.4468311611957
 21
201.9469291995819
 31
0.0
  0
LINE
  5
A7
  8
1
  6
CONTINUOUS
 62
     7
 10
-356.4764188414268
 20
177.4003619365017
 30
0.0
 11
-356.4448684827746
 21
177.4602193321608
 31
0.0
  0
LINE
  5
A8
  8
1
  6
CONTINUOUS
 62
     7
 10
-357.4764830925691
 20
201.9997885487744
 30
0.0
 11
-357.4458065788195
 21
201.9432799505352
 31
0.0
  0
LINE
  5
A9
  8
1
  6
CONTINUOUS
 62
     7
 10
-350.1084290273141
 20
202.0
 30
0.0
 11
-349.4763782197451
 21
202.0
 31
0.0
  0
POLYLINE
  5
AA
  8
1
  6
CONTINUOUS
 62
     7
 66
     1
 10
0.0
 20
0.0
 30
0.0
  0
VERTEX
  5
40A
  8
1
  6
CONTINUOUS
 62
     7
 10
-351.4448612981398
 20
201.9392487022701
 30
0.0
  0
VERTEX
  5
40B
  8
1
  6
CONTINUOUS
 62
     7
 10
-351.4347720072332
 20
201.8945850597284
 30
0.0
  0
VERTEX
  5
40C
  8
1
  6
CONTINUOUS
 62
     7
 10
-351.4246827163265
 20
201.8377306131053
 30
0.0
  0
VERTEX
  5
40D
  8
1
  6
CONTINUOUS
 62
     7
 10
-351.4145934254199
 20
201.7687269776922
 30
0.0
  0
VERTEX
  5
40E
  8
1
  6
CONTINUOUS
 62
     7
 10
-351.4045041345132
 20
201.687615768781
 30
0.0
  0
VERTEX
  5
40F
  8
1
  6
CONTINUOUS
 62
     7
 10
-351.3944148436065
 20
201.5944386016633
 30
0.0
  0
VERTEX
  5
410
  8
1
  6
CONTINUOUS
 62
     7
 10
-351.3843255526998
 20
201.4892373103022
 30
0.0
  0
VERTEX
  5
411
  8
1
  6
CONTINUOUS
 62
     7
 10
-351.3742362617932
 20
201.372092506393
 30
0.0
  0
VERTEX
  5
412
  8
1
  6
CONTINUOUS
 62
     7
 10
-351.3641469708866
 20
201.2431678640035
 30
0.0
  0
VERTEX
  5
413
  8
1
  6
CONTINUOUS
 62
     7
 10
-351.3540576799799
 20
201.1026377792842
 30
0.0
  0
VERTEX
  5
414
  8
1
  6
CONTINUOUS
 62
     7
 10
-351.3439683890733
 20
200.9506766483853
 30
0.0
  0
VERTEX
  5
415
  8
1
  6
CONTINUOUS
 62
     7
 10
-351.3338790981666
 20
200.7874588674572
 30
0.0
  0
VERTEX
  5
416
  8
1
  6
CONTINUOUS
 62
     7
 10
-351.32378980726
 20
200.6131588326502
 30
0.0
  0
VERTEX
  5
417
  8
1
  6
CONTINUOUS
 62
     7
 10
-351.3137005163533
 20
200.4279509401149
 30
0.0
  0
VERTEX
  5
418
  8
1
  6
CONTINUOUS
 62
     7
 10
-351.3036112254467
 20
200.2320095860014
 30
0.0
  0
VERTEX
  5
419
  8
1
  6
CONTINUOUS
 62
     7
 10
-351.2935219345401
 20
200.0255091664603
 30
0.0
  0
VERTEX
  5
41A
  8
1
  6
CONTINUOUS
 62
     7
 10
-351.2834326436333
 20
199.8086240776417
 30
0.0
  0
VERTEX
  5
41B
  8
1
  6
CONTINUOUS
 62
     7
 10
-351.2733433527267
 20
199.5815287245211
 30
0.0
  0
VERTEX
  5
41C
  8
1
  6
CONTINUOUS
 62
     7
 10
-351.26325406182
 20
199.3444207143383
 30
0.0
  0
VERTEX
  5
41D
  8
1
  6
CONTINUOUS
 62
     7
 10
-351.2531647709134
 20
199.0975711863876
 30
0.0
  0
VERTEX
  5
41E
  8
1
  6
CONTINUOUS
 62
     7
 10
-351.2430754800067
 20
198.8412658125272
 30
0.0
  0
VERTEX
  5
41F
  8
1
  6
CONTINUOUS
 62
     7
 10
-351.2329861891
 20
198.5757902646153
 30
0.0
  0
VERTEX
  5
420
  8
1
  6
CONTINUOUS
 62
     7
 10
-351.2228968981934
 20
198.3014302145104
 30
0.0
  0
VERTEX
  5
421
  8
1
  6
CONTINUOUS
 62
     7
 10
-351.2128076072867
 20
198.0184713340705
 30
0.0
  0
VERTEX
  5
422
  8
1
  6
CONTINUOUS
 62
     7
 10
-351.2027183163802
 20
197.7271992951542
 30
0.0
  0
VERTEX
  5
423
  8
1
  6
CONTINUOUS
 62
     7
 10
-351.1926290254734
 20
197.4278997696196
 30
0.0
  0
VERTEX
  5
424
  8
1
  6
CONTINUOUS
 62
     7
 10
-351.1825397345668
 20
197.1208584293248
 30
0.0
  0
VERTEX
  5
425
  8
1
  6
CONTINUOUS
 62
     7
 10
-351.1724504436602
 20
196.8063609461284
 30
0.0
  0
VERTEX
  5
426
  8
1
  6
CONTINUOUS
 62
     7
 10
-351.1623611527535
 20
196.4846929918885
 30
0.0
  0
VERTEX
  5
427
  8
1
  6
CONTINUOUS
 62
     7
 10
-351.1522718618469
 20
196.1561508182779
 30
0.0
  0
VERTEX
  5
428
  8
1
  6
CONTINUOUS
 62
     7
 10
-351.1421825709402
 20
195.8210811240656
 30
0.0
  0
VERTEX
  5
429
  8
1
  6
CONTINUOUS
 62
     7
 10
-351.1320932800335
 20
195.4798456274982
 30
0.0
  0
VERTEX
  5
42A
  8
1
  6
CONTINUOUS
 62
     7
 10
-351.1220039891269
 20
195.1328060493526
 30
0.0
  0
VERTEX
  5
42B
  8
1
  6
CONTINUOUS
 62
     7
 10
-351.1119146982203
 20
194.7803241104059
 30
0.0
  0
VERTEX
  5
42C
  8
1
  6
CONTINUOUS
 62
     7
 10
-351.1018254073136
 20
194.4227615314353
 30
0.0
  0
VERTEX
  5
42D
  8
1
  6
CONTINUOUS
 62
     7
 10
-351.0917361164069
 20
194.0604800332179
 30
0.0
  0
VERTEX
  5
42E
  8
1
  6
CONTINUOUS
 62
     7
 10
-351.0816468255003
 20
193.6938413365305
 30
0.0
  0
VERTEX
  5
42F
  8
1
  6
CONTINUOUS
 62
     7
 10
-351.0715575345936
 20
193.3232071621503
 30
0.0
  0
VERTEX
  5
430
  8
1
  6
CONTINUOUS
 62
     7
 10
-351.061468243687
 20
192.9489392308544
 30
0.0
  0
VERTEX
  5
431
  8
1
  6
CONTINUOUS
 62
     7
 10
-351.0513789527803
 20
192.5713992634198
 30
0.0
  0
VERTEX
  5
432
  8
1
  6
CONTINUOUS
 62
     7
 10
-351.0412896618737
 20
192.1909517148938
 30
0.0
  0
VERTEX
  5
433
  8
1
  6
CONTINUOUS
 62
     7
 10
-351.031200370967
 20
191.8079809245506
 30
0.0
  0
VERTEX
  5
434
  8
1
  6
CONTINUOUS
 62
     7
 10
-351.0211110800603
 20
191.4228800187111
 30
0.0
  0
VERTEX
  5
435
  8
1
  6
CONTINUOUS
 62
     7
 10
-351.0110217891537
 20
191.0360421625325
 30
0.0
  0
VERTEX
  5
436
  8
1
  6
CONTINUOUS
 62
     7
 10
-351.0009324982471
 20
190.6478605211722
 30
0.0
  0
VERTEX
  5
437
  8
1
  6
CONTINUOUS
 62
     7
 10
-350.9908432073403
 20
190.2587282597875
 30
0.0
  0
VERTEX
  5
438
  8
1
  6
CONTINUOUS
 62
     7
 10
-350.9807539164337
 20
189.8690385435358
 30
0.0
  0
VERTEX
  5
439
  8
1
  6
CONTINUOUS
 62
     7
 10
-350.9706646255271
 20
189.4791845375744
 30
0.0
  0
VERTEX
  5
43A
  8
1
  6
CONTINUOUS
 62
     7
 10
-350.9605753346204
 20
189.0895594070605
 30
0.0
  0
VERTEX
  5
43B
  8
1
  6
CONTINUOUS
 62
     7
 10
-350.9504860437137
 20
188.7005563171516
 30
0.0
  0
VERTEX
  5
43C
  8
1
  6
CONTINUOUS
 62
     7
 10
-350.9403967528071
 20
188.312568433005
 30
0.0
  0
VERTEX
  5
43D
  8
1
  6
CONTINUOUS
 62
     7
 10
-350.9303074619004
 20
187.9259880713685
 30
0.0
  0
VERTEX
  5
43E
  8
1
  6
CONTINUOUS
 62
     7
 10
-350.9202181709938
 20
187.5411977523497
 30
0.0
  0
VERTEX
  5
43F
  8
1
  6
CONTINUOUS
 62
     7
 10
-350.9101288800871
 20
187.1585737068987
 30
0.0
  0
VERTEX
  5
440
  8
1
  6
CONTINUOUS
 62
     7
 10
-350.9000395891806
 20
186.7784920625414
 30
0.0
  0
VERTEX
  5
441
  8
1
  6
CONTINUOUS
 62
     7
 10
-350.8899502982739
 20
186.4013289468037
 30
0.0
  0
VERTEX
  5
442
  8
1
  6
CONTINUOUS
 62
     7
 10
-350.8798610073672
 20
186.0274604872115
 30
0.0
  0
VERTEX
  5
443
  8
1
  6
CONTINUOUS
 62
     7
 10
-350.8697717164606
 20
185.6572628112909
 30
0.0
  0
VERTEX
  5
444
  8
1
  6
CONTINUOUS
 62
     7
 10
-350.859682425554
 20
185.2911120465677
 30
0.0
  0
VERTEX
  5
445
  8
1
  6
CONTINUOUS
 62
     7
 10
-350.8495931346473
 20
184.9293843205679
 30
0.0
  0
VERTEX
  5
446
  8
1
  6
CONTINUOUS
 62
     7
 10
-350.8395038437407
 20
184.5724557608174
 30
0.0
  0
VERTEX
  5
447
  8
1
  6
CONTINUOUS
 62
     7
 10
-350.829414552834
 20
184.2207024948423
 30
0.0
  0
VERTEX
  5
448
  8
1
  6
CONTINUOUS
 62
     7
 10
-350.8193252619274
 20
183.8744990586344
 30
0.0
  0
VERTEX
  5
449
  8
1
  6
CONTINUOUS
 62
     7
 10
-350.8092359710207
 20
183.5341883487263
 30
0.0
  0
VERTEX
  5
44A
  8
1
  6
CONTINUOUS
 62
     7
 10
-350.7991466801141
 20
183.2000841573457
 30
0.0
  0
VERTEX
  5
44B
  8
1
  6
CONTINUOUS
 62
     7
 10
-350.7890573892073
 20
182.8724991933256
 30
0.0
  0
VERTEX
  5
44C
  8
1
  6
CONTINUOUS
 62
     7
 10
-350.7789680983007
 20
182.5517461654994
 30
0.0
  0
VERTEX
  5
44D
  8
1
  6
CONTINUOUS
 62
     7
 10
-350.768878807394
 20
182.2381377827001
 30
0.0
  0
VERTEX
  5
44E
  8
1
  6
CONTINUOUS
 62
     7
 10
-350.7587895164874
 20
181.9319867537611
 30
0.0
  0
VERTEX
  5
44F
  8
1
  6
CONTINUOUS
 62
     7
 10
-350.7487002255808
 20
181.6336057875154
 30
0.0
  0
VERTEX
  5
450
  8
1
  6
CONTINUOUS
 62
     7
 10
-350.7386109346741
 20
181.3433075927964
 30
0.0
  0
VERTEX
  5
451
  8
1
  6
CONTINUOUS
 62
     7
 10
-350.7285216437675
 20
181.061404878437
 30
0.0
  0
VERTEX
  5
452
  8
1
  6
CONTINUOUS
 62
     7
 10
-350.7184323528608
 20
180.7882103532707
 30
0.0
  0
VERTEX
  5
453
  8
1
  6
CONTINUOUS
 62
     7
 10
-350.7083430619542
 20
180.5240356747301
 30
0.0
  0
VERTEX
  5
454
  8
1
  6
CONTINUOUS
 62
     7
 10
-350.6982537710475
 20
180.26915051651
 30
0.0
  0
VERTEX
  5
455
  8
1
  6
CONTINUOUS
 62
     7
 10
-350.6881644801408
 20
180.0237693626359
 30
0.0
  0
VERTEX
  5
456
  8
1
  6
CONTINUOUS
 62
     7
 10
-350.6780751892343
 20
179.7881029424617
 30
0.0
  0
VERTEX
  5
457
  8
1
  6
CONTINUOUS
 62
     7
 10
-350.6679858983276
 20
179.5623619853414
 30
0.0
  0
VERTEX
  5
458
  8
1
  6
CONTINUOUS
 62
     7
 10
-350.6578966074209
 20
179.3467572206289
 30
0.0
  0
VERTEX
  5
459
  8
1
  6
CONTINUOUS
 62
     7
 10
-350.6478073165142
 20
179.1414993776783
 30
0.0
  0
VERTEX
  5
45A
  8
1
  6
CONTINUOUS
 62
     7
 10
-350.6377180256076
 20
178.9467991858434
 30
0.0
  0
VERTEX
  5
45B
  8
1
  6
CONTINUOUS
 62
     7
 10
-350.6276287347009
 20
178.7628673744783
 30
0.0
  0
VERTEX
  5
45C
  8
1
  6
CONTINUOUS
 62
     7
 10
-350.6175394437943
 20
178.589914672937
 30
0.0
  0
VERTEX
  5
45D
  8
1
  6
CONTINUOUS
 62
     7
 10
-350.6074501528877
 20
178.4281518105733
 30
0.0
  0
VERTEX
  5
45E
  8
1
  6
CONTINUOUS
 62
     7
 10
-350.597360861981
 20
178.2777891463099
 30
0.0
  0
VERTEX
  5
45F
  8
1
  6
CONTINUOUS
 62
     7
 10
-350.5872715710744
 20
178.1389959619469
 30
0.0
  0
VERTEX
  5
460
  8
1
  6
CONTINUOUS
 62
     7
 10
-350.5771822801677
 20
178.0118637003371
 30
0.0
  0
VERTEX
  5
461
  8
1
  6
CONTINUOUS
 62
     7
 10
-350.567092989261
 20
177.8964751259244
 30
0.0
  0
VERTEX
  5
462
  8
1
  6
CONTINUOUS
 62
     7
 10
-350.5570036983544
 20
177.7929130031528
 30
0.0
  0
VERTEX
  5
463
  8
1
  6
CONTINUOUS
 62
     7
 10
-350.5469144074477
 20
177.7012600964662
 30
0.0
  0
VERTEX
  5
464
  8
1
  6
CONTINUOUS
 62
     7
 10
-350.5368251165411
 20
177.6215991703086
 30
0.0
  0
VERTEX
  5
465
  8
1
  6
CONTINUOUS
 62
     7
 10
-350.5267358256344
 20
177.554012989124
 30
0.0
  0
VERTEX
  5
466
  8
1
  6
CONTINUOUS
 62
     7
 10
-350.5166465347278
 20
177.4985843173565
 30
0.0
  0
VERTEX
  5
467
  8
1
  6
CONTINUOUS
 62
     7
 10
-350.5065572438211
 20
177.4553959194499
 30
0.0
  0
VERTEX
  5
468
  8
1
  6
CONTINUOUS
 62
     7
 10
-350.4964679529145
 20
177.4245305598483
 30
0.0
  0
VERTEX
  5
469
  8
1
  6
CONTINUOUS
 62
     7
 10
-350.4863786620078
 20
177.4060709607068
 30
0.0
  0
VERTEX
  5
46A
  8
1
  6
CONTINUOUS
 62
     7
 10
-350.4762893711011
 20
177.4000674465036
 30
0.0
  0
SEQEND
  5
682
  8
1
  6
CONTINUOUS
 62
     7
  0
POLYLINE
  5
AB
  8
1
  6
CONTINUOUS
 62
     7
 66
     1
 10
0.0
 20
0.0
 30
0.0
  0
VERTEX
  5
46B
  8
1
  6
CONTINUOUS
 62
     7
 10
-353.4465626455278
 20
201.9456718331905
 30
0.0
  0
VERTEX
  5
46C
  8
1
  6
CONTINUOUS
 62
     7
 10
-353.4364561350355
 20
201.9031035300136
 30
0.0
  0
VERTEX
  5
46D
  8
1
  6
CONTINUOUS
 62
     7
 10
-353.4263496245433
 20
201.8482483159531
 30
0.0
  0
VERTEX
  5
46E
  8
1
  6
CONTINUOUS
 62
     7
 10
-353.416243114051
 20
201.7811201570959
 30
0.0
  0
VERTEX
  5
46F
  8
1
  6
CONTINUOUS
 62
     7
 10
-353.4061366035588
 20
201.7017335145268
 30
0.0
  0
VERTEX
  5
470
  8
1
  6
CONTINUOUS
 62
     7
 10
-353.3960300930664
 20
201.6101483128284
 30
0.0
  0
VERTEX
  5
471
  8
1
  6
CONTINUOUS
 62
     7
 10
-353.3859235825742
 20
201.5065059136461
 30
0.0
  0
VERTEX
  5
472
  8
1
  6
CONTINUOUS
 62
     7
 10
-353.3758170720819
 20
201.3909561439874
 30
0.0
  0
VERTEX
  5
473
  8
1
  6
CONTINUOUS
 62
     7
 10
-353.3657105615896
 20
201.2636488308594
 30
0.0
  0
VERTEX
  5
474
  8
1
  6
CONTINUOUS
 62
     7
 10
-353.3556040510973
 20
201.1247338012695
 30
0.0
  0
VERTEX
  5
475
  8
1
  6
CONTINUOUS
 62
     7
 10
-353.345497540605
 20
200.9743608822251
 30
0.0
  0
VERTEX
  5
476
  8
1
  6
CONTINUOUS
 62
     7
 10
-353.3353910301127
 20
200.8126799007335
 30
0.0
  0
VERTEX
  5
477
  8
1
  6
CONTINUOUS
 62
     7
 10
-353.3252845196205
 20
200.639840683802
 30
0.0
  0
VERTEX
  5
478
  8
1
  6
CONTINUOUS
 62
     7
 10
-353.3151780091281
 20
200.455993058438
 30
0.0
  0
VERTEX
  5
479
  8
1
  6
CONTINUOUS
 62
     7
 10
-353.3050714986359
 20
200.2612868516488
 30
0.0
  0
VERTEX
  5
47A
  8
1
  6
CONTINUOUS
 62
     7
 10
-353.2949649881436
 20
200.0558719737258
 30
0.0
  0
VERTEX
  5
47B
  8
1
  6
CONTINUOUS
 62
     7
 10
-353.2848584776514
 20
199.8399287032528
 30
0.0
  0
VERTEX
  5
47C
  8
1
  6
CONTINUOUS
 62
     7
 10
-353.2747519671591
 20
199.6137127423438
 30
0.0
  0
VERTEX
  5
47D
  8
1
  6
CONTINUOUS
 62
     7
 10
-353.2646454566668
 20
199.3774913034476
 30
0.0
  0
VERTEX
  5
47E
  8
1
  6
CONTINUOUS
 62
     7
 10
-353.2545389461745
 20
199.1315315990131
 30
0.0
  0
VERTEX
  5
47F
  8
1
  6
CONTINUOUS
 62
     7
 10
-353.2444324356822
 20
198.8761008414894
 30
0.0
  0
VERTEX
  5
480
  8
1
  6
CONTINUOUS
 62
     7
 10
-353.2343259251899
 20
198.6114662433252
 30
0.0
  0
VERTEX
  5
481
  8
1
  6
CONTINUOUS
 62
     7
 10
-353.2242194146976
 20
198.3378950169697
 30
0.0
  0
VERTEX
  5
482
  8
1
  6
CONTINUOUS
 62
     7
 10
-353.2141129042054
 20
198.0556543748716
 30
0.0
  0
VERTEX
  5
483
  8
1
  6
CONTINUOUS
 62
     7
 10
-353.2040063937131
 20
197.7650115294799
 30
0.0
  0
VERTEX
  5
484
  8
1
  6
CONTINUOUS
 62
     7
 10
-353.1938998832208
 20
197.4662336932436
 30
0.0
  0
VERTEX
  5
485
  8
1
  6
CONTINUOUS
 62
     7
 10
-353.1837933727285
 20
197.1595880798539
 30
0.0
  0
VERTEX
  5
486
  8
1
  6
CONTINUOUS
 62
     7
 10
-353.1736868622363
 20
196.8453579352948
 30
0.0
  0
VERTEX
  5
487
  8
1
  6
CONTINUOUS
 62
     7
 10
-353.1635803517439
 20
196.5238826318169
 30
0.0
  0
VERTEX
  5
488
  8
1
  6
CONTINUOUS
 62
     7
 10
-353.1534738412516
 20
196.1955138167896
 30
0.0
  0
VERTEX
  5
489
  8
1
  6
CONTINUOUS
 62
     7
 10
-353.1433673307594
 20
195.8606031375827
 30
0.0
  0
VERTEX
  5
48A
  8
1
  6
CONTINUOUS
 62
     7
 10
-353.1332608202671
 20
195.5195022415656
 30
0.0
  0
VERTEX
  5
48B
  8
1
  6
CONTINUOUS
 62
     7
 10
-353.1231543097748
 20
195.1725627761078
 30
0.0
  0
VERTEX
  5
48C
  8
1
  6
CONTINUOUS
 62
     7
 10
-353.1130477992826
 20
194.820136388579
 30
0.0
  0
VERTEX
  5
48D
  8
1
  6
CONTINUOUS
 62
     7
 10
-353.1029412887902
 20
194.4625747263484
 30
0.0
  0
VERTEX
  5
48E
  8
1
  6
CONTINUOUS
 62
     7
 10
-353.092834778298
 20
194.1002294367858
 30
0.0
  0
VERTEX
  5
48F
  8
1
  6
CONTINUOUS
 62
     7
 10
-353.0827282678057
 20
193.7334521672607
 30
0.0
  0
VERTEX
  5
490
  8
1
  6
CONTINUOUS
 62
     7
 10
-353.0726217573134
 20
193.3625945651425
 30
0.0
  0
VERTEX
  5
491
  8
1
  6
CONTINUOUS
 62
     7
 10
-353.0625152468212
 20
192.9880137306012
 30
0.0
  0
VERTEX
  5
492
  8
1
  6
CONTINUOUS
 62
     7
 10
-353.0524087363289
 20
192.610093934542
 30
0.0
  0
VERTEX
  5
493
  8
1
  6
CONTINUOUS
 62
     7
 10
-353.0423022258366
 20
192.2292278942244
 30
0.0
  0
VERTEX
  5
494
  8
1
  6
CONTINUOUS
 62
     7
 10
-353.0321957153443
 20
191.8458083295724
 30
0.0
  0
VERTEX
  5
495
  8
1
  6
CONTINUOUS
 62
     7
 10
-353.022089204852
 20
191.4602279605101
 30
0.0
  0
VERTEX
  5
496
  8
1
  6
CONTINUOUS
 62
     7
 10
-353.0119826943597
 20
191.0728795069615
 30
0.0
  0
VERTEX
  5
497
  8
1
  6
CONTINUOUS
 62
     7
 10
-353.0018761838675
 20
190.6841556888507
 30
0.0
  0
VERTEX
  5
498
  8
1
  6
CONTINUOUS
 62
     7
 10
-352.9917696733751
 20
190.2944492261018
 30
0.0
  0
VERTEX
  5
499
  8
1
  6
CONTINUOUS
 62
     7
 10
-352.9816631628829
 20
189.9041528386386
 30
0.0
  0
VERTEX
  5
49A
  8
1
  6
CONTINUOUS
 62
     7
 10
-352.9715566523906
 20
189.5136592463854
 30
0.0
  0
VERTEX
  5
49B
  8
1
  6
CONTINUOUS
 62
     7
 10
-352.9614501418984
 20
189.1233611692662
 30
0.0
  0
VERTEX
  5
49C
  8
1
  6
CONTINUOUS
 62
     7
 10
-352.9513436314061
 20
188.7336506771265
 30
0.0
  0
VERTEX
  5
49D
  8
1
  6
CONTINUOUS
 62
     7
 10
-352.9412371209138
 20
188.3449151783873
 30
0.0
  0
VERTEX
  5
49E
  8
1
  6
CONTINUOUS
 62
     7
 10
-352.9311306104215
 20
187.9575400469005
 30
0.0
  0
VERTEX
  5
49F
  8
1
  6
CONTINUOUS
 62
     7
 10
-352.9210240999292
 20
187.5719106480368
 30
0.0
  0
VERTEX
  5
4A0
  8
1
  6
CONTINUOUS
 62
     7
 10
-352.9109175894369
 20
187.1884123471669
 30
0.0
  0
VERTEX
  5
4A1
  8
1
  6
CONTINUOUS
 62
     7
 10
-352.9008110789446
 20
186.8074305096613
 30
0.0
  0
VERTEX
  5
4A2
  8
1
  6
CONTINUOUS
 62
     7
 10
-352.8907045684523
 20
186.4293505008907
 30
0.0
  0
VERTEX
  5
4A3
  8
1
  6
CONTINUOUS
 62
     7
 10
-352.8805980579601
 20
186.0545576862258
 30
0.0
  0
VERTEX
  5
4A4
  8
1
  6
CONTINUOUS
 62
     7
 10
-352.8704915474679
 20
185.6834374310372
 30
0.0
  0
VERTEX
  5
4A5
  8
1
  6
CONTINUOUS
 62
     7
 10
-352.8603850369756
 20
185.3163751006955
 30
0.0
  0
VERTEX
  5
4A6
  8
1
  6
CONTINUOUS
 62
     7
 10
-352.8502785264833
 20
184.9537560605714
 30
0.0
  0
VERTEX
  5
4A7
  8
1
  6
CONTINUOUS
 62
     7
 10
-352.840172015991
 20
184.5959626466384
 30
0.0
  0
VERTEX
  5
4A8
  8
1
  6
CONTINUOUS
 62
     7
 10
-352.8300655054987
 20
184.2433450182029
 30
0.0
  0
VERTEX
  5
4A9
  8
1
  6
CONTINUOUS
 62
     7
 10
-352.8199589950064
 20
183.8962339333558
 30
0.0
  0
VERTEX
  5
4AA
  8
1
  6
CONTINUOUS
 62
     7
 10
-352.8098524845141
 20
183.5549598827117
 30
0.0
  0
VERTEX
  5
4AB
  8
1
  6
CONTINUOUS
 62
     7
 10
-352.7997459740218
 20
183.219853356885
 30
0.0
  0
VERTEX
  5
4AC
  8
1
  6
CONTINUOUS
 62
     7
 10
-352.7896394635296
 20
182.8912448464904
 30
0.0
  0
VERTEX
  5
4AD
  8
1
  6
CONTINUOUS
 62
     7
 10
-352.7795329530373
 20
182.5694648421424
 30
0.0
  0
VERTEX
  5
4AE
  8
1
  6
CONTINUOUS
 62
     7
 10
-352.769426442545
 20
182.2548438344553
 30
0.0
  0
VERTEX
  5
4AF
  8
1
  6
CONTINUOUS
 62
     7
 10
-352.7593199320527
 20
181.947712314044
 30
0.0
  0
VERTEX
  5
4B0
  8
1
  6
CONTINUOUS
 62
     7
 10
-352.7492134215604
 20
181.6484007715227
 30
0.0
  0
VERTEX
  5
4B1
  8
1
  6
CONTINUOUS
 62
     7
 10
-352.7391069110682
 20
181.357239697506
 30
0.0
  0
VERTEX
  5
4B2
  8
1
  6
CONTINUOUS
 62
     7
 10
-352.7290004005758
 20
181.0745565627283
 30
0.0
  0
VERTEX
  5
4B3
  8
1
  6
CONTINUOUS
 62
     7
 10
-352.7188938900835
 20
180.8006287235328
 30
0.0
  0
VERTEX
  5
4B4
  8
1
  6
CONTINUOUS
 62
     7
 10
-352.7087873795913
 20
180.535692271316
 30
0.0
  0
VERTEX
  5
4B5
  8
1
  6
CONTINUOUS
 62
     7
 10
-352.698680869099
 20
180.2799820684533
 30
0.0
  0
VERTEX
  5
4B6
  8
1
  6
CONTINUOUS
 62
     7
 10
-352.6885743586067
 20
180.0337329773204
 30
0.0
  0
VERTEX
  5
4B7
  8
1
  6
CONTINUOUS
 62
     7
 10
-352.6784678481145
 20
179.7971798602931
 30
0.0
  0
VERTEX
  5
4B8
  8
1
  6
CONTINUOUS
 62
     7
 10
-352.6683613376222
 20
179.5705575797469
 30
0.0
  0
VERTEX
  5
4B9
  8
1
  6
CONTINUOUS
 62
     7
 10
-352.6582548271299
 20
179.3541009980576
 30
0.0
  0
VERTEX
  5
4BA
  8
1
  6
CONTINUOUS
 62
     7
 10
-352.6481483166376
 20
179.1480449776006
 30
0.0
  0
VERTEX
  5
4BB
  8
1
  6
CONTINUOUS
 62
     7
 10
-352.6380418061453
 20
178.9526243807519
 30
0.0
  0
VERTEX
  5
4BC
  8
1
  6
CONTINUOUS
 62
     7
 10
-352.6279352956531
 20
178.7680740698869
 30
0.0
  0
VERTEX
  5
4BD
  8
1
  6
CONTINUOUS
 62
     7
 10
-352.6178287851608
 20
178.5946269278414
 30
0.0
  0
VERTEX
  5
4BE
  8
1
  6
CONTINUOUS
 62
     7
 10
-352.6077222746685
 20
178.4324595537329
 30
0.0
  0
VERTEX
  5
4BF
  8
1
  6
CONTINUOUS
 62
     7
 10
-352.5976157641762
 20
178.281685548178
 30
0.0
  0
VERTEX
  5
4C0
  8
1
  6
CONTINUOUS
 62
     7
 10
-352.5875092536839
 20
178.142415183947
 30
0.0
  0
VERTEX
  5
4C1
  8
1
  6
CONTINUOUS
 62
     7
 10
-352.5774027431916
 20
178.0147587338102
 30
0.0
  0
VERTEX
  5
4C2
  8
1
  6
CONTINUOUS
 62
     7
 10
-352.5672962326994
 20
177.8988264705382
 30
0.0
  0
VERTEX
  5
4C3
  8
1
  6
CONTINUOUS
 62
     7
 10
-352.557189722207
 20
177.7947286669012
 30
0.0
  0
VERTEX
  5
4C4
  8
1
  6
CONTINUOUS
 62
     7
 10
-352.5470832117148
 20
177.7025755956697
 30
0.0
  0
VERTEX
  5
4C5
  8
1
  6
CONTINUOUS
 62
     7
 10
-352.5369767012224
 20
177.6224775296139
 30
0.0
  0
VERTEX
  5
4C6
  8
1
  6
CONTINUOUS
 62
     7
 10
-352.5268701907302
 20
177.5545447415043
 30
0.0
  0
VERTEX
  5
4C7
  8
1
  6
CONTINUOUS
 62
     7
 10
-352.5167636802379
 20
177.4988875041113
 30
0.0
  0
VERTEX
  5
4C8
  8
1
  6
CONTINUOUS
 62
     7
 10
-352.5066571697457
 20
177.4556151907403
 30
0.0
  0
VERTEX
  5
4C9
  8
1
  6
CONTINUOUS
 62
     7
 10
-352.4965506592534
 20
177.4247854464909
 30
0.0
  0
VERTEX
  5
4CA
  8
1
  6
CONTINUOUS
 62
     7
 10
-352.4864441487611
 20
177.4063769997184
 30
0.0
  0
VERTEX
  5
4CB
  8
1
  6
CONTINUOUS
 62
     7
 10
-352.4763376382688
 20
177.4003619356239
 30
0.0
  0
SEQEND
  5
683
  8
1
  6
CONTINUOUS
 62
     7
  0
POLYLINE
  5
AC
  8
1
  6
CONTINUOUS
 62
     7
 66
     1
 10
0.0
 20
0.0
 30
0.0
  0
VERTEX
  5
4CC
  8
1
  6
CONTINUOUS
 62
     7
 10
-355.4468311611957
 20
201.9469291995819
 30
0.0
  0
VERTEX
  5
4CD
  8
1
  6
CONTINUOUS
 62
     7
 10
-355.4367222766201
 20
201.9046516686104
 30
0.0
  0
VERTEX
  5
4CE
  8
1
  6
CONTINUOUS
 62
     7
 10
-355.4266133920445
 20
201.8499739225662
 30
0.0
  0
VERTEX
  5
4CF
  8
1
  6
CONTINUOUS
 62
     7
 10
-355.4165045074689
 20
201.7829484415923
 30
0.0
  0
VERTEX
  5
4D0
  8
1
  6
CONTINUOUS
 62
     7
 10
-355.4063956228933
 20
201.7036956454108
 30
0.0
  0
VERTEX
  5
4D1
  8
1
  6
CONTINUOUS
 62
     7
 10
-355.3962867383177
 20
201.6123392381307
 30
0.0
  0
VERTEX
  5
4D2
  8
1
  6
CONTINUOUS
 62
     7
 10
-355.386177853742
 20
201.5090029238607
 30
0.0
  0
VERTEX
  5
4D3
  8
1
  6
CONTINUOUS
 62
     7
 10
-355.3760689691664
 20
201.3938104067097
 30
0.0
  0
VERTEX
  5
4D4
  8
1
  6
CONTINUOUS
 62
     7
 10
-355.3659600845908
 20
201.2668853907865
 30
0.0
  0
VERTEX
  5
4D5
  8
1
  6
CONTINUOUS
 62
     7
 10
-355.3558512000153
 20
201.1283515801998
 30
0.0
  0
VERTEX
  5
4D6
  8
1
  6
CONTINUOUS
 62
     7
 10
-355.3457423154397
 20
200.9783326790585
 30
0.0
  0
VERTEX
  5
4D7
  8
1
  6
CONTINUOUS
 62
     7
 10
-355.3356334308641
 20
200.8169523914712
 30
0.0
  0
VERTEX
  5
4D8
  8
1
  6
CONTINUOUS
 62
     7
 10
-355.3255245462885
 20
200.6443344215469
 30
0.0
  0
VERTEX
  5
4D9
  8
1
  6
CONTINUOUS
 62
     7
 10
-355.3154156617128
 20
200.4606034411509
 30
0.0
  0
VERTEX
  5
4DA
  8
1
  6
CONTINUOUS
 62
     7
 10
-355.3053067771373
 20
200.2659318014747
 30
0.0
  0
VERTEX
  5
4DB
  8
1
  6
CONTINUOUS
 62
     7
 10
-355.2951978925617
 20
200.0605603330636
 30
0.0
  0
VERTEX
  5
4DC
  8
1
  6
CONTINUOUS
 62
     7
 10
-355.2850890079861
 20
199.8447351659065
 30
0.0
  0
VERTEX
  5
4DD
  8
1
  6
CONTINUOUS
 62
     7
 10
-355.2749801234105
 20
199.6187024299925
 30
0.0
  0
VERTEX
  5
4DE
  8
1
  6
CONTINUOUS
 62
     7
 10
-355.2648712388349
 20
199.3827082553106
 30
0.0
  0
VERTEX
  5
4DF
  8
1
  6
CONTINUOUS
 62
     7
 10
-355.2547623542592
 20
199.1369987718496
 30
0.0
  0
VERTEX
  5
4E0
  8
1
  6
CONTINUOUS
 62
     7
 10
-355.2446534696836
 20
198.8818201095986
 30
0.0
  0
VERTEX
  5
4E1
  8
1
  6
CONTINUOUS
 62
     7
 10
-355.234544585108
 20
198.6174183985464
 30
0.0
  0
VERTEX
  5
4E2
  8
1
  6
CONTINUOUS
 62
     7
 10
-355.2244357005325
 20
198.3440397686823
 30
0.0
  0
VERTEX
  5
4E3
  8
1
  6
CONTINUOUS
 62
     7
 10
-355.2143268159568
 20
198.0619303499949
 30
0.0
  0
VERTEX
  5
4E4
  8
1
  6
CONTINUOUS
 62
     7
 10
-355.2042179313813
 20
197.7713365038548
 30
0.0
  0
VERTEX
  5
4E5
  8
1
  6
CONTINUOUS
 62
     7
 10
-355.1941090468057
 20
197.4725334265269
 30
0.0
  0
VERTEX
  5
4E6
  8
1
  6
CONTINUOUS
 62
     7
 10
-355.1840001622301
 20
197.1658527722727
 30
0.0
  0
VERTEX
  5
4E7
  8
1
  6
CONTINUOUS
 62
     7
 10
-355.1738912776545
 20
196.8516327461623
 30
0.0
  0
VERTEX
  5
4E8
  8
1
  6
CONTINUOUS
 62
     7
 10
-355.1637823930789
 20
196.5302115532656
 30
0.0
  0
VERTEX
  5
4E9
  8
1
  6
CONTINUOUS
 62
     7
 10
-355.1536735085033
 20
196.2019273986525
 30
0.0
  0
VERTEX
  5
4EA
  8
1
  6
CONTINUOUS
 62
     7
 10
-355.1435646239277
 20
195.8671184873933
 30
0.0
  0
VERTEX
  5
4EB
  8
1
  6
CONTINUOUS
 62
     7
 10
-355.1334557393521
 20
195.5261230245577
 30
0.0
  0
VERTEX
  5
4EC
  8
1
  6
CONTINUOUS
 62
     7
 10
-355.1233468547765
 20
195.1792792152157
 30
0.0
  0
VERTEX
  5
4ED
  8
1
  6
CONTINUOUS
 62
     7
 10
-355.1132379702009
 20
194.8269252644374
 30
0.0
  0
VERTEX
  5
4EE
  8
1
  6
CONTINUOUS
 62
     7
 10
-355.1031290856253
 20
194.4693993772929
 30
0.0
  0
VERTEX
  5
4EF
  8
1
  6
CONTINUOUS
 62
     7
 10
-355.0930202010496
 20
194.1070397782113
 30
0.0
  0
VERTEX
  5
4F0
  8
1
  6
CONTINUOUS
 62
     7
 10
-355.0829113164741
 20
193.7401967955603
 30
0.0
  0
VERTEX
  5
4F1
  8
1
  6
CONTINUOUS
 62
     7
 10
-355.0728024318985
 20
193.3692535167971
 30
0.0
  0
VERTEX
  5
4F2
  8
1
  6
CONTINUOUS
 62
     7
 10
-355.0626935473229
 20
192.9945985173041
 30
0.0
  0
VERTEX
  5
4F3
  8
1
  6
CONTINUOUS
 62
     7
 10
-355.0525846627473
 20
192.6166203724641
 30
0.0
  0
VERTEX
  5
4F4
  8
1
  6
CONTINUOUS
 62
     7
 10
-355.0424757781717
 20
192.23570765766
 30
0.0
  0
VERTEX
  5
4F5
  8
1
  6
CONTINUOUS
 62
     7
 10
-355.0323668935962
 20
191.8522489482744
 30
0.0
  0
VERTEX
  5
4F6
  8
1
  6
CONTINUOUS
 62
     7
 10
-355.0222580090205
 20
191.4666328196901
 30
0.0
  0
VERTEX
  5
4F7
  8
1
  6
CONTINUOUS
 62
     7
 10
-355.0121491244449
 20
191.0792478472899
 30
0.0
  0
VERTEX
  5
4F8
  8
1
  6
CONTINUOUS
 62
     7
 10
-355.0020402398693
 20
190.6904826064565
 30
0.0
  0
VERTEX
  5
4F9
  8
1
  6
CONTINUOUS
 62
     7
 10
-354.9919313552937
 20
190.3007256725726
 30
0.0
  0
VERTEX
  5
4FA
  8
1
  6
CONTINUOUS
 62
     7
 10
-354.9818224707182
 20
189.9103656210231
 30
0.0
  0
VERTEX
  5
4FB
  8
1
  6
CONTINUOUS
 62
     7
 10
-354.9717135861425
 20
189.5197914576842
 30
0.0
  0
VERTEX
  5
4FC
  8
1
  6
CONTINUOUS
 62
     7
 10
-354.961604701567
 20
189.1293938238979
 30
0.0
  0
VERTEX
  5
4FD
  8
1
  6
CONTINUOUS
 62
     7
 10
-354.9514958169912
 20
188.7395637493237
 30
0.0
  0
VERTEX
  5
4FE
  8
1
  6
CONTINUOUS
 62
     7
 10
-354.9413869324157
 20
188.3506922636215
 30
0.0
  0
VERTEX
  5
4FF
  8
1
  6
CONTINUOUS
 62
     7
 10
-354.9312780478401
 20
187.9631703964505
 30
0.0
  0
VERTEX
  5
500
  8
1
  6
CONTINUOUS
 62
     7
 10
-354.9211691632644
 20
187.5773891774704
 30
0.0
  0
VERTEX
  5
501
  8
1
  6
CONTINUOUS
 62
     7
 10
-354.9110602786889
 20
187.1937396363408
 30
0.0
  0
VERTEX
  5
502
  8
1
  6
CONTINUOUS
 62
     7
 10
-354.9009513941132
 20
186.8126128027211
 30
0.0
  0
VERTEX
  5
503
  8
1
  6
CONTINUOUS
 62
     7
 10
-354.8908425095377
 20
186.4343997062711
 30
0.0
  0
VERTEX
  5
504
  8
1
  6
CONTINUOUS
 62
     7
 10
-354.880733624962
 20
186.0594913766501
 30
0.0
  0
VERTEX
  5
505
  8
1
  6
CONTINUOUS
 62
     7
 10
-354.8706247403865
 20
185.6882788435178
 30
0.0
  0
VERTEX
  5
506
  8
1
  6
CONTINUOUS
 62
     7
 10
-354.8605158558109
 20
185.3211475342602
 30
0.0
  0
VERTEX
  5
507
  8
1
  6
CONTINUOUS
 62
     7
 10
-354.8504069712353
 20
184.9584527825311
 30
0.0
  0
VERTEX
  5
508
  8
1
  6
CONTINUOUS
 62
     7
 10
-354.8402980866597
 20
184.6005398607119
 30
0.0
  0
VERTEX
  5
509
  8
1
  6
CONTINUOUS
 62
     7
 10
-354.8301892020841
 20
184.2477540340612
 30
0.0
  0
VERTEX
  5
50A
  8
1
  6
CONTINUOUS
 62
     7
 10
-354.8200803175085
 20
183.9004405678373
 30
0.0
  0
VERTEX
  5
50B
  8
1
  6
CONTINUOUS
 62
     7
 10
-354.8099714329329
 20
183.5589447272988
 30
0.0
  0
VERTEX
  5
50C
  8
1
  6
CONTINUOUS
 62
     7
 10
-354.7998625483573
 20
183.2236117777041
 30
0.0
  0
VERTEX
  5
50D
  8
1
  6
CONTINUOUS
 62
     7
 10
-354.7897536637817
 20
182.8947869843117
 30
0.0
  0
VERTEX
  5
50E
  8
1
  6
CONTINUOUS
 62
     7
 10
-354.7796447792061
 20
182.57281561238
 30
0.0
  0
VERTEX
  5
50F
  8
1
  6
CONTINUOUS
 62
     7
 10
-354.7695358946305
 20
182.2580429271675
 30
0.0
  0
VERTEX
  5
510
  8
1
  6
CONTINUOUS
 62
     7
 10
-354.7594270100549
 20
181.9508141939328
 30
0.0
  0
VERTEX
  5
511
  8
1
  6
CONTINUOUS
 62
     7
 10
-354.7493181254793
 20
181.6514674922844
 30
0.0
  0
VERTEX
  5
512
  8
1
  6
CONTINUOUS
 62
     7
 10
-354.7392092409037
 20
181.3602855794456
 30
0.0
  0
VERTEX
  5
513
  8
1
  6
CONTINUOUS
 62
     7
 10
-354.7291003563281
 20
181.0775255225302
 30
0.0
  0
VERTEX
  5
514
  8
1
  6
CONTINUOUS
 62
     7
 10
-354.7189914717525
 20
180.8034442470207
 30
0.0
  0
VERTEX
  5
515
  8
1
  6
CONTINUOUS
 62
     7
 10
-354.708882587177
 20
180.5382986783998
 30
0.0
  0
VERTEX
  5
516
  8
1
  6
CONTINUOUS
 62
     7
 10
-354.6987737026013
 20
180.2823457421501
 30
0.0
  0
VERTEX
  5
517
  8
1
  6
CONTINUOUS
 62
     7
 10
-354.6886648180257
 20
180.0358423637542
 30
0.0
  0
VERTEX
  5
518
  8
1
  6
CONTINUOUS
 62
     7
 10
-354.6785559334501
 20
179.7990454686948
 30
0.0
  0
VERTEX
  5
519
  8
1
  6
CONTINUOUS
 62
     7
 10
-354.6684470488744
 20
179.5722119824545
 30
0.0
  0
VERTEX
  5
51A
  8
1
  6
CONTINUOUS
 62
     7
 10
-354.6583381642989
 20
179.3555988305159
 30
0.0
  0
VERTEX
  5
51B
  8
1
  6
CONTINUOUS
 62
     7
 10
-354.6482292797232
 20
179.1494629383616
 30
0.0
  0
VERTEX
  5
51C
  8
1
  6
CONTINUOUS
 62
     7
 10
-354.6381203951476
 20
178.9540551504074
 30
0.0
  0
VERTEX
  5
51D
  8
1
  6
CONTINUOUS
 62
     7
 10
-354.6280115105721
 20
178.7695570679656
 30
0.0
  0
VERTEX
  5
51E
  8
1
  6
CONTINUOUS
 62
     7
 10
-354.6179026259964
 20
178.5961062980695
 30
0.0
  0
VERTEX
  5
51F
  8
1
  6
CONTINUOUS
 62
     7
 10
-354.6077937414209
 20
178.4338397444119
 30
0.0
  0
VERTEX
  5
520
  8
1
  6
CONTINUOUS
 62
     7
 10
-354.5976848568453
 20
178.2828943106859
 30
0.0
  0
VERTEX
  5
521
  8
1
  6
CONTINUOUS
 62
     7
 10
-354.5875759722697
 20
178.1434069005843
 30
0.0
  0
VERTEX
  5
522
  8
1
  6
CONTINUOUS
 62
     7
 10
-354.5774670876941
 20
178.0155144178
 30
0.0
  0
VERTEX
  5
523
  8
1
  6
CONTINUOUS
 62
     7
 10
-354.5673582031184
 20
177.8993537660261
 30
0.0
  0
VERTEX
  5
524
  8
1
  6
CONTINUOUS
 62
     7
 10
-354.5572493185429
 20
177.7950618489556
 30
0.0
  0
VERTEX
  5
525
  8
1
  6
CONTINUOUS
 62
     7
 10
-354.5471404339673
 20
177.7027755702811
 30
0.0
  0
VERTEX
  5
526
  8
1
  6
CONTINUOUS
 62
     7
 10
-354.5370315493917
 20
177.6226318336959
 30
0.0
  0
VERTEX
  5
527
  8
1
  6
CONTINUOUS
 62
     7
 10
-354.526922664816
 20
177.5547635900254
 30
0.0
  0
VERTEX
  5
528
  8
1
  6
CONTINUOUS
 62
     7
 10
-354.5168137802405
 20
177.4992333996051
 30
0.0
  0
VERTEX
  5
529
  8
1
  6
CONTINUOUS
 62
     7
 10
-354.5067048956649
 20
177.4560432399406
 30
0.0
  0
VERTEX
  5
52A
  8
1
  6
CONTINUOUS
 62
     7
 10
-354.4965960110893
 20
177.4251931110572
 30
0.0
  0
VERTEX
  5
52B
  8
1
  6
CONTINUOUS
 62
     7
 10
-354.4864871265137
 20
177.4066830129798
 30
0.0
  0
VERTEX
  5
52C
  8
1
  6
CONTINUOUS
 62
     7
 10
-354.4763782419381
 20
177.4005129457337
 30
0.0
  0
SEQEND
  5
684
  8
1
  6
CONTINUOUS
 62
     7
  0
POLYLINE
  5
AD
  8
1
  6
CONTINUOUS
 62
     7
 66
     1
 10
0.0
 20
0.0
 30
0.0
  0
VERTEX
  5
52D
  8
1
  6
CONTINUOUS
 62
     7
 10
-357.4458065788195
 20
201.9432799505352
 30
0.0
  0
VERTEX
  5
52E
  8
1
  6
CONTINUOUS
 62
     7
 10
-357.4347908090764
 20
201.8950163561815
 30
0.0
  0
VERTEX
  5
52F
  8
1
  6
CONTINUOUS
 62
     7
 10
-357.4237750393333
 20
201.8321226686755
 30
0.0
  0
VERTEX
  5
530
  8
1
  6
CONTINUOUS
 62
     7
 10
-357.4127592695903
 20
201.7547242241284
 30
0.0
  0
VERTEX
  5
531
  8
1
  6
CONTINUOUS
 62
     7
 10
-357.4017434998471
 20
201.6629463586507
 30
0.0
  0
VERTEX
  5
532
  8
1
  6
CONTINUOUS
 62
     7
 10
-357.390727730104
 20
201.5569144083536
 30
0.0
  0
VERTEX
  5
533
  8
1
  6
CONTINUOUS
 62
     7
 10
-357.3797119603609
 20
201.4367537093478
 30
0.0
  0
VERTEX
  5
534
  8
1
  6
CONTINUOUS
 62
     7
 10
-357.3686961906178
 20
201.3025895977441
 30
0.0
  0
VERTEX
  5
535
  8
1
  6
CONTINUOUS
 62
     7
 10
-357.3576804208747
 20
201.1545474096535
 30
0.0
  0
VERTEX
  5
536
  8
1
  6
CONTINUOUS
 62
     7
 10
-357.3466646511317
 20
200.9927524811868
 30
0.0
  0
VERTEX
  5
537
  8
1
  6
CONTINUOUS
 62
     7
 10
-357.3356488813886
 20
200.8173343446468
 30
0.0
  0
VERTEX
  5
538
  8
1
  6
CONTINUOUS
 62
     7
 10
-357.3246331116455
 20
200.628504712168
 30
0.0
  0
VERTEX
  5
539
  8
1
  6
CONTINUOUS
 62
     7
 10
-357.3136173419023
 20
200.4265502233479
 30
0.0
  0
VERTEX
  5
53A
  8
1
  6
CONTINUOUS
 62
     7
 10
-357.3026015721592
 20
200.2117602596192
 30
0.0
  0
VERTEX
  5
53B
  8
1
  6
CONTINUOUS
 62
     7
 10
-357.2915858024162
 20
199.9844242024149
 30
0.0
  0
VERTEX
  5
53C
  8
1
  6
CONTINUOUS
 62
     7
 10
-357.2805700326731
 20
199.7448314331677
 30
0.0
  0
VERTEX
  5
53D
  8
1
  6
CONTINUOUS
 62
     7
 10
-357.26955426293
 20
199.4932713333104
 30
0.0
  0
VERTEX
  5
53E
  8
1
  6
CONTINUOUS
 62
     7
 10
-357.2585384931869
 20
199.2300332842761
 30
0.0
  0
VERTEX
  5
53F
  8
1
  6
CONTINUOUS
 62
     7
 10
-357.2475227234437
 20
198.9554066674974
 30
0.0
  0
VERTEX
  5
540
  8
1
  6
CONTINUOUS
 62
     7
 10
-357.2365069537007
 20
198.6696808644074
 30
0.0
  0
VERTEX
  5
541
  8
1
  6
CONTINUOUS
 62
     7
 10
-357.2254911839576
 20
198.373146064496
 30
0.0
  0
VERTEX
  5
542
  8
1
  6
CONTINUOUS
 62
     7
 10
-357.2144754142145
 20
198.066140185627
 30
0.0
  0
VERTEX
  5
543
  8
1
  6
CONTINUOUS
 62
     7
 10
-357.2034596444714
 20
197.7490746937153
 30
0.0
  0
VERTEX
  5
544
  8
1
  6
CONTINUOUS
 62
     7
 10
-357.1924438747283
 20
197.4223673312916
 30
0.0
  0
VERTEX
  5
545
  8
1
  6
CONTINUOUS
 62
     7
 10
-357.1814281049852
 20
197.0864358408862
 30
0.0
  0
VERTEX
  5
546
  8
1
  6
CONTINUOUS
 62
     7
 10
-357.1704123352421
 20
196.7416979650297
 30
0.0
  0
VERTEX
  5
547
  8
1
  6
CONTINUOUS
 62
     7
 10
-357.159396565499
 20
196.3885714462527
 30
0.0
  0
VERTEX
  5
548
  8
1
  6
CONTINUOUS
 62
     7
 10
-357.1483807957558
 20
196.0274740270854
 30
0.0
  0
VERTEX
  5
549
  8
1
  6
CONTINUOUS
 62
     7
 10
-357.1373650260127
 20
195.6588234500585
 30
0.0
  0
VERTEX
  5
54A
  8
1
  6
CONTINUOUS
 62
     7
 10
-357.1263492562697
 20
195.2830374577025
 30
0.0
  0
VERTEX
  5
54B
  8
1
  6
CONTINUOUS
 62
     7
 10
-357.1153334865266
 20
194.9005338245102
 30
0.0
  0
VERTEX
  5
54C
  8
1
  6
CONTINUOUS
 62
     7
 10
-357.1043177167834
 20
194.5117489559154
 30
0.0
  0
VERTEX
  5
54D
  8
1
  6
CONTINUOUS
 62
     7
 10
-357.0933019470403
 20
194.1171691716471
 30
0.0
  0
VERTEX
  5
54E
  8
1
  6
CONTINUOUS
 62
     7
 10
-357.0822861772972
 20
193.7172890626362
 30
0.0
  0
VERTEX
  5
54F
  8
1
  6
CONTINUOUS
 62
     7
 10
-357.0712704075542
 20
193.3126032198134
 30
0.0
  0
VERTEX
  5
550
  8
1
  6
CONTINUOUS
 62
     7
 10
-357.0602546378111
 20
192.9036062341094
 30
0.0
  0
VERTEX
  5
551
  8
1
  6
CONTINUOUS
 62
     7
 10
-357.049238868068
 20
192.4907926964549
 30
0.0
  0
VERTEX
  5
552
  8
1
  6
CONTINUOUS
 62
     7
 10
-357.0382230983249
 20
192.0746571977806
 30
0.0
  0
VERTEX
  5
553
  8
1
  6
CONTINUOUS
 62
     7
 10
-357.0272073285818
 20
191.6556943290173
 30
0.0
  0
VERTEX
  5
554
  8
1
  6
CONTINUOUS
 62
     7
 10
-357.0161915588387
 20
191.2343986810957
 30
0.0
  0
VERTEX
  5
555
  8
1
  6
CONTINUOUS
 62
     7
 10
-357.0051757890956
 20
190.8112648449465
 30
0.0
  0
VERTEX
  5
556
  8
1
  6
CONTINUOUS
 62
     7
 10
-356.9941600193525
 20
190.3867895773308
 30
0.0
  0
VERTEX
  5
557
  8
1
  6
CONTINUOUS
 62
     7
 10
-356.9831442496094
 20
189.9614801445699
 30
0.0
  0
VERTEX
  5
558
  8
1
  6
CONTINUOUS
 62
     7
 10
-356.9721284798663
 20
189.5358469962613
 30
0.0
  0
VERTEX
  5
559
  8
1
  6
CONTINUOUS
 62
     7
 10
-356.9611127101232
 20
189.1104005827029
 30
0.0
  0
VERTEX
  5
55A
  8
1
  6
CONTINUOUS
 62
     7
 10
-356.9500969403801
 20
188.6856513541927
 30
0.0
  0
VERTEX
  5
55B
  8
1
  6
CONTINUOUS
 62
     7
 10
-356.939081170637
 20
188.2621097610288
 30
0.0
  0
VERTEX
  5
55C
  8
1
  6
CONTINUOUS
 62
     7
 10
-356.928065400894
 20
187.8402862535093
 30
0.0
  0
VERTEX
  5
55D
  8
1
  6
CONTINUOUS
 62
     7
 10
-356.9170496311508
 20
187.4206912819321
 30
0.0
  0
VERTEX
  5
55E
  8
1
  6
CONTINUOUS
 62
     7
 10
-356.9060338614078
 20
187.0038352965952
 30
0.0
  0
VERTEX
  5
55F
  8
1
  6
CONTINUOUS
 62
     7
 10
-356.8950180916646
 20
186.5902287477967
 30
0.0
  0
VERTEX
  5
560
  8
1
  6
CONTINUOUS
 62
     7
 10
-356.8840023219215
 20
186.1803789586951
 30
0.0
  0
VERTEX
  5
561
  8
1
  6
CONTINUOUS
 62
     7
 10
-356.8729865521784
 20
185.7747647132002
 30
0.0
  0
VERTEX
  5
562
  8
1
  6
CONTINUOUS
 62
     7
 10
-356.8619707824353
 20
185.37384952089
 30
0.0
  0
VERTEX
  5
563
  8
1
  6
CONTINUOUS
 62
     7
 10
-356.8509550126922
 20
184.9780967467457
 30
0.0
  0
VERTEX
  5
564
  8
1
  6
CONTINUOUS
 62
     7
 10
-356.8399392429491
 20
184.5879697557482
 30
0.0
  0
VERTEX
  5
565
  8
1
  6
CONTINUOUS
 62
     7
 10
-356.828923473206
 20
184.2039319128783
 30
0.0
  0
VERTEX
  5
566
  8
1
  6
CONTINUOUS
 62
     7
 10
-356.8179077034629
 20
183.826446583117
 30
0.0
  0
VERTEX
  5
567
  8
1
  6
CONTINUOUS
 62
     7
 10
-356.8068919337198
 20
183.4559771314454
 30
0.0
  0
VERTEX
  5
568
  8
1
  6
CONTINUOUS
 62
     7
 10
-356.7958761639767
 20
183.0929869228443
 30
0.0
  0
VERTEX
  5
569
  8
1
  6
CONTINUOUS
 62
     7
 10
-356.7848603942337
 20
182.7379393222947
 30
0.0
  0
VERTEX
  5
56A
  8
1
  6
CONTINUOUS
 62
     7
 10
-356.7738446244906
 20
182.3912950199581
 30
0.0
  0
VERTEX
  5
56B
  8
1
  6
CONTINUOUS
 62
     7
 10
-356.7628288547475
 20
182.0534624569884
 30
0.0
  0
VERTEX
  5
56C
  8
1
  6
CONTINUOUS
 62
     7
 10
-356.7518130850044
 20
181.7248025099056
 30
0.0
  0
VERTEX
  5
56D
  8
1
  6
CONTINUOUS
 62
     7
 10
-356.7407973152613
 20
181.4056743198772
 30
0.0
  0
VERTEX
  5
56E
  8
1
  6
CONTINUOUS
 62
     7
 10
-356.7297815455181
 20
181.0964370280707
 30
0.0
  0
VERTEX
  5
56F
  8
1
  6
CONTINUOUS
 62
     7
 10
-356.718765775775
 20
180.7974497756536
 30
0.0
  0
VERTEX
  5
570
  8
1
  6
CONTINUOUS
 62
     7
 10
-356.7077500060319
 20
180.5090717037936
 30
0.0
  0
VERTEX
  5
571
  8
1
  6
CONTINUOUS
 62
     7
 10
-356.6967342362889
 20
180.2316619536579
 30
0.0
  0
VERTEX
  5
572
  8
1
  6
CONTINUOUS
 62
     7
 10
-356.6857184665458
 20
179.9655796664144
 30
0.0
  0
VERTEX
  5
573
  8
1
  6
CONTINUOUS
 62
     7
 10
-356.6747026968027
 20
179.7111839832304
 30
0.0
  0
VERTEX
  5
574
  8
1
  6
CONTINUOUS
 62
     7
 10
-356.6636869270596
 20
179.4688331054291
 30
0.0
  0
VERTEX
  5
575
  8
1
  6
CONTINUOUS
 62
     7
 10
-356.6526711573165
 20
179.238829955464
 30
0.0
  0
VERTEX
  5
576
  8
1
  6
CONTINUOUS
 62
     7
 10
-356.6416553875733
 20
179.0213924067774
 30
0.0
  0
VERTEX
  5
577
  8
1
  6
CONTINUOUS
 62
     7
 10
-356.6306396178302
 20
178.8167310902817
 30
0.0
  0
VERTEX
  5
578
  8
1
  6
CONTINUOUS
 62
     7
 10
-356.6196238480872
 20
178.6250566368891
 30
0.0
  0
VERTEX
  5
579
  8
1
  6
CONTINUOUS
 62
     7
 10
-356.6086080783441
 20
178.4465796775119
 30
0.0
  0
VERTEX
  5
57A
  8
1
  6
CONTINUOUS
 62
     7
 10
-356.597592308601
 20
178.2815108430624
 30
0.0
  0
VERTEX
  5
57B
  8
1
  6
CONTINUOUS
 62
     7
 10
-356.5865765388579
 20
178.1300607644528
 30
0.0
  0
VERTEX
  5
57C
  8
1
  6
CONTINUOUS
 62
     7
 10
-356.5755607691147
 20
177.9924400725953
 30
0.0
  0
VERTEX
  5
57D
  8
1
  6
CONTINUOUS
 62
     7
 10
-356.5645449993716
 20
177.8688593984023
 30
0.0
  0
VERTEX
  5
57E
  8
1
  6
CONTINUOUS
 62
     7
 10
-356.5535292296286
 20
177.7595292992635
 30
0.0
  0
VERTEX
  5
57F
  8
1
  6
CONTINUOUS
 62
     7
 10
-356.5425134598855
 20
177.6646179685297
 30
0.0
  0
VERTEX
  5
580
  8
1
  6
CONTINUOUS
 62
     7
 10
-356.5314976901424
 20
177.5841802947522
 30
0.0
  0
VERTEX
  5
581
  8
1
  6
CONTINUOUS
 62
     7
 10
-356.5204819203992
 20
177.5182524252538
 30
0.0
  0
VERTEX
  5
582
  8
1
  6
CONTINUOUS
 62
     7
 10
-356.5094661506561
 20
177.4668705073569
 30
0.0
  0
VERTEX
  5
583
  8
1
  6
CONTINUOUS
 62
     7
 10
-356.498450380913
 20
177.4300706883843
 30
0.0
  0
VERTEX
  5
584
  8
1
  6
CONTINUOUS
 62
     7
 10
-356.4874346111699
 20
177.4078891156583
 30
0.0
  0
VERTEX
  5
585
  8
1
  6
CONTINUOUS
 62
     7
 10
-356.4764188414268
 20
177.4003619365017
 30
0.0
  0
SEQEND
  5
685
  8
1
  6
CONTINUOUS
 62
     7
  0
LINE
  5
AE
  8
1
  6
CONTINUOUS
 62
     7
 10
-357.0735975666417
 20
200.0013183240085
 30
0.0
 11
-357.1751906812821
 21
200.9384495423594
 31
0.0
  0
LINE
  5
AF
  8
1
  6
CONTINUOUS
 62
     7
 10
-356.9612380160797
 20
197.7605076456156
 30
0.0
 11
-357.0735975666417
 21
200.0013183240085
 31
0.0
  0
LINE
  5
B0
  8
1
  6
CONTINUOUS
 62
     7
 10
-356.848878465518
 20
194.5257390603868
 30
0.0
 11
-356.9612380160797
 21
197.7605076456156
 31
0.0
  0
LINE
  5
B1
  8
1
  6
CONTINUOUS
 62
     7
 10
-356.7365189149563
 20
190.6958985880919
 30
0.0
 11
-356.848878465518
 21
194.5257390603868
 31
0.0
  0
LINE
  5
B2
  8
1
  6
CONTINUOUS
 62
     7
 10
-356.6241593643945
 20
186.7432517964414
 30
0.0
 11
-356.7365189149563
 21
190.6958985880919
 31
0.0
  0
LINE
  5
B3
  8
1
  6
CONTINUOUS
 62
     7
 10
-356.5117998138326
 20
183.1552077549762
 30
0.0
 11
-356.6241593643945
 21
186.7432517964414
 31
0.0
  0
LINE
  5
B4
  8
1
  6
CONTINUOUS
 62
     7
 10
-356.3994402632708
 20
180.3742156122951
 30
0.0
 11
-356.5117998138326
 21
183.1552077549762
 31
0.0
  0
LINE
  5
B5
  8
1
  6
CONTINUOUS
 62
     7
 10
-356.287080712709
 20
178.7432052743797
 30
0.0
 11
-356.3994402632708
 21
180.3742156122951
 31
0.0
  0
LINE
  5
B6
  8
1
  6
CONTINUOUS
 62
     7
 10
-355.1634852070911
 20
200.8875483713215
 30
0.0
 11
-355.1762345174545
 21
200.9422515305034
 31
0.0
  0
LINE
  5
B7
  8
1
  6
CONTINUOUS
 62
     7
 10
-355.0511256565293
 20
199.6480287130116
 30
0.0
 11
-355.1634852070911
 21
200.8875483713215
 31
0.0
  0
LINE
  5
B8
  8
1
  6
CONTINUOUS
 62
     7
 10
-354.9387661059675
 20
197.1817970122992
 30
0.0
 11
-355.0511256565293
 21
199.6480287130116
 31
0.0
  0
LINE
  5
B9
  8
1
  6
CONTINUOUS
 62
     7
 10
-354.8264065554057
 20
193.7929694125818
 30
0.0
 11
-354.9387661059675
 21
197.1817970122992
 31
0.0
  0
LINE
  5
BA
  8
1
  6
CONTINUOUS
 62
     7
 10
-354.4893279037203
 20
182.5217258760552
 30
0.0
 11
-354.6016874542821
 21
185.9812970908455
 31
0.0
  0
LINE
  5
BB
  8
1
  6
CONTINUOUS
 62
     7
 10
-354.3769683531585
 20
179.9473225237171
 30
0.0
 11
-354.4893279037203
 21
182.5217258760552
 31
0.0
  0
LINE
  5
BC
  8
1
  6
CONTINUOUS
 62
     7
 10
-354.2646088025967
 20
178.5755420478259
 30
0.0
 11
-354.3769683531585
 21
179.9473225237171
 31
0.0
  0
LINE
  5
BD
  8
1
  6
CONTINUOUS
 62
     7
 10
-353.1410132969788
 20
200.7475088536976
 30
0.0
 11
-353.1760898034149
 21
200.9417316529485
 31
0.0
  0
LINE
  5
BE
  8
1
  6
CONTINUOUS
 62
     7
 10
-353.0286537464169
 20
199.2451785233677
 30
0.0
 11
-353.1410132969788
 21
200.7475088536976
 31
0.0
  0
LINE
  5
BF
  8
1
  6
CONTINUOUS
 62
     7
 10
-352.9162941958551
 20
196.5658124426103
 30
0.0
 11
-353.0286537464169
 21
199.2451785233677
 31
0.0
  0
LINE
  5
C0
  8
1
  6
CONTINUOUS
 62
     7
 10
-352.8039816905736
 20
193.0414041037905
 30
0.0
 11
-352.9162941958551
 21
196.5658124426103
 31
0.0
  0
LINE
  5
C1
  8
1
  6
CONTINUOUS
 62
     7
 10
-352.5792155441697
 20
185.2378687760877
 30
0.0
 11
-352.6915750947315
 21
189.1019664054463
 31
0.0
  0
LINE
  5
C2
  8
1
  6
CONTINUOUS
 62
     7
 10
-352.4668559936079
 20
181.9240057977415
 30
0.0
 11
-352.5792155441697
 21
185.2378687760877
 31
0.0
  0
LINE
  5
C3
  8
1
  6
CONTINUOUS
 62
     7
 10
-352.3544964430461
 20
179.5690167837492
 30
0.0
 11
-352.4668559936079
 21
181.9240057977415
 31
0.0
  0
LINE
  5
C4
  8
1
  6
CONTINUOUS
 62
     7
 10
-352.2421368924843
 20
178.4633003112122
 30
0.0
 11
-352.3544964430461
 21
179.5690167837492
 31
0.0
  0
LINE
  5
C5
  8
1
  6
CONTINUOUS
 62
     7
 10
-351.1185413868664
 20
200.5524312026715
 30
0.0
 11
-351.1744013538083
 21
200.935494306761
 31
0.0
  0
LINE
  5
C6
  8
1
  6
CONTINUOUS
 62
     7
 10
-351.0061818363036
 20
198.7947747344369
 30
0.0
 11
-351.1185413868664
 21
200.5524312026715
 31
0.0
  0
LINE
  5
C7
  8
1
  6
CONTINUOUS
 62
     7
 10
-350.8938222857481
 20
195.9156227408511
 30
0.0
 11
-351.0061818363036
 21
198.7947747344369
 31
0.0
  0
LINE
  5
C8
  8
1
  6
CONTINUOUS
 62
     7
 10
-350.7814627351578
 20
192.2700094212764
 30
0.0
 11
-350.8938222857481
 21
195.9156227408511
 31
0.0
  0
LINE
  5
C9
  8
1
  6
CONTINUOUS
 62
     7
 10
-350.6691031847079
 20
188.3074829172392
 30
0.0
 11
-350.7814627351578
 21
192.2700094212764
 31
0.0
  0
LINE
  5
CA
  8
1
  6
CONTINUOUS
 62
     7
 10
-350.5567436337374
 20
184.5166705645438
 30
0.0
 11
-350.6691031847079
 21
188.3074829172392
 31
0.0
  0
LINE
  5
CB
  8
1
  6
CONTINUOUS
 62
     7
 10
-350.4443840844028
 20
181.3650253531432
 30
0.0
 11
-350.5567436337374
 21
184.5166705645437
 31
0.0
  0
LINE
  5
CC
  8
1
  6
CONTINUOUS
 62
     7
 10
-350.3320245310353
 20
179.2411830670498
 30
0.0
 11
-350.4443840844028
 21
181.3650253531432
 31
0.0
  0
LINE
  5
CD
  8
1
  6
CONTINUOUS
 62
     7
 10
-350.2196649830324
 20
178.4070392480519
 30
0.0
 11
-350.3320245310353
 21
179.2411830670498
 31
0.0
  0
LINE
  5
CE
  8
1
  6
CONTINUOUS
 62
     7
 10
-349.1886435506576
 20
178.6780522688614
 30
0.0
 11
-349.1417955069626
 21
178.4285809015732
 31
0.0
  0
ARC
  5
CF
  8
1
  6
CONTINUOUS
 62
     7
 10
-2930.098497103109
 20
59.95584215570168
 30
0.0
 40
2583.621086868131
 50
2.635521077045477
 51
3.127427520682935
  0
LINE
  5
D0
  8
1
  6
CONTINUOUS
 62
     7
 10
-350.3252788636174
 20
200.9099586756321
 30
0.0
 11
-350.3763782197452
 21
201.0
 31
0.0
  0
POLYLINE
  5
D1
  8
1
  6
CONTINUOUS
 62
     7
 66
     1
 10
0.0
 20
0.0
 30
0.0
  0
VERTEX
  5
586
  8
1
  6
CONTINUOUS
 62
     7
 10
-350.1084290273141
 20
202.0
 30
0.0
  0
VERTEX
  5
587
  8
1
  6
CONTINUOUS
 62
     7
 10
-350.0973934655949
 20
201.9815062856488
 30
0.0
  0
VERTEX
  5
588
  8
1
  6
CONTINUOUS
 62
     7
 10
-350.0863471302448
 20
201.9481490163034
 30
0.0
  0
VERTEX
  5
589
  8
1
  6
CONTINUOUS
 62
     7
 10
-350.0752899879406
 20
201.9000203922356
 30
0.0
  0
VERTEX
  5
58A
  8
1
  6
CONTINUOUS
 62
     7
 10
-350.0642220053591
 20
201.8372126137171
 30
0.0
  0
VERTEX
  5
58B
  8
1
  6
CONTINUOUS
 62
     7
 10
-350.0531431491772
 20
201.7598178810196
 30
0.0
  0
VERTEX
  5
58C
  8
1
  6
CONTINUOUS
 62
     7
 10
-350.042053386072
 20
201.6679283944148
 30
0.0
  0
VERTEX
  5
58D
  8
1
  6
CONTINUOUS
 62
     7
 10
-350.0309526827203
 20
201.5616363541747
 30
0.0
  0
VERTEX
  5
58E
  8
1
  6
CONTINUOUS
 62
     7
 10
-350.019841005799
 20
201.4410339605707
 30
0.0
  0
VERTEX
  5
58F
  8
1
  6
CONTINUOUS
 62
     7
 10
-350.008718321985
 20
201.3062134138747
 30
0.0
  0
VERTEX
  5
590
  8
1
  6
CONTINUOUS
 62
     7
 10
-349.9975845979553
 20
201.1572669143584
 30
0.0
  0
VERTEX
  5
591
  8
1
  6
CONTINUOUS
 62
     7
 10
-349.9864398003856
 20
200.9942884937538
 30
0.0
  0
VERTEX
  5
592
  8
1
  6
CONTINUOUS
 62
     7
 10
-349.9752838959005
 20
200.8174476608273
 30
0.0
  0
VERTEX
  5
593
  8
1
  6
CONTINUOUS
 62
     7
 10
-349.9641168510575
 20
200.6270145215901
 30
0.0
  0
VERTEX
  5
594
  8
1
  6
CONTINUOUS
 62
     7
 10
-349.9529386324087
 20
200.4232661679075
 30
0.0
  0
VERTEX
  5
595
  8
1
  6
CONTINUOUS
 62
     7
 10
-349.9417492065067
 20
200.2064796916451
 30
0.0
  0
VERTEX
  5
596
  8
1
  6
CONTINUOUS
 62
     7
 10
-349.9305485399038
 20
199.9769321846682
 30
0.0
  0
VERTEX
  5
597
  8
1
  6
CONTINUOUS
 62
     7
 10
-349.9193365991526
 20
199.7349007388424
 30
0.0
  0
VERTEX
  5
598
  8
1
  6
CONTINUOUS
 62
     7
 10
-349.9081133508054
 20
199.4806624460331
 30
0.0
  0
VERTEX
  5
599
  8
1
  6
CONTINUOUS
 62
     7
 10
-349.8968787614146
 20
199.2144943981058
 30
0.0
  0
VERTEX
  5
59A
  8
1
  6
CONTINUOUS
 62
     7
 10
-349.8856327975328
 20
198.9366736869261
 30
0.0
  0
VERTEX
  5
59B
  8
1
  6
CONTINUOUS
 62
     7
 10
-349.8743754257122
 20
198.6474774043593
 30
0.0
  0
VERTEX
  5
59C
  8
1
  6
CONTINUOUS
 62
     7
 10
-349.8631066122024
 20
198.3472009860133
 30
0.0
  0
VERTEX
  5
59D
  8
1
  6
CONTINUOUS
 62
     7
 10
-349.8518263215706
 20
198.0362417389023
 30
0.0
  0
VERTEX
  5
59E
  8
1
  6
CONTINUOUS
 62
     7
 10
-349.8405345178031
 20
197.7150321305677
 30
0.0
  0
VERTEX
  5
59F
  8
1
  6
CONTINUOUS
 62
     7
 10
-349.8292311648863
 20
197.3840046617608
 30
0.0
  0
VERTEX
  5
5A0
  8
1
  6
CONTINUOUS
 62
     7
 10
-349.817916226806
 20
197.0435918332327
 30
0.0
  0
VERTEX
  5
5A1
  8
1
  6
CONTINUOUS
 62
     7
 10
-349.8065896675481
 20
196.6942261457345
 30
0.0
  0
VERTEX
  5
5A2
  8
1
  6
CONTINUOUS
 62
     7
 10
-349.7952514510987
 20
196.3363401000174
 30
0.0
  0
VERTEX
  5
5A3
  8
1
  6
CONTINUOUS
 62
     7
 10
-349.7839015414438
 20
195.9703661968325
 30
0.0
  0
VERTEX
  5
5A4
  8
1
  6
CONTINUOUS
 62
     7
 10
-349.7725399025692
 20
195.5967369369308
 30
0.0
  0
VERTEX
  5
5A5
  8
1
  6
CONTINUOUS
 62
     7
 10
-349.7611664984611
 20
195.2158848210636
 30
0.0
  0
VERTEX
  5
5A6
  8
1
  6
CONTINUOUS
 62
     7
 10
-349.749781293069
 20
194.8282445264577
 30
0.0
  0
VERTEX
  5
5A7
  8
1
  6
CONTINUOUS
 62
     7
 10
-349.7383842495151
 20
194.4343000143059
 30
0.0
  0
VERTEX
  5
5A8
  8
1
  6
CONTINUOUS
 62
     7
 10
-349.7269753301023
 20
194.0345841030318
 30
0.0
  0
VERTEX
  5
5A9
  8
1
  6
CONTINUOUS
 62
     7
 10
-349.7155544970981
 20
193.6296317021854
 30
0.0
  0
VERTEX
  5
5AA
  8
1
  6
CONTINUOUS
 62
     7
 10
-349.7041217127699
 20
193.2199777213167
 30
0.0
  0
VERTEX
  5
5AB
  8
1
  6
CONTINUOUS
 62
     7
 10
-349.6926769393854
 20
192.8061570699757
 30
0.0
  0
VERTEX
  5
5AC
  8
1
  6
CONTINUOUS
 62
     7
 10
-349.6812201392121
 20
192.3887046577124
 30
0.0
  0
VERTEX
  5
5AD
  8
1
  6
CONTINUOUS
 62
     7
 10
-349.6697512745176
 20
191.9681553940769
 30
0.0
  0
VERTEX
  5
5AE
  8
1
  6
CONTINUOUS
 62
     7
 10
-349.6582703075695
 20
191.5450441886192
 30
0.0
  0
VERTEX
  5
5AF
  8
1
  6
CONTINUOUS
 62
     7
 10
-349.6467772006352
 20
191.1199059508893
 30
0.0
  0
VERTEX
  5
5B0
  8
1
  6
CONTINUOUS
 62
     7
 10
-349.635271915978
 20
190.6932756546158
 30
0.0
  0
VERTEX
  5
5B1
  8
1
  6
CONTINUOUS
 62
     7
 10
-349.6237544152082
 20
190.2656982444838
 30
0.0
  0
VERTEX
  5
5B2
  8
1
  6
CONTINUOUS
 62
     7
 10
-349.6122246585797
 20
189.8377393469252
 30
0.0
  0
VERTEX
  5
5B3
  8
1
  6
CONTINUOUS
 62
     7
 10
-349.6006826061788
 20
189.4099671592665
 30
0.0
  0
VERTEX
  5
5B4
  8
1
  6
CONTINUOUS
 62
     7
 10
-349.5891282180914
 20
188.9829498788345
 30
0.0
  0
VERTEX
  5
5B5
  8
1
  6
CONTINUOUS
 62
     7
 10
-349.5775614544036
 20
188.5572557029556
 30
0.0
  0
VERTEX
  5
5B6
  8
1
  6
CONTINUOUS
 62
     7
 10
-349.5659822752012
 20
188.1334528289564
 30
0.0
  0
VERTEX
  5
5B7
  8
1
  6
CONTINUOUS
 62
     7
 10
-349.5543906405701
 20
187.7121094541634
 30
0.0
  0
VERTEX
  5
5B8
  8
1
  6
CONTINUOUS
 62
     7
 10
-349.5427865105966
 20
187.2937937759033
 30
0.0
  0
VERTEX
  5
5B9
  8
1
  6
CONTINUOUS
 62
     7
 10
-349.5311698453664
 20
186.8790739915026
 30
0.0
  0
VERTEX
  5
5BA
  8
1
  6
CONTINUOUS
 62
     7
 10
-349.5195406049655
 20
186.4685182967215
 30
0.0
  0
VERTEX
  5
5BB
  8
1
  6
CONTINUOUS
 62
     7
 10
-349.5078987490387
 20
186.0626861935526
 30
0.0
  0
VERTEX
  5
5BC
  8
1
  6
CONTINUOUS
 62
     7
 10
-349.4962442357559
 20
185.6621081046274
 30
0.0
  0
VERTEX
  5
5BD
  8
1
  6
CONTINUOUS
 62
     7
 10
-349.4845770229783
 20
185.2673083797243
 30
0.0
  0
VERTEX
  5
5BE
  8
1
  6
CONTINUOUS
 62
     7
 10
-349.4728970685678
 20
184.8788113686226
 30
0.0
  0
VERTEX
  5
5BF
  8
1
  6
CONTINUOUS
 62
     7
 10
-349.4612043303857
 20
184.4971414211012
 30
0.0
  0
VERTEX
  5
5C0
  8
1
  6
CONTINUOUS
 62
     7
 10
-349.449498766294
 20
184.1228228869389
 30
0.0
  0
VERTEX
  5
5C1
  8
1
  6
CONTINUOUS
 62
     7
 10
-349.4377803341538
 20
183.7563801159147
 30
0.0
  0
VERTEX
  5
5C2
  8
1
  6
CONTINUOUS
 62
     7
 10
-349.4260489918272
 20
183.3983374578077
 30
0.0
  0
VERTEX
  5
5C3
  8
1
  6
CONTINUOUS
 62
     7
 10
-349.4143046971752
 20
183.0492192623966
 30
0.0
  0
VERTEX
  5
5C4
  8
1
  6
CONTINUOUS
 62
     7
 10
-349.4025474080598
 20
182.7095498794588
 30
0.0
  0
VERTEX
  5
5C5
  8
1
  6
CONTINUOUS
 62
     7
 10
-349.3907770819366
 20
182.379833655915
 30
0.0
  0
VERTEX
  5
5C6
  8
1
  6
CONTINUOUS
 62
     7
 10
-349.3789936746584
 20
182.06049597193
 30
0.0
  0
VERTEX
  5
5C7
  8
1
  6
CONTINUOUS
 62
     7
 10
-349.3671971416824
 20
181.751942723746
 30
0.0
  0
VERTEX
  5
5C8
  8
1
  6
CONTINUOUS
 62
     7
 10
-349.3553874384662
 20
181.4545798076057
 30
0.0
  0
VERTEX
  5
5C9
  8
1
  6
CONTINUOUS
 62
     7
 10
-349.3435645204671
 20
181.1688131197511
 30
0.0
  0
VERTEX
  5
5CA
  8
1
  6
CONTINUOUS
 62
     7
 10
-349.3317283431426
 20
180.8950485564249
 30
0.0
  0
VERTEX
  5
5CB
  8
1
  6
CONTINUOUS
 62
     7
 10
-349.3198788619502
 20
180.6336920138693
 30
0.0
  0
VERTEX
  5
5CC
  8
1
  6
CONTINUOUS
 62
     7
 10
-349.308016032347
 20
180.3851493883265
 30
0.0
  0
VERTEX
  5
5CD
  8
1
  6
CONTINUOUS
 62
     7
 10
-349.2961398097906
 20
180.1498265760392
 30
0.0
  0
VERTEX
  5
5CE
  8
1
  6
CONTINUOUS
 62
     7
 10
-349.2842501497383
 20
179.9281294668335
 30
0.0
  0
VERTEX
  5
5CF
  8
1
  6
CONTINUOUS
 62
     7
 10
-349.2723470071392
 20
179.7204282086442
 30
0.0
  0
VERTEX
  5
5D0
  8
1
  6
CONTINUOUS
 62
     7
 10
-349.2604303352423
 20
179.5269733707787
 30
0.0
  0
VERTEX
  5
5D1
  8
1
  6
CONTINUOUS
 62
     7
 10
-349.2485000869412
 20
179.3479905442813
 30
0.0
  0
VERTEX
  5
5D2
  8
1
  6
CONTINUOUS
 62
     7
 10
-349.2365562151299
 20
179.183705320196
 30
0.0
  0
VERTEX
  5
5D3
  8
1
  6
CONTINUOUS
 62
     7
 10
-349.2245986727021
 20
179.0343432895672
 30
0.0
  0
VERTEX
  5
5D4
  8
1
  6
CONTINUOUS
 62
     7
 10
-349.2126274125516
 20
178.900130043439
 30
0.0
  0
VERTEX
  5
5D5
  8
1
  6
CONTINUOUS
 62
     7
 10
-349.2006423875722
 20
178.7812911728557
 30
0.0
  0
VERTEX
  5
5D6
  8
1
  6
CONTINUOUS
 62
     7
 10
-349.1886435506576
 20
178.6780522688614
 30
0.0
  0
SEQEND
  5
686
  8
1
  6
CONTINUOUS
 62
     7
  0
LINE
  5
D2
  8
1
  6
CONTINUOUS
 62
     7
 10
-349.1091036430832
 20
178.400013731982
 30
0.0
 11
-349.127999366657
 21
178.4132037211448
 31
0.0
  0
LINE
  5
D3
  8
1
  6
CONTINUOUS
 62
     7
 10
-349.127999366657
 20
178.4132037211448
 30
0.0
 11
-349.1361047834223
 21
178.4264162959308
 31
0.0
  0
LINE
  5
D4
  8
1
  6
CONTINUOUS
 62
     7
 10
-349.1361047834223
 20
178.4264162959308
 30
0.0
 11
-349.1420429733489
 21
178.4389641593264
 31
0.0
  0
LINE
  5
D5
  8
1
  6
CONTINUOUS
 62
     7
 10
-349.1420429733489
 20
178.4389641593264
 30
0.0
 11
-349.1971843259187
 21
178.671178731671
 31
0.0
  0
LINE
  5
D6
  8
1
  6
CONTINUOUS
 62
     7
 10
-349.1971843259187
 20
178.671178731671
 30
0.0
 11
-349.2102235843953
 21
178.7566844222901
 31
0.0
  0
POLYLINE
  5
D7
  8
1
  6
CONTINUOUS
 62
     7
 66
     1
 10
0.0
 20
0.0
 30
0.0
  0
VERTEX
  5
5D7
  8
1
  6
CONTINUOUS
 62
     7
 10
-349.1417955069626
 20
178.4285809015732
 30
0.0
  0
VERTEX
  5
5D8
  8
1
  6
CONTINUOUS
 62
     7
 10
-349.1404354073103
 20
178.425015270925
 30
0.0
  0
VERTEX
  5
5D9
  8
1
  6
CONTINUOUS
 62
     7
 10
-349.139075128935
 20
178.4216561346571
 30
0.0
  0
VERTEX
  5
5DA
  8
1
  6
CONTINUOUS
 62
     7
 10
-349.1377146717654
 20
178.4185035004361
 30
0.0
  0
VERTEX
  5
5DB
  8
1
  6
CONTINUOUS
 62
     7
 10
-349.1363540357297
 20
178.4155573759284
 30
0.0
  0
VERTEX
  5
5DC
  8
1
  6
CONTINUOUS
 62
     7
 10
-349.1349932207568
 20
178.4128177688006
 30
0.0
  0
VERTEX
  5
5DD
  8
1
  6
CONTINUOUS
 62
     7
 10
-349.1336322267749
 20
178.4102846867191
 30
0.0
  0
VERTEX
  5
5DE
  8
1
  6
CONTINUOUS
 62
     7
 10
-349.1322710537127
 20
178.4079581373505
 30
0.0
  0
VERTEX
  5
5DF
  8
1
  6
CONTINUOUS
 62
     7
 10
-349.1309097014986
 20
178.4058381283612
 30
0.0
  0
VERTEX
  5
5E0
  8
1
  6
CONTINUOUS
 62
     7
 10
-349.1295481700611
 20
178.4039246674177
 30
0.0
  0
VERTEX
  5
5E1
  8
1
  6
CONTINUOUS
 62
     7
 10
-349.1281864593289
 20
178.4022177621866
 30
0.0
  0
VERTEX
  5
5E2
  8
1
  6
CONTINUOUS
 62
     7
 10
-349.1268245692303
 20
178.4007174203342
 30
0.0
  0
VERTEX
  5
5E3
  8
1
  6
CONTINUOUS
 62
     7
 10
-349.1254624996938
 20
178.3994236495271
 30
0.0
  0
VERTEX
  5
5E4
  8
1
  6
CONTINUOUS
 62
     7
 10
-349.1241002506482
 20
178.3983364574319
 30
0.0
  0
VERTEX
  5
5E5
  8
1
  6
CONTINUOUS
 62
     7
 10
-349.1227378220216
 20
178.397455851715
 30
0.0
  0
VERTEX
  5
5E6
  8
1
  6
CONTINUOUS
 62
     7
 10
-349.1213752137427
 20
178.3967818400428
 30
0.0
  0
VERTEX
  5
5E7
  8
1
  6
CONTINUOUS
 62
     7
 10
-349.1200124257401
 20
178.3963144300819
 30
0.0
  0
VERTEX
  5
5E8
  8
1
  6
CONTINUOUS
 62
     7
 10
-349.1186494579423
 20
178.3960536294988
 30
0.0
  0
VERTEX
  5
5E9
  8
1
  6
CONTINUOUS
 62
     7
 10
-349.1172863102777
 20
178.39599944596
 30
0.0
  0
VERTEX
  5
5EA
  8
1
  6
CONTINUOUS
 62
     7
 10
-349.1159229826748
 20
178.3961518871319
 30
0.0
  0
VERTEX
  5
5EB
  8
1
  6
CONTINUOUS
 62
     7
 10
-349.114559475062
 20
178.396510960681
 30
0.0
  0
VERTEX
  5
5EC
  8
1
  6
CONTINUOUS
 62
     7
 10
-349.1131957873682
 20
178.397076674274
 30
0.0
  0
VERTEX
  5
5ED
  8
1
  6
CONTINUOUS
 62
     7
 10
-349.1118319195216
 20
178.3978490355771
 30
0.0
  0
VERTEX
  5
5EE
  8
1
  6
CONTINUOUS
 62
     7
 10
-349.1104678714509
 20
178.3988280522571
 30
0.0
  0
VERTEX
  5
5EF
  8
1
  6
CONTINUOUS
 62
     7
 10
-349.1091036430844
 20
178.4000137319802
 30
0.0
  0
SEQEND
  5
687
  8
1
  6
CONTINUOUS
 62
     7
  0
POLYLINE
  5
D8
  8
1
  6
CONTINUOUS
 62
     7
 66
     1
 10
0.0
 20
0.0
 30
0.0
  0
VERTEX
  5
5F0
  8
1
  6
CONTINUOUS
 62
     7
 10
-348.5097448233569
 20
178.4286979316686
 30
0.0
  0
VERTEX
  5
5F1
  8
1
  6
CONTINUOUS
 62
     7
 10
-348.5203763644159
 20
178.4637592292542
 30
0.0
  0
VERTEX
  5
5F2
  8
1
  6
CONTINUOUS
 62
     7
 10
-348.5309970118619
 20
178.5114466360462
 30
0.0
  0
VERTEX
  5
5F3
  8
1
  6
CONTINUOUS
 62
     7
 10
-348.5416067998254
 20
178.5717510690022
 30
0.0
  0
VERTEX
  5
5F4
  8
1
  6
CONTINUOUS
 62
     7
 10
-348.5522057614268
 20
178.6445823228039
 30
0.0
  0
VERTEX
  5
5F5
  8
1
  6
CONTINUOUS
 62
     7
 10
-348.5627939290015
 20
178.7297872380013
 30
0.0
  0
VERTEX
  5
5F6
  8
1
  6
CONTINUOUS
 62
     7
 10
-348.5733713348652
 20
178.8272110062445
 30
0.0
  0
VERTEX
  5
5F7
  8
1
  6
CONTINUOUS
 62
     7
 10
-348.583938011333
 20
178.9366988191831
 30
0.0
  0
VERTEX
  5
5F8
  8
1
  6
CONTINUOUS
 62
     7
 10
-348.59449399072
 20
179.058095868467
 30
0.0
  0
VERTEX
  5
5F9
  8
1
  6
CONTINUOUS
 62
     7
 10
-348.6050393053418
 20
179.1912473457462
 30
0.0
  0
VERTEX
  5
5FA
  8
1
  6
CONTINUOUS
 62
     7
 10
-348.6155739875136
 20
179.3359984426703
 30
0.0
  0
VERTEX
  5
5FB
  8
1
  6
CONTINUOUS
 62
     7
 10
-348.6260980695507
 20
179.4921943508893
 30
0.0
  0
VERTEX
  5
5FC
  8
1
  6
CONTINUOUS
 62
     7
 10
-348.6366115837683
 20
179.659680262053
 30
0.0
  0
VERTEX
  5
5FD
  8
1
  6
CONTINUOUS
 62
     7
 10
-348.6471145624818
 20
179.8383013678111
 30
0.0
  0
VERTEX
  5
5FE
  8
1
  6
CONTINUOUS
 62
     7
 10
-348.65760703798
 20
180.0279010113022
 30
0.0
  0
VERTEX
  5
5FF
  8
1
  6
CONTINUOUS
 62
     7
 10
-348.6680890417683
 20
180.2282673987905
 30
0.0
  0
VERTEX
  5
600
  8
1
  6
CONTINUOUS
 62
     7
 10
-348.6785606044528
 20
180.4391255166425
 30
0.0
  0
VERTEX
  5
601
  8
1
  6
CONTINUOUS
 62
     7
 10
-348.6890217565905
 20
180.6601968766191
 30
0.0
  0
VERTEX
  5
602
  8
1
  6
CONTINUOUS
 62
     7
 10
-348.6994725287383
 20
180.891202990481
 30
0.0
  0
VERTEX
  5
603
  8
1
  6
CONTINUOUS
 62
     7
 10
-348.709912951453
 20
181.1318653699888
 30
0.0
  0
VERTEX
  5
604
  8
1
  6
CONTINUOUS
 62
     7
 10
-348.7203430552916
 20
181.3819055269032
 30
0.0
  0
VERTEX
  5
605
  8
1
  6
CONTINUOUS
 62
     7
 10
-348.730762870811
 20
181.6410449729852
 30
0.0
  0
VERTEX
  5
606
  8
1
  6
CONTINUOUS
 62
     7
 10
-348.741172428568
 20
181.9090052199952
 30
0.0
  0
VERTEX
  5
607
  8
1
  6
CONTINUOUS
 62
     7
 10
-348.7515717591197
 20
182.185507779694
 30
0.0
  0
VERTEX
  5
608
  8
1
  6
CONTINUOUS
 62
     7
 10
-348.7619608930227
 20
182.4702741638425
 30
0.0
  0
VERTEX
  5
609
  8
1
  6
CONTINUOUS
 62
     7
 10
-348.7723398608327
 20
182.7630258145805
 30
0.0
  0
VERTEX
  5
60A
  8
1
  6
CONTINUOUS
 62
     7
 10
-348.7827086926677
 20
183.063462619634
 30
0.0
  0
VERTEX
  5
60B
  8
1
  6
CONTINUOUS
 62
     7
 10
-348.7930674175912
 20
183.3712325118035
 30
0.0
  0
VERTEX
  5
60C
  8
1
  6
CONTINUOUS
 62
     7
 10
-348.803416064511
 20
183.6859757533256
 30
0.0
  0
VERTEX
  5
60D
  8
1
  6
CONTINUOUS
 62
     7
 10
-348.8137546623351
 20
184.0073326064372
 30
0.0
  0
VERTEX
  5
60E
  8
1
  6
CONTINUOUS
 62
     7
 10
-348.8240832399711
 20
184.3349433333749
 30
0.0
  0
VERTEX
  5
60F
  8
1
  6
CONTINUOUS
 62
     7
 10
-348.8344018263269
 20
184.6684481963755
 30
0.0
  0
VERTEX
  5
610
  8
1
  6
CONTINUOUS
 62
     7
 10
-348.8447104503105
 20
185.0074874576756
 30
0.0
  0
VERTEX
  5
611
  8
1
  6
CONTINUOUS
 62
     7
 10
-348.8550091408295
 20
185.351701379512
 30
0.0
  0
VERTEX
  5
612
  8
1
  6
CONTINUOUS
 62
     7
 10
-348.8652979267919
 20
185.7007302241214
 30
0.0
  0
VERTEX
  5
613
  8
1
  6
CONTINUOUS
 62
     7
 10
-348.8755768371056
 20
186.0542142537406
 30
0.0
  0
VERTEX
  5
614
  8
1
  6
CONTINUOUS
 62
     7
 10
-348.8858459006782
 20
186.4117937306061
 30
0.0
  0
VERTEX
  5
615
  8
1
  6
CONTINUOUS
 62
     7
 10
-348.8961051463008
 20
186.7731066118712
 30
0.0
  0
VERTEX
  5
616
  8
1
  6
CONTINUOUS
 62
     7
 10
-348.9063546018174
 20
187.1377721934387
 30
0.0
  0
VERTEX
  5
617
  8
1
  6
CONTINUOUS
 62
     7
 10
-348.9165942946133
 20
187.5054007260002
 30
0.0
  0
VERTEX
  5
618
  8
1
  6
CONTINUOUS
 62
     7
 10
-348.9268242520705
 20
187.8756024007698
 30
0.0
  0
VERTEX
  5
619
  8
1
  6
CONTINUOUS
 62
     7
 10
-348.9370445015714
 20
188.247987408962
 30
0.0
  0
VERTEX
  5
61A
  8
1
  6
CONTINUOUS
 62
     7
 10
-348.9472550704979
 20
188.6221659417909
 30
0.0
  0
VERTEX
  5
61B
  8
1
  6
CONTINUOUS
 62
     7
 10
-348.9574559862325
 20
188.9977481904709
 30
0.0
  0
VERTEX
  5
61C
  8
1
  6
CONTINUOUS
 62
     7
 10
-348.9676472761572
 20
189.3743443462162
 30
0.0
  0
VERTEX
  5
61D
  8
1
  6
CONTINUOUS
 62
     7
 10
-348.9778289676541
 20
189.7515646002412
 30
0.0
  0
VERTEX
  5
61E
  8
1
  6
CONTINUOUS
 62
     7
 10
-348.9880010881056
 20
190.12901914376
 30
0.0
  0
VERTEX
  5
61F
  8
1
  6
CONTINUOUS
 62
     7
 10
-348.9981636648936
 20
190.5063181679871
 30
0.0
  0
VERTEX
  5
620
  8
1
  6
CONTINUOUS
 62
     7
 10
-349.0083167253969
 20
190.8830719204868
 30
0.0
  0
VERTEX
  5
621
  8
1
  6
CONTINUOUS
 62
     7
 10
-349.0184602965264
 20
191.2588977793148
 30
0.0
  0
VERTEX
  5
622
  8
1
  6
CONTINUOUS
 62
     7
 10
-349.0285944042749
 20
191.6334271421372
 30
0.0
  0
VERTEX
  5
623
  8
1
  6
CONTINUOUS
 62
     7
 10
-349.0387190745277
 20
192.0062930415272
 30
0.0
  0
VERTEX
  5
624
  8
1
  6
CONTINUOUS
 62
     7
 10
-349.0488343331701
 20
192.3771285100582
 30
0.0
  0
VERTEX
  5
625
  8
1
  6
CONTINUOUS
 62
     7
 10
-349.0589402060877
 20
192.7455665803035
 30
0.0
  0
VERTEX
  5
626
  8
1
  6
CONTINUOUS
 62
     7
 10
-349.0690367191658
 20
193.1112402848365
 30
0.0
  0
VERTEX
  5
627
  8
1
  6
CONTINUOUS
 62
     7
 10
-349.0791238982896
 20
193.4737826562306
 30
0.0
  0
VERTEX
  5
628
  8
1
  6
CONTINUOUS
 62
     7
 10
-349.0892017693447
 20
193.8328267270591
 30
0.0
  0
VERTEX
  5
629
  8
1
  6
CONTINUOUS
 62
     7
 10
-349.0992703582166
 20
194.1880055298955
 30
0.0
  0
VERTEX
  5
62A
  8
1
  6
CONTINUOUS
 62
     7
 10
-349.1093296907904
 20
194.538952097313
 30
0.0
  0
VERTEX
  5
62B
  8
1
  6
CONTINUOUS
 62
     7
 10
-349.1193797929517
 20
194.885299461885
 30
0.0
  0
VERTEX
  5
62C
  8
1
  6
CONTINUOUS
 62
     7
 10
-349.1294206905449
 20
195.2266831038619
 30
0.0
  0
VERTEX
  5
62D
  8
1
  6
CONTINUOUS
 62
     7
 10
-349.1394524087841
 20
195.5627760914703
 30
0.0
  0
VERTEX
  5
62E
  8
1
  6
CONTINUOUS
 62
     7
 10
-349.1494749723904
 20
195.8932809290585
 30
0.0
  0
VERTEX
  5
62F
  8
1
  6
CONTINUOUS
 62
     7
 10
-349.1594884060714
 20
196.2179009076771
 30
0.0
  0
VERTEX
  5
630
  8
1
  6
CONTINUOUS
 62
     7
 10
-349.1694927345347
 20
196.536339318376
 30
0.0
  0
VERTEX
  5
631
  8
1
  6
CONTINUOUS
 62
     7
 10
-349.1794879824879
 20
196.8482994522057
 30
0.0
  0
VERTEX
  5
632
  8
1
  6
CONTINUOUS
 62
     7
 10
-349.189474174639
 20
197.1534846002166
 30
0.0
  0
VERTEX
  5
633
  8
1
  6
CONTINUOUS
 62
     7
 10
-349.1994513356954
 20
197.4515980534588
 30
0.0
  0
VERTEX
  5
634
  8
1
  6
CONTINUOUS
 62
     7
 10
-349.2094194903649
 20
197.7423431029828
 30
0.0
  0
VERTEX
  5
635
  8
1
  6
CONTINUOUS
 62
     7
 10
-349.2193786633551
 20
198.0254230398387
 30
0.0
  0
VERTEX
  5
636
  8
1
  6
CONTINUOUS
 62
     7
 10
-349.2293288793738
 20
198.300541155077
 30
0.0
  0
VERTEX
  5
637
  8
1
  6
CONTINUOUS
 62
     7
 10
-349.2392701631287
 20
198.5674007397479
 30
0.0
  0
VERTEX
  5
638
  8
1
  6
CONTINUOUS
 62
     7
 10
-349.2492025391679
 20
198.8257147297095
 30
0.0
  0
VERTEX
  5
639
  8
1
  6
CONTINUOUS
 62
     7
 10
-349.2591260309189
 20
199.075263848924
 30
0.0
  0
VERTEX
  5
63A
  8
1
  6
CONTINUOUS
 62
     7
 10
-349.2690406613289
 20
199.3158578892135
 30
0.0
  0
VERTEX
  5
63B
  8
1
  6
CONTINUOUS
 62
     7
 10
-349.2789464533426
 20
199.5473067535783
 30
0.0
  0
VERTEX
  5
63C
  8
1
  6
CONTINUOUS
 62
     7
 10
-349.2888434299055
 20
199.7694203450188
 30
0.0
  0
VERTEX
  5
63D
  8
1
  6
CONTINUOUS
 62
     7
 10
-349.2987316139625
 20
199.9820085665353
 30
0.0
  0
VERTEX
  5
63E
  8
1
  6
CONTINUOUS
 62
     7
 10
-349.3086110284589
 20
200.1848813211282
 30
0.0
  0
VERTEX
  5
63F
  8
1
  6
CONTINUOUS
 62
     7
 10
-349.3184816963395
 20
200.3778485117977
 30
0.0
  0
VERTEX
  5
640
  8
1
  6
CONTINUOUS
 62
     7
 10
-349.3283436405497
 20
200.5607200415444
 30
0.0
  0
VERTEX
  5
641
  8
1
  6
CONTINUOUS
 62
     7
 10
-349.3381968840345
 20
200.7333058133683
 30
0.0
  0
VERTEX
  5
642
  8
1
  6
CONTINUOUS
 62
     7
 10
-349.348041449739
 20
200.89541573027
 30
0.0
  0
VERTEX
  5
643
  8
1
  6
CONTINUOUS
 62
     7
 10
-349.3578773606082
 20
201.0468596952497
 30
0.0
  0
VERTEX
  5
644
  8
1
  6
CONTINUOUS
 62
     7
 10
-349.3677046395771
 20
201.1874636632739
 30
0.0
  0
VERTEX
  5
645
  8
1
  6
CONTINUOUS
 62
     7
 10
-349.3775233095268
 20
201.3171372197718
 30
0.0
  0
VERTEX
  5
646
  8
1
  6
CONTINUOUS
 62
     7
 10
-349.387333393321
 20
201.4358170985665
 30
0.0
  0
VERTEX
  5
647
  8
1
  6
CONTINUOUS
 62
     7
 10
-349.3971349138233
 20
201.5434400477434
 30
0.0
  0
VERTEX
  5
648
  8
1
  6
CONTINUOUS
 62
     7
 10
-349.4069278938973
 20
201.6399428153879
 30
0.0
  0
SEQEND
  5
688
  8
1
  6
CONTINUOUS
 62
     7
  0
POLYLINE
  5
D9
  8
1
  6
CONTINUOUS
 62
     7
 66
     1
 10
0.0
 20
0.0
 30
0.0
  0
VERTEX
  5
649
  8
1
  6
CONTINUOUS
 62
     7
 10
-348.4770021634684
 20
178.4000134865965
 30
0.0
  0
VERTEX
  5
64A
  8
1
  6
CONTINUOUS
 62
     7
 10
-348.4783685146435
 20
178.3988255554163
 30
0.0
  0
VERTEX
  5
64B
  8
1
  6
CONTINUOUS
 62
     7
 10
-348.4797346849721
 20
178.3978449091422
 30
0.0
  0
VERTEX
  5
64C
  8
1
  6
CONTINUOUS
 62
     7
 10
-348.4811006745258
 20
178.3970715399478
 30
0.0
  0
VERTEX
  5
64D
  8
1
  6
CONTINUOUS
 62
     7
 10
-348.4824664833766
 20
178.3965054400066
 30
0.0
  0
VERTEX
  5
64E
  8
1
  6
CONTINUOUS
 62
     7
 10
-348.4838321115963
 20
178.3961466014921
 30
0.0
  0
VERTEX
  5
64F
  8
1
  6
CONTINUOUS
 62
     7
 10
-348.4851975592566
 20
178.395995016578
 30
0.0
  0
VERTEX
  5
650
  8
1
  6
CONTINUOUS
 62
     7
 10
-348.4865628264294
 20
178.396050677438
 30
0.0
  0
VERTEX
  5
651
  8
1
  6
CONTINUOUS
 62
     7
 10
-348.4879279131865
 20
178.3963135762453
 30
0.0
  0
VERTEX
  5
652
  8
1
  6
CONTINUOUS
 62
     7
 10
-348.4892928195996
 20
178.3967837051738
 30
0.0
  0
VERTEX
  5
653
  8
1
  6
CONTINUOUS
 62
     7
 10
-348.4906575457406
 20
178.397461056397
 30
0.0
  0
VERTEX
  5
654
  8
1
  6
CONTINUOUS
 62
     7
 10
-348.4920220916813
 20
178.3983456220886
 30
0.0
  0
VERTEX
  5
655
  8
1
  6
CONTINUOUS
 62
     7
 10
-348.4933864574936
 20
178.3994373944219
 30
0.0
  0
VERTEX
  5
656
  8
1
  6
CONTINUOUS
 62
     7
 10
-348.4947506432491
 20
178.4007363655706
 30
0.0
  0
VERTEX
  5
657
  8
1
  6
CONTINUOUS
 62
     7
 10
-348.4961146490198
 20
178.4022425277083
 30
0.0
  0
VERTEX
  5
658
  8
1
  6
CONTINUOUS
 62
     7
 10
-348.4974784748775
 20
178.4039558730087
 30
0.0
  0
VERTEX
  5
659
  8
1
  6
CONTINUOUS
 62
     7
 10
-348.4988421208939
 20
178.4058763936452
 30
0.0
  0
VERTEX
  5
65A
  8
1
  6
CONTINUOUS
 62
     7
 10
-348.5002055871408
 20
178.4080040817915
 30
0.0
  0
VERTEX
  5
65B
  8
1
  6
CONTINUOUS
 62
     7
 10
-348.5015688736901
 20
178.410338929621
 30
0.0
  0
VERTEX
  5
65C
  8
1
  6
CONTINUOUS
 62
     7
 10
-348.5029319806135
 20
178.4128809293075
 30
0.0
  0
VERTEX
  5
65D
  8
1
  6
CONTINUOUS
 62
     7
 10
-348.504294907983
 20
178.4156300730244
 30
0.0
  0
VERTEX
  5
65E
  8
1
  6
CONTINUOUS
 62
     7
 10
-348.5056576558703
 20
178.4185863529454
 30
0.0
  0
VERTEX
  5
65F
  8
1
  6
CONTINUOUS
 62
     7
 10
-348.5070202243471
 20
178.4217497612441
 30
0.0
  0
VERTEX
  5
660
  8
1
  6
CONTINUOUS
 62
     7
 10
-348.5083826134854
 20
178.425120290094
 30
0.0
  0
VERTEX
  5
661
  8
1
  6
CONTINUOUS
 62
     7
 10
-348.5097448233569
 20
178.4286979316686
 30
0.0
  0
SEQEND
  5
689
  8
1
  6
CONTINUOUS
 62
     7
  0
LINE
  5
DA
  8
1
  6
CONTINUOUS
 62
     7
 10
-349.4069278938973
 20
201.6399428153879
 30
0.0
 11
-349.4763782197451
 21
202.0
 31
0.0
  0
ARC
  5
DB
  8
1
  6
CONTINUOUS
 62
     7
 10
4386.40758043394
 20
328.1973838150249
 30
0.0
 40
4737.280042253989
 50
181.5419092238924
 51
181.8109241195494
  0
LINE
  5
DC
  8
1
  6
CONTINUOUS
 62
     7
 10
-348.5064432448572
 20
178.4930515202327
 30
0.0
 11
-348.4770021634684
 21
178.4000134865965
 31
0.0
  0
LINE
  5
DD
  8
1
  6
CONTINUOUS
 62
     7
 10
-350.2084287010431
 20
178.4000000000046
 30
0.0
 11
-350.2196649830324
 21
178.4070392480519
 31
0.0
  0
LINE
  5
DE
  8
1
  6
CONTINUOUS
 62
     7
 10
-352.2084292316961
 20
178.4000000000034
 30
0.0
 11
-352.2421368924843
 21
178.4633003112122
 31
0.0
  0
LINE
  5
DF
  8
1
  6
CONTINUOUS
 62
     7
 10
-354.2084289867757
 20
178.4
 30
0.0
 11
-354.2646088025967
 21
178.5755420478259
 31
0.0
  0
LINE
  5
E0
  8
1
  6
CONTINUOUS
 62
     7
 10
-356.2084287418718
 20
178.4000000000034
 30
0.0
 11
-356.287080712709
 21
178.7432052743797
 31
0.0
  0
LINE
  5
E1
  8
1
  6
CONTINUOUS
 62
     7
 10
-356.3763785868312
 20
200.9999999999941
 30
0.0
 11
-356.3314343995186
 21
200.8875479663046
 31
0.0
  0
LINE
  5
E2
  8
1
  6
CONTINUOUS
 62
     7
 10
-354.3763779337265
 20
200.9999999999941
 30
0.0
 11
-354.3089624894063
 21
200.7475082486962
 31
0.0
  0
LINE
  5
E3
  8
1
  6
CONTINUOUS
 62
     7
 10
-352.3763784235608
 20
200.9999999999985
 30
0.0
 11
-352.2864905792942
 21
200.5524304007006
 31
0.0
  0
LINE
  5
E4
  8
1
  6
CONTINUOUS
 62
     9
 10
-372.5693246604232
 20
178.7
 30
0.0
 11
-357.7924036235296
 21
178.7
 31
0.0
  0
ARC
  5
E5
  8
1
  6
CONTINUOUS
 62
     7
 10
-364.6550024616678
 20
182.95
 30
0.0
 40
8.98326198358439
 50
151.7641510756417
 51
208.2358489243734
  0
LINE
  5
E6
  8
1
  6
CONTINUOUS
 62
     9
 10
-357.7924036235296
 20
187.1999999999999
 30
0.0
 11
-372.5693246604243
 21
187.1999999999979
 31
0.0
  0
ARC
  5
E7
  8
1
  6
CONTINUOUS
 62
     7
 10
-377.275194133286
 20
189.7
 30
0.0
 40
5.328715370107812
 50
332.0204606381571
 51
27.97953936181602
  0
POLYLINE
  5
E8
  8
1
  6
CONTINUOUS
 62
     7
 66
     1
 10
0.0
 20
0.0
 30
0.0
  0
VERTEX
  5
662
  8
1
  6
CONTINUOUS
 62
     7
 10
-372.569324660423
 20
176.2
 30
0.0
  0
VERTEX
  5
663
  8
1
  6
CONTINUOUS
 62
     7
 10
-372.3912696406458
 20
176.2177241347926
 30
0.0
  0
VERTEX
  5
664
  8
1
  6
CONTINUOUS
 62
     7
 10
-372.2540377890285
 20
176.2640107932858
 30
0.0
  0
VERTEX
  5
665
  8
1
  6
CONTINUOUS
 62
     7
 10
-372.152426730871
 20
176.3286993643881
 30
0.0
  0
VERTEX
  5
666
  8
1
  6
CONTINUOUS
 62
     7
 10
-372.0702494943496
 20
176.4155148519397
 30
0.0
  0
VERTEX
  5
667
  8
1
  6
CONTINUOUS
 62
     7
 10
-372.0082662301075
 20
176.5244610503153
 30
0.0
  0
VERTEX
  5
668
  8
1
  6
CONTINUOUS
 62
     7
 10
-371.9666206937895
 20
176.6585242087611
 30
0.0
  0
VERTEX
  5
669
  8
1
  6
CONTINUOUS
 62
     7
 10
-371.9475224735752
 20
176.8183923206587
 30
0.0
  0
VERTEX
  5
66A
  8
1
  6
CONTINUOUS
 62
     7
 10
-371.9514660761583
 20
176.9888052687487
 30
0.0
  0
SEQEND
  5
68A
  8
1
  6
CONTINUOUS
 62
     7
  0
ARC
  5
E9
  8
1
  6
CONTINUOUS
 62
     7
 10
-376.9031912877219
 20
176.1680350875243
 30
0.0
 40
5.019287425643338
 50
9.411457665771827
 51
30.29465553475429
  0
ARC
  5
EA
  8
1
  6
CONTINUOUS
 62
     7
 10
-376.7261841097518
 20
203.1519447400505
 30
0.0
 40
4.826128209002979
 50
329.4655540178325
 51
351.9575431987356
  0
POLYLINE
  5
EB
  8
1
  6
CONTINUOUS
 62
     7
 66
     1
 10
0.0
 20
0.0
 30
0.0
  0
VERTEX
  5
66B
  8
1
  6
CONTINUOUS
 62
     7
 10
-371.9475224735754
 20
202.4767362858157
 30
0.0
  0
VERTEX
  5
66C
  8
1
  6
CONTINUOUS
 62
     7
 10
-371.9514660761584
 20
202.6399853259931
 30
0.0
  0
VERTEX
  5
66D
  8
1
  6
CONTINUOUS
 62
     7
 10
-371.9741654426911
 20
202.774140904971
 30
0.0
  0
VERTEX
  5
66E
  8
1
  6
CONTINUOUS
 62
     7
 10
-372.0154504513793
 20
202.8915905865773
 30
0.0
  0
VERTEX
  5
66F
  8
1
  6
CONTINUOUS
 62
     7
 10
-372.0752159743137
 20
202.9911039903907
 30
0.0
  0
VERTEX
  5
670
  8
1
  6
CONTINUOUS
 62
     7
 10
-372.1544161066778
 20
203.0729324872683
 30
0.0
  0
VERTEX
  5
671
  8
1
  6
CONTINUOUS
 62
     7
 10
-372.2527801365658
 20
203.1353826265596
 30
0.0
  0
VERTEX
  5
672
  8
1
  6
CONTINUOUS
 62
     7
 10
-372.3889008715344
 20
203.1817618924111
 30
0.0
  0
VERTEX
  5
673
  8
1
  6
CONTINUOUS
 62
     7
 10
-372.5693246604231
 20
203.2
 30
0.0
  0
SEQEND
  5
68B
  8
1
  6
CONTINUOUS
 62
     7
  0
ARC
  5
EC
  8
1
  6
CONTINUOUS
 62
     7
 10
-364.6534664375715
 20
196.45
 30
0.0
 40
8.984615261895621
 50
151.7687852891651
 51
208.2312147108348
  0
LINE
  5
ED
  8
1
  6
CONTINUOUS
 62
     9
 10
-372.5693246604231
 20
192.2
 30
0.0
 11
-357.7924036235296
 21
192.2
 31
0.0
  0
LINE
  5
EE
  8
1
  6
CONTINUOUS
 62
     9
 10
-357.7924036235296
 20
200.7
 30
0.0
 11
-372.5693246604231
 21
200.7
 31
0.0
  0
ARC
  5
EF
  8
1
  6
CONTINUOUS
 62
     7
 10
-333.9424036235296
 20
175.25
 30
0.0
 40
1.250000000000029
 50
180.0000000000001
 51
269.9999999999994
  0
ARC
  5
F0
  8
1
  6
CONTINUOUS
 62
     7
 10
-317.4424036235296
 20
204.15
 30
0.0
 40
1.250000000000029
 50
0.0
 51
90.0
  0
ARC
  5
F1
  8
1
  6
CONTINUOUS
 62
     7
 10
-317.4424036235296
 20
175.25
 30
0.0
 40
1.249999999999973
 50
270.0
 51
0.0
  0
LINE
  5
F2
  8
1
  6
CONTINUOUS
 62
     7
 10
-333.9424036235296
 20
173.9999999999999
 30
0.0
 11
-317.4424036235296
 21
173.9999999999999
 31
0.0
  0
ARC
  5
F3
  8
1
  6
CONTINUOUS
 62
     7
 10
-333.9424036235296
 20
204.15
 30
0.0
 40
1.250000000000001
 50
90.00000000000064
 51
179.9999999999999
  0
LINE
  5
F4
  8
1
  6
CONTINUOUS
 62
     7
 10
-317.4424036235296
 20
205.4000000000001
 30
0.0
 11
-333.9424036235296
 21
205.4000000000001
 31
0.0
  0
LINE
  5
F5
  8
1
  6
CONTINUOUS
 62
     7
 10
-346.658482390733
 20
175.6
 30
0.0
 11
-335.1924036235296
 21
175.6
 31
0.0
  0
LINE
  5
F6
  8
1
  6
CONTINUOUS
 62
     7
 10
-335.1924036235296
 20
203.8
 30
0.0
 11
-346.658482390733
 21
203.8
 31
0.0
  0
ARC
  5
F7
  8
1
  6
CONTINUOUS
 62
     7
 10
-346.658482390733
 20
203.3
 30
0.0
 40
0.5000000000000004
 50
90.0
 51
164.9999999999999
  0
ARC
  5
F8
  8
1
  6
CONTINUOUS
 62
     7
 10
-346.658482390733
 20
176.1
 30
0.0
 40
0.4999999999999986
 50
195.0000000000001
 51
269.9999999999999
  0
LINE
  5
F9
  8
1
  6
CONTINUOUS
 62
     7
 10
-347.1414453038775
 20
203.4294095225513
 30
0.0
 11
-347.7924036235296
 21
201.0
 31
0.0
  0
LINE
  5
FA
  8
1
  6
CONTINUOUS
 62
     7
 10
-347.7924036235296
 20
178.4
 30
0.0
 11
-347.1414453038775
 21
175.9705904774488
 31
0.0
  0
LINE
  5
FB
  8
1
  6
CONTINUOUS
 62
     7
 10
-357.4097996179851
 20
178.4626661580444
 30
0.0
 11
-357.1391092790211
 21
177.4575806162545
 31
0.0
  0
LINE
  5
FC
  8
1
  6
CONTINUOUS
 62
     7
 10
-355.409804379816
 20
178.4624474545758
 30
0.0
 11
-355.1392085744863
 21
177.4577139503187
 31
0.0
  0
LINE
  5
FD
  8
1
  6
CONTINUOUS
 62
     7
 10
-353.4104804466323
 20
178.4647883514674
 30
0.0
 11
-353.1399348166868
 21
177.4602042692741
 31
0.0
  0
LINE
  5
FE
  8
1
  6
CONTINUOUS
 62
     7
 10
-351.4088654865967
 20
178.4589733548043
 30
0.0
 11
-351.138309429686
 21
177.4543048458476
 31
0.0
  0
LINE
  5
FF
  8
1
  6
CONTINUOUS
 62
     7
 10
-350.1605970218436
 20
201.8346793507573
 30
0.0
 11
-350.3866563785595
 21
200.9999689650428
 31
0.0
  0
LINE
  5
100
  8
1
  6
CONTINUOUS
 62
     7
 10
-352.1389938345255
 20
201.9433053245121
 30
0.0
 11
-352.3930232434266
 21
200.9999875272215
 31
0.0
  0
LINE
  5
101
  8
1
  6
CONTINUOUS
 62
     7
 10
-354.137971176893
 20
201.946946719319
 30
0.0
 11
-354.3929989031298
 21
200.9999889919816
 31
0.0
  0
LINE
  5
102
  8
1
  6
CONTINUOUS
 62
     7
 10
-356.1382358744702
 20
201.9457032777623
 30
0.0
 11
-356.3929292340615
 21
200.9999887438201
 31
0.0
  0
LINE
  5
103
  8
1
  6
CONTINUOUS
 62
     7
 10
-357.1084696469754
 20
177.4003619362751
 30
0.0
 11
-356.4764187992041
 21
177.4003619357815
 31
0.0
  0
LINE
  5
104
  8
1
  6
CONTINUOUS
 62
     7
 10
-355.1084290474875
 20
177.4005129457336
 30
0.0
 11
-354.4763781995717
 21
177.4005129457336
 31
0.0
  0
LINE
  5
105
  8
1
  6
CONTINUOUS
 62
     7
 10
-353.1083884478551
 20
177.4003619357815
 30
0.0
 11
-352.4763376000838
 21
177.4003619362751
 31
0.0
  0
LINE
  5
106
  8
1
  6
CONTINUOUS
 62
     7
 10
-351.1083401786681
 20
177.4000674469339
 30
0.0
 11
-350.4762893307155
 21
177.4000674473596
 31
0.0
  0
LINE
  5
107
  8
1
  6
CONTINUOUS
 62
     7
 10
-351.4762733107861
 20
201.99978854832
 30
0.0
 11
-352.1083241585326
 21
201.9997885488819
 31
0.0
  0
LINE
  5
108
  8
1
  6
CONTINUOUS
 62
     7
 10
-353.4763680882187
 20
201.9995273857412
 30
0.0
 11
-354.1084189360982
 21
201.9995273860249
 31
0.0
  0
LINE
  5
109
  8
1
  6
CONTINUOUS
 62
     7
 10
-355.476388310961
 20
201.9995273860249
 30
0.0
 11
-356.1084391588405
 21
201.9995273857412
 31
0.0
  0
LINE
  5
10A
  8
1
  6
CONTINUOUS
 62
     7
 10
-357.4764830885265
 20
201.9997885488819
 30
0.0
 11
-357.7924036235296
 21
201.999788549135
 31
0.0
  0
LINE
  5
10B
  8
1
  6
CONTINUOUS
 62
     7
 10
-356.4448724303724
 20
177.4602042692741
 30
0.0
 11
-356.1917788826341
 21
178.4000133638704
 31
0.0
  0
LINE
  5
10C
  8
1
  6
CONTINUOUS
 62
     7
 10
-354.4455986725728
 20
177.4577139503187
 30
0.0
 11
-354.1918248629115
 21
178.4000125385389
 31
0.0
  0
LINE
  5
10D
  8
1
  6
CONTINUOUS
 62
     7
 10
-352.4456979680381
 20
177.4575806162545
 30
0.0
 11
-352.1918885429365
 21
178.4000127080191
 31
0.0
  0
LINE
  5
10E
  8
1
  6
CONTINUOUS
 62
     7
 10
-350.4466940285519
 20
177.4538793862655
 30
0.0
 11
-350.1918957554665
 21
178.4000114590134
 31
0.0
  0
LINE
  5
10F
  8
1
  6
CONTINUOUS
 62
     7
 10
-351.1743265219741
 20
200.9347419418953
 30
0.0
 11
-351.4448651507626
 21
201.9392634234676
 31
0.0
  0
LINE
  5
110
  8
1
  6
CONTINUOUS
 62
     7
 10
-353.1760256064157
 20
200.9411509202572
 30
0.0
 11
-353.4465713725889
 21
201.9457032777623
 31
0.0
  0
LINE
  5
111
  8
1
  6
CONTINUOUS
 62
     7
 10
-355.1761431495851
 20
200.9418455072194
 30
0.0
 11
-355.4468360701661
 21
201.946946719319
 31
0.0
  0
LINE
  5
112
  8
1
  6
CONTINUOUS
 62
     7
 10
-357.1751164687741
 20
200.9381212678055
 30
0.0
 11
-357.4458134125336
 21
201.9433053245121
 31
0.0
  0
LINE
  5
113
  8
1
  6
CONTINUOUS
 62
     7
 10
-349.2108449158446
 20
178.7589796419097
 30
0.0
 11
-349.188642338516
 21
178.6780426407016
 31
0.0
  0
LINE
  5
114
  8
1
  6
CONTINUOUS
 62
     7
 10
-349.1417955887821
 20
178.4285811222967
 30
0.0
 11
-348.5097262249215
 21
178.4286476878556
 31
0.0
  0
LINE
  5
115
  8
1
  6
CONTINUOUS
 62
     7
 10
-349.1570829114016
 20
200.7257287805415
 30
0.0
 11
-349.4069327259153
 21
201.639987695786
 31
0.0
  0
LINE
  5
116
  8
1
  6
CONTINUOUS
 62
     7
 10
-350.2084287010431
 20
178.4
 30
0.0
 11
-349.1255000950278
 21
178.4
 31
0.0
  0
LINE
  5
117
  8
1
  6
CONTINUOUS
 62
     7
 10
-352.2084292316961
 20
178.4
 30
0.0
 11
-351.3929807936356
 21
178.4
 31
0.0
  0
LINE
  5
118
  8
1
  6
CONTINUOUS
 62
     7
 10
-354.2084289867757
 20
178.4
 30
0.0
 11
-353.393028364425
 21
178.4
 31
0.0
  0
LINE
  5
119
  8
1
  6
CONTINUOUS
 62
     7
 10
-356.2084287418718
 20
178.4
 30
0.0
 11
-355.3929823841477
 21
178.4
 31
0.0
  0
LINE
  5
11A
  8
1
  6
CONTINUOUS
 62
     7
 10
-357.7924036235296
 20
178.4
 30
0.0
 11
-357.3929187041227
 21
178.4
 31
0.0
  0
LINE
  5
11B
  8
1
  6
CONTINUOUS
 62
     7
 10
-356.3763785868312
 20
201.0
 30
0.0
 11
-357.1917840036326
 21
201.0
 31
0.0
  0
LINE
  5
11C
  8
1
  6
CONTINUOUS
 62
     7
 10
-354.3763779337265
 20
201.0
 30
0.0
 11
-355.1918083439294
 21
201.0
 31
0.0
  0
LINE
  5
11D
  8
1
  6
CONTINUOUS
 62
     7
 10
-352.3763784235608
 20
201.0
 30
0.0
 11
-353.1918780129978
 21
201.0
 31
0.0
  0
LINE
  5
11E
  8
1
  6
CONTINUOUS
 62
     7
 10
-350.3763782197452
 20
201.0
 30
0.0
 11
-351.1919058253938
 21
201.0
 31
0.0
  0
LINE
  5
11F
  8
1
  6
CONTINUOUS
 62
     7
 10
-347.7924036235296
 20
201.0
 30
0.0
 11
-349.208429027314
 21
201.0
 31
0.0
  0
ARC
  5
120
  8
1
  6
CONTINUOUS
 62
     7
 10
-360.536446032224
 20
188.0890194537294
 30
0.0
 40
19.99999999999999
 50
130.921921106997
 51
149.2358233646284
  0
ARC
  5
121
  8
1
  6
CONTINUOUS
 62
     7
 10
-360.536446032224
 20
191.3109805462706
 30
0.0
 40
19.99999999999999
 50
210.7641766353716
 51
229.0734343634167
  0
ARC
  5
122
  8
1
  6
CONTINUOUS
 62
     7
 10
-377.2924036235296
 20
181.3366191532606
 30
0.0
 40
0.5000000000000004
 50
180.0
 51
210.7641766353712
  0
ARC
  5
123
  8
1
  6
CONTINUOUS
 62
     7
 10
-377.2924036235296
 20
198.0633808467394
 30
0.0
 40
0.4999999999999796
 50
149.2358233646288
 51
180.0
  0
ENDBLK
  8
0
  0
BLOCK
  8
0
  2
D_FRAME_VIEW_2741
 70
     0
 10
0.0
 20
0.0
 30
0.0
  0
LINE
  5
128
  8
1
  6
CONTINUOUS
 62
     7
 10
-421.549245871223
 20
187.75
 30
0.0
 11
-421.549245871223
 21
191.65
 31
0.0
  0
LINE
  5
129
  8
1
  6
CONTINUOUS
 62
     7
 10
-420.749245871223
 20
191.65
 30
0.0
 11
-420.749245871223
 21
187.75
 31
0.0
  0
LINE
  5
12A
  8
1
  6
CONTINUOUS
 62
     7
 10
-413.149245871223
 20
187.75
 30
0.0
 11
-413.149245871223
 21
191.65
 31
0.0
  0
LINE
  5
12B
  8
1
  6
CONTINUOUS
 62
     7
 10
-412.349245871223
 20
191.65
 30
0.0
 11
-412.349245871223
 21
187.75
 31
0.0
  0
ARC
  5
12C
  8
1
  6
CONTINUOUS
 62
     7
 10
-416.949245871223
 20
187.75
 30
0.0
 40
4.6
 50
180.0
 51
0.0
  0
ARC
  5
12D
  8
1
  6
CONTINUOUS
 62
     7
 10
-416.949245871223
 20
187.75
 30
0.0
 40
3.8
 50
180.0
 51
0.0
  0
ARC
  5
12E
  8
1
  6
CONTINUOUS
 62
     7
 10
-416.949245871223
 20
191.65
 30
0.0
 40
4.6
 50
0.0
 51
180.0
  0
ARC
  5
12F
  8
1
  6
CONTINUOUS
 62
     7
 10
-416.949245871223
 20
191.65
 30
0.0
 40
3.8
 50
0.0
 51
180.0
  0
CIRCLE
  5
130
  8
1
  6
CONTINUOUS
 62
     7
 10
-416.949245871223
 20
189.7
 30
0.0
 40
6.6
  0
ARC
  5
131
  8
1
  6
CONTINUOUS
 62
     7
 10
-416.949245871223
 20
189.7
 30
0.0
 40
15.70000000000005
 50
190.6719292857622
 51
353.6002285478107
  0
ARC
  5
132
  8
1
  6
CONTINUOUS
 62
     7
 10
-401.029446877517
 20
192.7
 30
0.0
 40
0.4999999999999984
 50
190.6719292857621
 51
270.0
  0
ARC
  5
133
  8
1
  6
CONTINUOUS
 62
     7
 10
-401.321118729962
 20
194.6198568420176
 30
0.0
 40
2.432041816376251
 50
232.1295922327561
 51
264.2621933110026
  0
ARC
  5
134
  8
1
  6
CONTINUOUS
 62
     7
 10
-432.8690448649289
 20
186.7
 30
0.0
 40
0.5000000000000017
 50
10.67192928576208
 51
89.99999999999996
  0
ARC
  5
135
  8
1
  6
CONTINUOUS
 62
     7
 10
-432.577373012484
 20
184.7801431579823
 30
0.0
 40
2.432041816376305
 50
52.12959223275642
 51
84.2621933110023
  0
LINE
  5
136
  8
1
  6
CONTINUOUS
 62
     7
 10
-433.9665899648235
 20
187.2
 30
0.0
 11
-432.3342264296513
 21
187.2
 31
0.0
  0
LINE
  5
137
  8
1
  6
CONTINUOUS
 62
     7
 10
-399.9319017776225
 20
192.2
 30
0.0
 11
-401.5642653127946
 21
192.2
 31
0.0
  0
ARC
  5
138
  8
1
  6
CONTINUOUS
 62
     7
 10
-416.949245871223
 20
189.7
 30
0.0
 40
14.30000000000004
 50
190.7982599677368
 51
229.2017400322634
  0
ARC
  5
139
  8
1
  6
CONTINUOUS
 62
     7
 10
-416.949245871223
 20
189.7
 30
0.0
 40
14.30000000000004
 50
130.7982599677372
 51
169.2017400322631
  0
ARC
  5
13A
  8
1
  6
CONTINUOUS
 62
     7
 10
-416.949245871223
 20
189.7
 30
0.0
 40
14.30000000000003
 50
70.79825996773701
 51
109.2017400322634
  0
ARC
  5
13B
  8
1
  6
CONTINUOUS
 62
     7
 10
-416.949245871223
 20
189.7
 30
0.0
 40
14.30000000000003
 50
10.79825996773673
 51
49.20174003226367
  0
ARC
  5
13C
  8
1
  6
CONTINUOUS
 62
     7
 10
-416.949245871223
 20
189.7
 30
0.0
 40
14.30000000000003
 50
310.7982599677362
 51
349.2017400322637
  0
LINE
  5
13D
  8
1
  6
CONTINUOUS
 62
     7
 10
-412.699245871223
 20
176.0461543878656
 30
0.0
 11
-412.699245871223
 21
176.2
 31
0.0
  0
LINE
  5
13E
  8
1
  6
CONTINUOUS
 62
     7
 10
-421.199245871223
 20
176.2
 30
0.0
 11
-421.199245871223
 21
176.0461543878657
 31
0.0
  0
LINE
  5
13F
  8
1
  6
CONTINUOUS
 62
     7
 10
-412.699245871223
 20
203.3538456121343
 30
0.0
 11
-412.699245871223
 21
203.2
 31
0.0
  0
LINE
  5
140
  8
1
  6
CONTINUOUS
 62
     7
 10
-421.199245871223
 20
203.2
 30
0.0
 11
-421.199245871223
 21
203.3538456121343
 31
0.0
  0
LINE
  5
141
  8
1
  6
CONTINUOUS
 62
     7
 10
-405.7431619196093
 20
180.8166626502544
 30
0.0
 11
-405.7488871336803
 21
180.8208222617589
 31
0.0
  0
LINE
  5
142
  8
1
  6
CONTINUOUS
 62
     7
 10
-428.1553298228367
 20
198.5833373497456
 30
0.0
 11
-428.1496046087657
 21
198.5791777382411
 31
0.0
  0
LINE
  5
143
  8
1
  6
CONTINUOUS
 62
     7
 10
-405.0396451155102
 20
197.6111906540903
 30
0.0
 11
-405.0378196168538
 21
197.612516956499
 31
0.0
  0
LINE
  5
144
  8
1
  6
CONTINUOUS
 62
     7
 10
-428.8588466269358
 20
181.7888093459097
 30
0.0
 11
-428.8606721255923
 21
181.787483043501
 31
0.0
  0
ARC
  5
145
  8
1
  6
CONTINUOUS
 62
     7
 10
-416.949245871223
 20
189.7
 30
0.0
 40
14.1
 50
313.2892916116689
 51
346.7107083883313
  0
ARC
  5
146
  8
1
  6
CONTINUOUS
 62
     7
 10
-416.949245871223
 20
189.7
 30
0.0
 40
14.1
 50
253.2892916116694
 51
286.7107083883309
  0
ARC
  5
147
  8
1
  6
CONTINUOUS
 62
     7
 10
-416.949245871223
 20
189.7
 30
0.0
 40
14.1
 50
193.2892916116695
 51
226.7107083883298
  0
ARC
  5
148
  8
1
  6
CONTINUOUS
 62
     7
 10
-416.949245871223
 20
189.7
 30
0.0
 40
14.1
 50
133.2892916116697
 51
166.7107083883308
  0
ARC
  5
149
  8
1
  6
CONTINUOUS
 62
     7
 10
-416.949245871223
 20
189.7
 30
0.0
 40
14.1
 50
73.28929161166889
 51
106.7107083883312
  0
ARC
  5
14A
  8
1
  6
CONTINUOUS
 62
     7
 10
-416.949245871223
 20
189.7
 30
0.0
 40
14.1
 50
13.28929161166866
 51
46.71070838833123
  0
ARC
  5
14B
  8
1
  6
CONTINUOUS
 62
     7
 10
-400.1115649145116
 20
191.15
 30
0.0
 40
0.2999999999999999
 50
4.921961504646902
 51
90.0
  0
ARC
  5
14C
  8
1
  6
CONTINUOUS
 62
     7
 10
-433.7869268279343
 20
188.25
 30
0.0
 40
0.2999999999999999
 50
184.921961504647
 51
270.0
  0
CIRCLE
  5
14D
  8
1
  6
CONTINUOUS
 62
     7
 10
-416.949245871223
 20
189.7
 30
0.0
 40
7.5
  0
CIRCLE
  5
14E
  8
1
  6
CONTINUOUS
 62
     9
 10
-416.949245871223
 20
189.7
 30
0.0
 40
8.619133702970432
  0
ARC
  5
14F
  8
1
  6
CONTINUOUS
 62
     7
 10
-407.1351297345801
 20
189.7
 30
0.0
 40
5.000726127548403
 50
330.004803207364
 51
29.99519679260663
  0
LINE
  5
150
  8
1
  6
CONTINUOUS
 62
     7
 10
-407.7116415641891
 20
178.7
 30
0.0
 11
-402.8041642760784
 21
187.1999999999979
 31
0.0
  0
ARC
  5
151
  8
1
  6
CONTINUOUS
 62
     7
 10
-412.0421878029015
 20
181.2007261099762
 30
0.0
 40
5.000726127548178
 50
270.0048032073939
 51
329.9951967926095
  0
LINE
  5
152
  8
1
  6
CONTINUOUS
 62
     7
 10
-421.8567231593349
 20
176.2
 30
0.0
 11
-412.041768583111
 21
176.2
 31
0.0
  0
ARC
  5
153
  8
1
  6
CONTINUOUS
 62
     7
 10
-421.8563039395446
 20
181.2007261099763
 30
0.0
 40
5.000726127548245
 50
210.0048032073912
 51
269.9951967926077
  0
LINE
  5
154
  8
1
  6
CONTINUOUS
 62
     7
 10
-431.0943274663689
 20
187.2
 30
0.0
 11
-426.1868501782571
 21
178.7
 31
0.0
  0
ARC
  5
155
  8
1
  6
CONTINUOUS
 62
     7
 10
-426.7633620078659
 20
189.7
 30
0.0
 40
5.000726127548536
 50
150.0048032073656
 51
209.9951967926068
  0
LINE
  5
156
  8
1
  6
CONTINUOUS
 62
     7
 10
-426.1868501782571
 20
200.7
 30
0.0
 11
-431.0943274663676
 21
192.2000000000021
 31
0.0
  0
ARC
  5
157
  8
1
  6
CONTINUOUS
 62
     7
 10
-421.8563039395446
 20
198.1992738900238
 30
0.0
 40
5.000726127548226
 50
90.00480320735859
 51
149.995196792609
  0
LINE
  5
158
  8
1
  6
CONTINUOUS
 62
     7
 10
-412.0417685831112
 20
203.2
 30
0.0
 11
-421.856723159332
 21
203.2
 31
0.0
  0
ARC
  5
159
  8
1
  6
CONTINUOUS
 62
     7
 10
-412.0421878029018
 20
198.1992738900232
 30
0.0
 40
5.000726127548723
 50
30.00480320739436
 51
89.99519679260527
  0
LINE
  5
15A
  8
1
  6
CONTINUOUS
 62
     7
 10
-402.8041642760772
 20
192.2
 30
0.0
 11
-407.711641564189
 21
200.7
 31
0.0
  0
ENDBLK
  8
0
  0
ENDSEC
  0
SECTION
  2
ENTITIES
  0
INSERT
  5
124
  8
1
  6
CONTINUOUS
 62
     7
  2
D_FRAME_VIEW_3133
 10
0.0
 20
0.0
 30
0.0
  0
INSERT
  5
15B
  8
1
  6
CONTINUOUS
 62
     7
  2
D_FRAME_VIEW_2741
 10
0.0
 20
0.0
 30
0.0
  0
LINE
  5
15C
  8
1
  6
CONTINUOUS
 62
     7
 10
-335.5924036235296
 20
187.95
 30
0.0
 11
-344.8425546446658
 21
187.95
 31
0.0
  0
LINE
  5
15D
  8
1
  6
CONTINUOUS
 62
     7
 10
-352.6915750947315
 20
189.1019664054463
 30
0.0
 11
-352.8039801658651
 21
193.0414041472954
 31
0.0
  0
LINE
  5
15E
  8
1
  6
CONTINUOUS
 62
     7
 10
-317.857303561165
 20
192.2
 30
0.0
 11
-335.1924036235296
 21
192.2
 31
0.0
  0
LINE
  5
15F
  8
1
  6
CONTINUOUS
 62
     7
 10
-373.6382881519447
 20
203.2
 30
0.0
 11
-357.7924036235296
 21
203.2
 31
0.0
  0
LINE
  5
160
  8
1
  6
CONTINUOUS
 62
     9
 10
-347.1414453038775
 20
175.9705904774488
 30
0.0
 11
-347.1414453038775
 21
203.4294095225513
 31
0.0
  0
LINE
  5
161
  8
1
  6
CONTINUOUS
 62
     7
 10
-405.2021175049758
 20
181.9068524464838
 30
0.0
 11
-405.0378196168538
 21
181.787483043501
 31
0.0
  0
LINE
  5
162
  8
1
  6
CONTINUOUS
 62
     7
 10
-357.7924036235296
 20
203.2
 30
0.0
 11
-357.7924036235296
 21
176.2
 31
0.0
  0
LINE
  5
163
  8
1
  6
CONTINUOUS
 62
     7
 10
-349.1093000533603
 20
178.4
 30
0.0
 11
-348.4934071760735
 21
178.4
 31
0.0
  0
LINE
  5
164
  8
1
  6
CONTINUOUS
 62
     7
 10
-377.7924036235296
 20
181.3366191532606
 30
0.0
 11
-377.7924036235296
 21
198.0633808467394
 31
0.0
  0
LINE
  5
165
  8
1
  6
CONTINUOUS
 62
     7
 10
-402.4512392431782
 20
191.45
 30
0.0
 11
-400.1115649145116
 21
191.45
 31
0.0
  0
LINE
  5
166
  8
1
  6
CONTINUOUS
 62
     7
 10
-344.8425546446659
 20
191.45
 30
0.0
 11
-335.5924036235296
 21
191.45
 31
0.0
  0
LINE
  5
167
  8
1
  6
CONTINUOUS
 62
     7
 10
-400.1115649145116
 20
187.95
 30
0.0
 11
-402.4514040957475
 21
187.95
 31
0.0
  0
LINE
  5
168
  8
1
  6
CONTINUOUS
 62
     7
 10
-403.0987999663192
 20
186.142592483938
 30
0.0
 11
-403.380056106044
 21
186.2023753219465
 31
0.0
  0
LINE
  5
169
  8
1
  6
CONTINUOUS
 62
     7
 10
-428.1553298228367
 20
180.8166626502544
 30
0.0
 11
-427.9910825712768
 21
180.9359952636207
 31
0.0
  0
LINE
  5
16A
  8
1
  6
CONTINUOUS
 62
     7
 10
-430.7996917761267
 20
186.142592483938
 30
0.0
 11
-430.6011074989639
 21
186.1848028750935
 31
0.0
  0
LINE
  5
16B
  8
1
  6
CONTINUOUS
 62
     7
 10
-430.7996917761267
 20
193.257407516062
 30
0.0
 11
-430.518435636402
 21
193.1976246780535
 31
0.0
  0
LINE
  5
16C
  8
1
  6
CONTINUOUS
 62
     7
 10
-428.6963742374703
 20
197.4931475535163
 30
0.0
 11
-428.8606721255923
 21
197.612516956499
 31
0.0
  0
LINE
  5
16D
  8
1
  6
CONTINUOUS
 62
     7
 10
-403.0987999663192
 20
193.257407516062
 30
0.0
 11
-403.2973842434822
 21
193.2151971249065
 31
0.0
  0
ARC
  5
16E
  8
1
  6
CONTINUOUS
 62
     7
 10
-400.1115649145116
 20
188.25
 30
0.0
 40
0.3000000000000001
 50
270.0
 51
355.0780384953553
  0
ARC
  5
16F
  8
1
  6
CONTINUOUS
 62
     7
 10
-416.949245871223
 20
189.7
 30
0.0
 40
17.20000000000001
 50
355.0780384953539
 51
8.35748009566629
  0
ARC
  5
170
  8
1
  6
CONTINUOUS
 62
     7
 10
-416.949245871223
 20
189.7
 30
0.0
 40
17.20000000000001
 50
175.0780384953539
 51
188.3574800956662
  0
LINE
  5
171
  8
1
  6
CONTINUOUS
 62
     7
 10
-354.6016874542821
 20
185.9812970908455
 30
0.0
 11
-354.8257019135947
 21
193.7929896194644
 31
0.0
  0
LINE
  5
172
  8
1
  6
CONTINUOUS
 62
     7
 10
-347.7924036235296
 20
178.4
 30
0.0
 11
-347.7924036235296
 21
201.0
 31
0.0
  0
LINE
  5
173
  8
1
  6
CONTINUOUS
 62
     7
 10
-431.447252499268
 20
187.95
 30
0.0
 11
-433.7869268279343
 21
187.95
 31
0.0
  0
LINE
  5
174
  8
1
  6
CONTINUOUS
 62
     7
 10
-355.9943557478333
 20
193.79296672997
 30
0.0
 11
-355.7689275719521
 21
185.9813148355517
 31
0.0
  0
LINE
  5
175
  8
1
  6
CONTINUOUS
 62
     7
 10
-357.7924036235296
 20
176.2
 30
0.0
 11
-373.6382881519502
 21
176.2
 31
0.0
  0
LINE
  5
176
  8
1
  6
CONTINUOUS
 62
     7
 10
-335.1924036235296
 20
204.15
 30
0.0
 11
-335.1924036235296
 21
175.25
 31
0.0
  0
LINE
  5
177
  8
1
  6
CONTINUOUS
 62
     7
 10
-335.1924036235296
 20
188.7
 30
0.0
 11
-317.9037773275119
 21
188.7
 31
0.0
  0
LINE
  5
178
  8
1
  6
CONTINUOUS
 62
     7
 10
-433.7869268279343
 20
191.45
 30
0.0
 11
-431.4470876466985
 21
191.45
 31
0.0
  0
LINE
  5
179
  8
1
  6
CONTINUOUS
 62
     7
 10
-335.5924036235296
 20
191.45
 30
0.0
 11
-335.5924036235296
 21
187.95
 31
0.0
  0
LINE
  5
17A
  8
1
  6
CONTINUOUS
 62
     7
 10
-405.7431619196093
 20
198.5833373497456
 30
0.0
 11
-405.9074091711692
 21
198.4640047363794
 31
0.0
  0
LINE
  5
17B
  8
1
  6
CONTINUOUS
 62
     7
 10
-348.4771948418214
 20
178.4
 30
0.0
 11
-347.7924036235296
 21
178.4
 31
0.0
  0
ARC
  5
17C
  8
1
  6
CONTINUOUS
 62
     7
 10
-433.7869268279343
 20
191.15
 30
0.0
 40
0.3
 50
90.0
 51
175.0780384953554
  0
ARC
  5
17D
  8
1
  6
CONTINUOUS
 62
     7
 10
-416.949245871223
 20
189.7
 30
0.0
 40
15.70000000000005
 50
10.67192928576219
 51
173.6002285478108
  0
ARC
  5
17E
  8
1
  6
CONTINUOUS
 62
     7
 10
-416.949245871223
 20
189.7
 30
0.0
 40
14.30000000000003
 50
250.7982599677362
 51
289.2017400322627
  0
TEXT
  5
17F
  8
1
  6
CONTINUOUS
 62
     7
 10
-395.5985119419782
 20
153.0284200325122
 30
0.0
 40
3.0
  1
GLMFS-16F2
  0
ENDSEC
  0
EOF
