  0
SECTION
  2
HEADER
  9
$ACADVER
  1
AC1006
  9
$DWGCODEPAGE
  3
ansi_932
  9
$INSBASE
 10
0.0
 20
0.0
 30
0.0
  9
$EXTMIN
 10
-331.2009069578132
 20
249.8704545454545
  9
$EXTMAX
 10
-184.9923927799163
 20
305.85
  9
$LIMMIN
 10
0.0
 20
0.0
  9
$LIMMAX
 10
12.0
 20
9.0
  9
$ORTHOMODE
 70
     0
  9
$REGENMODE
 70
     1
  9
$FILLMODE
 70
     1
  9
$QTEXTMODE
 70
     0
  9
$MIRRTEXT
 70
     1
  9
$DRAGMODE
 70
     2
  9
$LTSCALE
 40
1.0
  9
$OSMODE
 70
    37
  9
$ATTMODE
 70
     1
  9
$TEXTSIZE
 40
0.2
  9
$TRACEWID
 40
0.05
  9
$TEXTSTYLE
  7
STANDARD
  9
$CLAYER
  8
0
  9
$CELTYPE
  6
BYLAYER
  9
$CECOLOR
 62
   256
  9
$DIMSCALE
 40
1.0
  9
$DIMASZ
 40
3.0
  9
$DIMEXO
 40
0.0625
  9
$DIMDLI
 40
0.38
  9
$DIMRND
 40
0.0
  9
$DIMDLE
 40
0.0
  9
$DIMEXE
 40
1.5
  9
$DIMTP
 40
0.0
  9
$DIMTM
 40
0.0
  9
$DIMTXT
 40
3.0
  9
$DIMCEN
 40
0.09
  9
$DIMTSZ
 40
0.0
  9
$DIMTOL
 70
     0
  9
$DIMLIM
 70
     0
  9
$DIMTIH
 70
     1
  9
$DIMTOH
 70
     1
  9
$DIMSE1
 70
     0
  9
$DIMSE2
 70
     0
  9
$DIMTAD
 70
     1
  9
$DIMZIN
 70
     0
  9
$DIMBLK
  1

  9
$DIMASO
 70
     1
  9
$DIMSHO
 70
     1
  9
$DIMPOST
  1

  9
$DIMAPOST
  1

  9
$DIMALT
 70
     0
  9
$DIMALTD
 70
     2
  9
$DIMALTF
 40
25.4
  9
$DIMLFAC
 40
1.0
  9
$DIMTOFL
 70
     0
  9
$DIMTVP
 40
0.0
  9
$DIMTIX
 70
     0
  9
$DIMSOXD
 70
     0
  9
$DIMSAH
 70
     0
  9
$DIMBLK1
  1

  9
$DIMBLK2
  1

  9
$LUNITS
 70
     2
  9
$LUPREC
 70
     4
  9
$SKETCHINC
 40
0.1
  9
$FILLETRAD
 40
0.5
  9
$AUNITS
 70
     0
  9
$AUPREC
 70
     0
  9
$MENU
  1
.
  9
$ELEVATION
 40
0.0
  9
$THICKNESS
 40
0.0
  9
$LIMCHECK
 70
     0
  9
$CHAMFERA
 40
0.0
  9
$CHAMFERB
 40
0.0
  9
$SKPOLY
 70
     0
  9
$TDCREATE
 40
2459289.452257396
  9
$TDUPDATE
 40
2459289.452257581
  9
$TDINDWG
 40
0.0000000116
  9
$TDUSRTIMER
 40
0.0000000116
  9
$USRTIMER
 70
     1
  9
$ANGBASE
 50
0.0
  9
$ANGDIR
 70
     0
  9
$PDMODE
 70
     0
  9
$PDSIZE
 40
0.0
  9
$PLINEWID
 40
0.0
  9
$COORDS
 70
     1
  9
$SPLFRAME
 70
     0
  9
$SPLINETYPE
 70
     6
  9
$SPLINESEGS
 70
     8
  9
$ATTDIA
 70
     0
  9
$ATTREQ
 70
     1
  9
$HANDLING
 70
     1
  9
$HANDSEED
  5
54B
  9
$SURFTAB1
 70
     6
  9
$SURFTAB2
 70
     6
  9
$SURFTYPE
 70
     6
  9
$SURFU
 70
     6
  9
$SURFV
 70
     6
  9
$UCSNAME
  2

  9
$UCSORG
 10
0.0
 20
0.0
 30
0.0
  9
$UCSXDIR
 10
1.0
 20
0.0
 30
0.0
  9
$UCSYDIR
 10
0.0
 20
1.0
 30
0.0
  9
$USERI1
 70
     0
  9
$USERI2
 70
     0
  9
$USERI3
 70
     0
  9
$USERI4
 70
     0
  9
$USERI5
 70
     0
  9
$USERR1
 40
0.0
  9
$USERR2
 40
0.0
  9
$USERR3
 40
0.0
  9
$USERR4
 40
0.0
  9
$USERR5
 40
0.0
  9
$WORLDVIEW
 70
     1
  0
ENDSEC
  0
SECTION
  2
TABLES
  0
TABLE
  2
VPORT
 70
     1
  0
VPORT
  2
*ACTIVE
 70
     0
 10
0.0
 20
0.0
 11
1.0
 21
1.0
 12
-258.0966498688647
 22
277.8602272727273
 13
0.0
 23
0.0
 14
0.5
 24
0.5
 15
0.5
 25
0.5
 16
0.0
 26
0.0
 36
1.0
 17
0.0
 27
0.0
 37
0.0
 40
55.9795454545455
 41
1.6
 42
50.0
 43
0.0
 44
0.0
 50
0.0
 51
0.0
 71
     0
 72
   100
 73
     1
 74
     3
 75
     0
 76
     0
 77
     0
 78
     0
  0
ENDTAB
  0
TABLE
  2
LTYPE
 70
     1
  0
LTYPE
  2
CONTINUOUS
 70
     0
  3
Solid line
 72
    65
 73
     0
 40
0.0
  0
ENDTAB
  0
TABLE
  2
LAYER
 70
     2
  0
LAYER
  2
0
 70
     0
 62
     7
  6
CONTINUOUS
  0
LAYER
  2
1
 70
     0
 62
     7
  6
CONTINUOUS
  0
ENDTAB
  0
TABLE
  2
STYLE
 70
     2
  0
STYLE
  2
STANDARD
 70
     0
 40
0.0
 41
1.0
 50
0.0
 71
     0
 42
0.2
  3
txt
  4

  0
STYLE
  2
ＭＳ_ゴシック
 70
     0
 40
0.0
 41
1.0
 50
0.0
 71
     0
 42
0.2
  3
ＭＳ ゴシック.shx
  4

  0
ENDTAB
  0
TABLE
  2
VIEW
 70
     0
  0
ENDTAB
  0
TABLE
  2
UCS
 70
     0
  0
ENDTAB
  0
ENDSEC
  0
SECTION
  2
BLOCKS
  0
BLOCK
  8
0
  2
D_FRAME_VIEW_3074
 70
     0
 10
0.0
 20
0.0
 30
0.0
  0
POLYLINE
  5
71
  8
1
  6
CONTINUOUS
 62
     7
 66
     1
 10
0.0
 20
0.0
 30
0.0
  0
VERTEX
  5
163
  8
1
  6
CONTINUOUS
 62
     7
 10
-186.2423927799163
 20
289.1255583126551
 30
0.0
  0
VERTEX
  5
164
  8
1
  6
CONTINUOUS
 62
     7
 10
-186.242664395782
 20
289.1095128080397
 30
0.0
  0
VERTEX
  5
165
  8
1
  6
CONTINUOUS
 62
     7
 10
-186.2434768428872
 20
289.0935805989658
 30
0.0
  0
VERTEX
  5
166
  8
1
  6
CONTINUOUS
 62
     7
 10
-186.2448405921916
 20
289.0776589360703
 30
0.0
  0
VERTEX
  5
167
  8
1
  6
CONTINUOUS
 62
     7
 10
-186.2467425406115
 20
289.0619196958567
 30
0.0
  0
VERTEX
  5
168
  8
1
  6
CONTINUOUS
 62
     7
 10
-186.2492448057313
 20
289.0459856862288
 30
0.0
  0
VERTEX
  5
169
  8
1
  6
CONTINUOUS
 62
     7
 10
-186.2522896163832
 20
289.0303075633793
 30
0.0
  0
VERTEX
  5
16A
  8
1
  6
CONTINUOUS
 62
     7
 10
-186.2558939393398
 20
289.014785353709
 30
0.0
  0
VERTEX
  5
16B
  8
1
  6
CONTINUOUS
 62
     7
 10
-186.2600151397357
 20
288.9995775845117
 30
0.0
  0
VERTEX
  5
16C
  8
1
  6
CONTINUOUS
 62
     7
 10
-186.2644406675334
 20
288.9852952715206
 30
0.0
  0
VERTEX
  5
16D
  8
1
  6
CONTINUOUS
 62
     7
 10
-186.269309481418
 20
288.9713293444093
 30
0.0
  0
VERTEX
  5
16E
  8
1
  6
CONTINUOUS
 62
     7
 10
-186.2745979888626
 20
288.9577037981798
 30
0.0
  0
VERTEX
  5
16F
  8
1
  6
CONTINUOUS
 62
     7
 10
-186.2802825973399
 20
288.9444426278342
 30
0.0
  0
VERTEX
  5
170
  8
1
  6
CONTINUOUS
 62
     7
 10
-186.2886619561928
 20
288.9269147499842
 30
0.0
  0
VERTEX
  5
171
  8
1
  6
CONTINUOUS
 62
     7
 10
-186.2977069078939
 20
288.9100697060558
 30
0.0
  0
VERTEX
  5
172
  8
1
  6
CONTINUOUS
 62
     7
 10
-186.3073583164241
 20
288.8939379345028
 30
0.0
  0
VERTEX
  5
173
  8
1
  6
CONTINUOUS
 62
     7
 10
-186.3179770878481
 20
288.8779409822015
 30
0.0
  0
VERTEX
  5
174
  8
1
  6
CONTINUOUS
 62
     7
 10
-186.3291559187102
 20
288.8627086302803
 30
0.0
  0
VERTEX
  5
175
  8
1
  6
CONTINUOUS
 62
     7
 10
-186.3409412723005
 20
288.8481284530983
 30
0.0
  0
VERTEX
  5
176
  8
1
  6
CONTINUOUS
 62
     7
 10
-186.3532044002669
 20
288.8343138089703
 30
0.0
  0
VERTEX
  5
177
  8
1
  6
CONTINUOUS
 62
     7
 10
-186.3661763475712
 20
288.8209885400559
 30
0.0
  0
VERTEX
  5
178
  8
1
  6
CONTINUOUS
 62
     7
 10
-186.3795638875277
 20
288.8084391887818
 30
0.0
  0
VERTEX
  5
179
  8
1
  6
CONTINUOUS
 62
     7
 10
-186.3934111000513
 20
288.796586444852
 30
0.0
  0
VERTEX
  5
17A
  8
1
  6
CONTINUOUS
 62
     7
 10
-186.4076073485535
 20
288.7854906992659
 30
0.0
  0
VERTEX
  5
17B
  8
1
  6
CONTINUOUS
 62
     7
 10
-186.4272913324531
 20
288.7716727398393
 30
0.0
  0
VERTEX
  5
17C
  8
1
  6
CONTINUOUS
 62
     7
 10
-186.4474862800119
 20
288.7591739386126
 30
0.0
  0
VERTEX
  5
17D
  8
1
  6
CONTINUOUS
 62
     7
 10
-186.4682887156121
 20
288.7478786434902
 30
0.0
  0
VERTEX
  5
17E
  8
1
  6
CONTINUOUS
 62
     7
 10
-186.4894903893878
 20
288.7378525970926
 30
0.0
  0
VERTEX
  5
17F
  8
1
  6
CONTINUOUS
 62
     7
 10
-186.5114947480729
 20
288.7288928551708
 30
0.0
  0
VERTEX
  5
180
  8
1
  6
CONTINUOUS
 62
     7
 10
-186.5338141990502
 20
288.7211911087337
 30
0.0
  0
VERTEX
  5
181
  8
1
  6
CONTINUOUS
 62
     7
 10
-186.5565393510342
 20
288.7146840696266
 30
0.0
  0
VERTEX
  5
182
  8
1
  6
CONTINUOUS
 62
     7
 10
-186.5794988397449
 20
288.7093949682152
 30
0.0
  0
VERTEX
  5
183
  8
1
  6
CONTINUOUS
 62
     7
 10
-186.6028577396582
 20
288.7052702976296
 30
0.0
  0
VERTEX
  5
184
  8
1
  6
CONTINUOUS
 62
     7
 10
-186.6263824101409
 20
288.702340814643
 30
0.0
  0
VERTEX
  5
185
  8
1
  6
CONTINUOUS
 62
     7
 10
-186.650158954595
 20
288.7005830924016
 30
0.0
  0
VERTEX
  5
186
  8
1
  6
CONTINUOUS
 62
     7
 10
-186.6740386288004
 20
288.7
 30
0.0
  0
SEQEND
  5
53C
  8
1
  6
CONTINUOUS
 62
     7
  0
LINE
  5
72
  8
1
  6
CONTINUOUS
 62
     7
 10
-186.2423927799163
 20
289.1255583126551
 30
0.0
 11
-186.2423927799163
 21
284.7372208436724
 31
0.0
  0
POLYLINE
  5
73
  8
1
  6
CONTINUOUS
 62
     7
 66
     1
 10
0.0
 20
0.0
 30
0.0
  0
VERTEX
  5
187
  8
1
  6
CONTINUOUS
 62
     7
 10
-186.7113515004863
 20
285.2
 30
0.0
  0
VERTEX
  5
188
  8
1
  6
CONTINUOUS
 62
     7
 10
-186.6834919316759
 20
285.1992191419455
 30
0.0
  0
VERTEX
  5
189
  8
1
  6
CONTINUOUS
 62
     7
 10
-186.6557159220921
 20
285.1968697412211
 30
0.0
  0
VERTEX
  5
18A
  8
1
  6
CONTINUOUS
 62
     7
 10
-186.6278890287869
 20
285.1929068134563
 30
0.0
  0
VERTEX
  5
18B
  8
1
  6
CONTINUOUS
 62
     7
 10
-186.6002433399927
 20
285.1873209998374
 30
0.0
  0
VERTEX
  5
18C
  8
1
  6
CONTINUOUS
 62
     7
 10
-186.5722319810222
 20
285.1799095582048
 30
0.0
  0
VERTEX
  5
18D
  8
1
  6
CONTINUOUS
 62
     7
 10
-186.5445273446053
 20
285.1707444472609
 30
0.0
  0
VERTEX
  5
18E
  8
1
  6
CONTINUOUS
 62
     7
 10
-186.5169701845753
 20
285.1596876148905
 30
0.0
  0
VERTEX
  5
18F
  8
1
  6
CONTINUOUS
 62
     7
 10
-186.4898726504844
 20
285.1467626274945
 30
0.0
  0
VERTEX
  5
190
  8
1
  6
CONTINUOUS
 62
     7
 10
-186.4667278785794
 20
285.1339509304802
 30
0.0
  0
VERTEX
  5
191
  8
1
  6
CONTINUOUS
 62
     7
 10
-186.4440527971855
 20
285.1196395719949
 30
0.0
  0
VERTEX
  5
192
  8
1
  6
CONTINUOUS
 62
     7
 10
-186.4219466640524
 20
285.1038040106652
 30
0.0
  0
VERTEX
  5
193
  8
1
  6
CONTINUOUS
 62
     7
 10
-186.4054185934605
 20
285.0905919847708
 30
0.0
  0
VERTEX
  5
194
  8
1
  6
CONTINUOUS
 62
     7
 10
-186.3892960852127
 20
285.0764223842803
 30
0.0
  0
VERTEX
  5
195
  8
1
  6
CONTINUOUS
 62
     7
 10
-186.3736431299657
 20
285.061290170529
 30
0.0
  0
VERTEX
  5
196
  8
1
  6
CONTINUOUS
 62
     7
 10
-186.3585237183762
 20
285.0451903048524
 30
0.0
  0
VERTEX
  5
197
  8
1
  6
CONTINUOUS
 62
     7
 10
-186.3478523048213
 20
285.0328144232885
 30
0.0
  0
VERTEX
  5
198
  8
1
  6
CONTINUOUS
 62
     7
 10
-186.3375126424917
 20
285.019903294805
 30
0.0
  0
VERTEX
  5
199
  8
1
  6
CONTINUOUS
 62
     7
 10
-186.327480049369
 20
285.0063815959158
 30
0.0
  0
VERTEX
  5
19A
  8
1
  6
CONTINUOUS
 62
     7
 10
-186.3178375491148
 20
284.9923132055051
 30
0.0
  0
VERTEX
  5
19B
  8
1
  6
CONTINUOUS
 62
     7
 10
-186.3084500354254
 20
284.9774237817444
 30
0.0
  0
VERTEX
  5
19C
  8
1
  6
CONTINUOUS
 62
     7
 10
-186.2995321160282
 20
284.9619698588679
 30
0.0
  0
VERTEX
  5
19D
  8
1
  6
CONTINUOUS
 62
     7
 10
-186.2910588219718
 20
284.9458353229095
 30
0.0
  0
VERTEX
  5
19E
  8
1
  6
CONTINUOUS
 62
     7
 10
-186.2831357928105
 20
284.9291437754259
 30
0.0
  0
VERTEX
  5
19F
  8
1
  6
CONTINUOUS
 62
     7
 10
-186.2773827632286
 20
284.9157941608657
 30
0.0
  0
VERTEX
  5
1A0
  8
1
  6
CONTINUOUS
 62
     7
 10
-186.2720041776534
 20
284.902125729037
 30
0.0
  0
VERTEX
  5
1A1
  8
1
  6
CONTINUOUS
 62
     7
 10
-186.2669903694617
 20
284.8880650233172
 30
0.0
  0
VERTEX
  5
1A2
  8
1
  6
CONTINUOUS
 62
     7
 10
-186.262393015841
 20
284.8737068045851
 30
0.0
  0
VERTEX
  5
1A3
  8
1
  6
CONTINUOUS
 62
     7
 10
-186.2581511090086
 20
284.8587674499126
 30
0.0
  0
VERTEX
  5
1A4
  8
1
  6
CONTINUOUS
 62
     7
 10
-186.2543803667442
 20
284.8435553258351
 30
0.0
  0
VERTEX
  5
1A5
  8
1
  6
CONTINUOUS
 62
     7
 10
-186.251075663372
 20
284.8279733542205
 30
0.0
  0
VERTEX
  5
1A6
  8
1
  6
CONTINUOUS
 62
     7
 10
-186.2482834782521
 20
284.8121637198449
 30
0.0
  0
VERTEX
  5
1A7
  8
1
  6
CONTINUOUS
 62
     7
 10
-186.246505911758
 20
284.7999537018179
 30
0.0
  0
VERTEX
  5
1A8
  8
1
  6
CONTINUOUS
 62
     7
 10
-186.2450408204358
 20
284.787637630802
 30
0.0
  0
VERTEX
  5
1A9
  8
1
  6
CONTINUOUS
 62
     7
 10
-186.2438937984622
 20
284.7752377904212
 30
0.0
  0
VERTEX
  5
1AA
  8
1
  6
CONTINUOUS
 62
     7
 10
-186.2430612606915
 20
284.7626191664287
 30
0.0
  0
VERTEX
  5
1AB
  8
1
  6
CONTINUOUS
 62
     7
 10
-186.2425602404649
 20
284.74993847799
 30
0.0
  0
VERTEX
  5
1AC
  8
1
  6
CONTINUOUS
 62
     7
 10
-186.2423927799163
 20
284.7372208436724
 30
0.0
  0
SEQEND
  5
53D
  8
1
  6
CONTINUOUS
 62
     7
  0
LINE
  5
74
  8
1
  6
CONTINUOUS
 62
     7
 10
-184.9923927799163
 20
304.6
 30
0.0
 11
-184.9923927799163
 21
267.8
 31
0.0
  0
ARC
  5
75
  8
1
  6
CONTINUOUS
 62
     9
 10
-236.9959461705096
 20
286.2
 30
0.0
 40
18.45
 50
355.4924313375777
 51
4.507568662422386
  0
ARC
  5
76
  8
1
  6
CONTINUOUS
 62
     9
 10
-217.9373544966828
 20
286.5095409635341
 30
0.0
 40
1.440803782834849
 50
88.74658836865066
 51
108.4843312192529
  0
POLYLINE
  5
77
  8
1
  6
CONTINUOUS
 62
     9
 66
     1
 10
0.0
 20
0.0
 30
0.0
  0
VERTEX
  5
1AD
  8
1
  6
CONTINUOUS
 62
     9
 10
-218.3941545711012
 20
287.8760142463474
 30
0.0
  0
VERTEX
  5
1AE
  8
1
  6
CONTINUOUS
 62
     9
 10
-218.4919422078922
 20
287.8297978478091
 30
0.0
  0
VERTEX
  5
1AF
  8
1
  6
CONTINUOUS
 62
     9
 10
-218.5701931431458
 20
287.7651874931141
 30
0.0
  0
VERTEX
  5
1B0
  8
1
  6
CONTINUOUS
 62
     9
 10
-218.6055796164209
 20
287.6703447764224
 30
0.0
  0
VERTEX
  5
1B1
  8
1
  6
CONTINUOUS
 62
     9
 10
-218.6030127448703
 20
287.65
 30
0.0
  0
SEQEND
  5
53E
  8
1
  6
CONTINUOUS
 62
     9
  0
POLYLINE
  5
78
  8
1
  6
CONTINUOUS
 62
     9
 66
     1
 10
0.0
 20
0.0
 30
0.0
  0
VERTEX
  5
1B2
  8
1
  6
CONTINUOUS
 62
     9
 10
-218.6030127448703
 20
284.75
 30
0.0
  0
VERTEX
  5
1B3
  8
1
  6
CONTINUOUS
 62
     9
 10
-218.6038850827509
 20
284.7454427654759
 30
0.0
  0
VERTEX
  5
1B4
  8
1
  6
CONTINUOUS
 62
     9
 10
-218.6045924533088
 20
284.7408371982133
 30
0.0
  0
VERTEX
  5
1B5
  8
1
  6
CONTINUOUS
 62
     9
 10
-218.6051334672601
 20
284.7361375383643
 30
0.0
  0
VERTEX
  5
1B6
  8
1
  6
CONTINUOUS
 62
     9
 10
-218.6054933555089
 20
284.7314086830344
 30
0.0
  0
VERTEX
  5
1B7
  8
1
  6
CONTINUOUS
 62
     9
 10
-218.605668344099
 20
284.7266245352135
 30
0.0
  0
VERTEX
  5
1B8
  8
1
  6
CONTINUOUS
 62
     9
 10
-218.6056524560204
 20
284.7218270428849
 30
0.0
  0
VERTEX
  5
1B9
  8
1
  6
CONTINUOUS
 62
     9
 10
-218.6054393894877
 20
284.7169595565001
 30
0.0
  0
VERTEX
  5
1BA
  8
1
  6
CONTINUOUS
 62
     9
 10
-218.6050264977904
 20
284.7120873641866
 30
0.0
  0
VERTEX
  5
1BB
  8
1
  6
CONTINUOUS
 62
     9
 10
-218.604414334168
 20
284.7072265370053
 30
0.0
  0
VERTEX
  5
1BC
  8
1
  6
CONTINUOUS
 62
     9
 10
-218.6036034826654
 20
284.7023801174858
 30
0.0
  0
VERTEX
  5
1BD
  8
1
  6
CONTINUOUS
 62
     9
 10
-218.6025823386216
 20
284.6974970479473
 30
0.0
  0
VERTEX
  5
1BE
  8
1
  6
CONTINUOUS
 62
     9
 10
-218.6013664111229
 20
284.6926568484906
 30
0.0
  0
VERTEX
  5
1BF
  8
1
  6
CONTINUOUS
 62
     9
 10
-218.5999501793218
 20
284.6878320113294
 30
0.0
  0
VERTEX
  5
1C0
  8
1
  6
CONTINUOUS
 62
     9
 10
-218.5983494559532
 20
284.6830664384388
 30
0.0
  0
VERTEX
  5
1C1
  8
1
  6
CONTINUOUS
 62
     9
 10
-218.5965461746769
 20
284.6783023052869
 30
0.0
  0
VERTEX
  5
1C2
  8
1
  6
CONTINUOUS
 62
     9
 10
-218.5945666161207
 20
284.6736039322672
 30
0.0
  0
VERTEX
  5
1C3
  8
1
  6
CONTINUOUS
 62
     9
 10
-218.592607251425
 20
284.6693654057443
 30
0.0
  0
VERTEX
  5
1C4
  8
1
  6
CONTINUOUS
 62
     9
 10
-218.5905143477088
 20
284.6651906027333
 30
0.0
  0
VERTEX
  5
1C5
  8
1
  6
CONTINUOUS
 62
     9
 10
-218.5882789387831
 20
284.6610539999609
 30
0.0
  0
VERTEX
  5
1C6
  8
1
  6
CONTINUOUS
 62
     9
 10
-218.5859246661322
 20
284.6569911447671
 30
0.0
  0
VERTEX
  5
1C7
  8
1
  6
CONTINUOUS
 62
     9
 10
-218.5834486495086
 20
284.652987611479
 30
0.0
  0
VERTEX
  5
1C8
  8
1
  6
CONTINUOUS
 62
     9
 10
-218.5808668223136
 20
284.6490599892422
 30
0.0
  0
VERTEX
  5
1C9
  8
1
  6
CONTINUOUS
 62
     9
 10
-218.578166403748
 20
284.6451813292499
 30
0.0
  0
VERTEX
  5
1CA
  8
1
  6
CONTINUOUS
 62
     9
 10
-218.5753696090527
 20
284.641376608832
 30
0.0
  0
VERTEX
  5
1CB
  8
1
  6
CONTINUOUS
 62
     9
 10
-218.5714281485833
 20
284.636327846355
 30
0.0
  0
VERTEX
  5
1CC
  8
1
  6
CONTINUOUS
 62
     9
 10
-218.5673330217508
 20
284.6314120670551
 30
0.0
  0
VERTEX
  5
1CD
  8
1
  6
CONTINUOUS
 62
     9
 10
-218.5630707068395
 20
284.6265980767783
 30
0.0
  0
VERTEX
  5
1CE
  8
1
  6
CONTINUOUS
 62
     9
 10
-218.5586823490528
 20
284.6219182817492
 30
0.0
  0
VERTEX
  5
1CF
  8
1
  6
CONTINUOUS
 62
     9
 10
-218.5541638504472
 20
284.6173538105492
 30
0.0
  0
VERTEX
  5
1D0
  8
1
  6
CONTINUOUS
 62
     9
 10
-218.5495396180529
 20
284.6129163172095
 30
0.0
  0
VERTEX
  5
1D1
  8
1
  6
CONTINUOUS
 62
     9
 10
-218.5399488579347
 20
284.6043533635656
 30
0.0
  0
VERTEX
  5
1D2
  8
1
  6
CONTINUOUS
 62
     9
 10
-218.5333678181476
 20
284.5989025526246
 30
0.0
  0
VERTEX
  5
1D3
  8
1
  6
CONTINUOUS
 62
     9
 10
-218.5266566033903
 20
284.5936472160046
 30
0.0
  0
VERTEX
  5
1D4
  8
1
  6
CONTINUOUS
 62
     9
 10
-218.5128573468
 20
284.5836571174776
 30
0.0
  0
VERTEX
  5
1D5
  8
1
  6
CONTINUOUS
 62
     9
 10
-218.4984672136528
 20
284.57420907971
 30
0.0
  0
VERTEX
  5
1D6
  8
1
  6
CONTINUOUS
 62
     9
 10
-218.4837596118586
 20
284.5653914877694
 30
0.0
  0
VERTEX
  5
1D7
  8
1
  6
CONTINUOUS
 62
     9
 10
-218.4687060518842
 20
284.5570989563677
 30
0.0
  0
VERTEX
  5
1D8
  8
1
  6
CONTINUOUS
 62
     9
 10
-218.4534345436811
 20
284.5493341094482
 30
0.0
  0
VERTEX
  5
1D9
  8
1
  6
CONTINUOUS
 62
     9
 10
-218.4378220297066
 20
284.5419790904766
 30
0.0
  0
VERTEX
  5
1DA
  8
1
  6
CONTINUOUS
 62
     9
 10
-218.4220419936495
 20
284.5350718626125
 30
0.0
  0
VERTEX
  5
1DB
  8
1
  6
CONTINUOUS
 62
     9
 10
-218.396883365827
 20
284.5250129392065
 30
0.0
  0
VERTEX
  5
1DC
  8
1
  6
CONTINUOUS
 62
     9
 10
-218.3714376507903
 20
284.5158720898967
 30
0.0
  0
VERTEX
  5
1DD
  8
1
  6
CONTINUOUS
 62
     9
 10
-218.3457115701691
 20
284.5075436361348
 30
0.0
  0
VERTEX
  5
1DE
  8
1
  6
CONTINUOUS
 62
     9
 10
-218.3198048175
 20
284.4999729057008
 30
0.0
  0
VERTEX
  5
1DF
  8
1
  6
CONTINUOUS
 62
     9
 10
-218.2671831581906
 20
284.4867719865192
 30
0.0
  0
VERTEX
  5
1E0
  8
1
  6
CONTINUOUS
 62
     9
 10
-218.214126698967
 20
284.4759886245562
 30
0.0
  0
VERTEX
  5
1E1
  8
1
  6
CONTINUOUS
 62
     9
 10
-218.1375393523826
 20
284.4641801285092
 30
0.0
  0
VERTEX
  5
1E2
  8
1
  6
CONTINUOUS
 62
     9
 10
-218.0606028663437
 20
284.4561569971469
 30
0.0
  0
VERTEX
  5
1E3
  8
1
  6
CONTINUOUS
 62
     9
 10
-217.9832246596305
 20
284.4515075961781
 30
0.0
  0
VERTEX
  5
1E4
  8
1
  6
CONTINUOUS
 62
     9
 10
-217.9058377567662
 20
284.45
 30
0.0
  0
SEQEND
  5
53F
  8
1
  6
CONTINUOUS
 62
     9
  0
LINE
  5
79
  8
1
  6
CONTINUOUS
 62
     7
 10
-234.608458797658
 20
270.9004502133379
 30
0.0
 11
-234.6330805403184
 21
270.946534813587
 31
0.0
  0
LINE
  5
7A
  8
1
  6
CONTINUOUS
 62
     7
 10
-233.608428282263
 20
301.4994121142952
 30
0.0
 11
-233.6331818630886
 21
301.4531545499428
 31
0.0
  0
LINE
  5
7B
  8
1
  6
CONTINUOUS
 62
     7
 10
-232.6084181965159
 20
270.9006380544491
 30
0.0
 11
-232.6331968571551
 21
270.9467508814296
 31
0.0
  0
LINE
  5
7C
  8
1
  6
CONTINUOUS
 62
     7
 10
-231.6084080595204
 20
301.499412113999
 30
0.0
 11
-231.6330021368651
 21
301.4541631179745
 31
0.0
  0
LINE
  5
7D
  8
1
  6
CONTINUOUS
 62
     7
 10
-230.6083775952895
 20
270.9004502129477
 30
0.0
 11
-230.6328548164408
 21
270.9451247781367
 31
0.0
  0
LINE
  5
7E
  8
1
  6
CONTINUOUS
 62
     7
 10
-229.6083132804376
 20
301.4997369744128
 30
0.0
 11
-229.6329530103066
 21
301.4545706390494
 31
0.0
  0
LINE
  5
7F
  8
1
  6
CONTINUOUS
 62
     7
 10
-228.6083293275791
 20
270.9000838972705
 30
0.0
 11
-228.6331465595445
 21
270.9462550219733
 31
0.0
  0
LINE
  5
80
  8
1
  6
CONTINUOUS
 62
     7
 10
-227.9762785200113
 20
270.9000838969303
 30
0.0
 11
-227.9516542404504
 21
270.9465655628429
 31
0.0
  0
LINE
  5
81
  8
1
  6
CONTINUOUS
 62
     7
 10
-228.9762624728699
 20
301.4997369748131
 30
0.0
 11
-228.9517629407813
 21
301.453714723037
 31
0.0
  0
LINE
  5
82
  8
1
  6
CONTINUOUS
 62
     7
 10
-229.9763267877218
 20
270.9004502127959
 30
0.0
 11
-229.9517050195142
 21
270.9465348135871
 31
0.0
  0
LINE
  5
83
  8
1
  6
CONTINUOUS
 62
     7
 10
-230.9763572519527
 20
301.4994121140351
 30
0.0
 11
-230.951603696744
 21
301.4531545499428
 31
0.0
  0
LINE
  5
84
  8
1
  6
CONTINUOUS
 62
     7
 10
-231.9763673889566
 20
270.9006380544491
 30
0.0
 11
-231.9515887026775
 21
270.9467508814296
 31
0.0
  0
LINE
  5
85
  8
1
  6
CONTINUOUS
 62
     7
 10
-232.9763774746953
 20
301.4994121142593
 30
0.0
 11
-232.9517834229675
 21
301.4541631179745
 31
0.0
  0
LINE
  5
86
  8
1
  6
CONTINUOUS
 62
     7
 10
-233.9764079900903
 20
270.9004502134898
 30
0.0
 11
-233.9519307433918
 21
270.9451247781368
 31
0.0
  0
LINE
  5
87
  8
1
  6
CONTINUOUS
 62
     7
 10
-234.976472255488
 20
301.4997369752035
 30
0.0
 11
-234.9518325495259
 21
301.4545706390494
 31
0.0
  0
LINE
  5
88
  8
1
  6
CONTINUOUS
 62
     7
 10
-227.6084181837008
 20
301.5
 30
0.0
 11
-226.9763673761318
 21
301.5
 31
0.0
  0
ARC
  5
89
  8
1
  6
CONTINUOUS
 62
     7
 10
172.938586005354
 20
291.9199934724749
 30
0.0
 40
408.1109522408494
 50
180.4628214597419
 51
182.9458171820653
  0
LINE
  5
8A
  8
1
  6
CONTINUOUS
 62
     7
 10
-235.1590516514493
 20
288.6234076827051
 30
0.0
 11
-235.1923927799163
 21
290.1895282199413
 31
0.0
  0
POLYLINE
  5
8B
  8
1
  6
CONTINUOUS
 62
     7
 66
     1
 10
0.0
 20
0.0
 30
0.0
  0
VERTEX
  5
1E5
  8
1
  6
CONTINUOUS
 62
     7
 10
-232.6331968571551
 20
270.9467508814296
 30
0.0
  0
VERTEX
  5
1E6
  8
1
  6
CONTINUOUS
 62
     7
 10
-232.6433555178332
 20
270.9923118686824
 30
0.0
  0
VERTEX
  5
1E7
  8
1
  6
CONTINUOUS
 62
     7
 10
-232.6535141785115
 20
271.0533741872903
 30
0.0
  0
VERTEX
  5
1E8
  8
1
  6
CONTINUOUS
 62
     7
 10
-232.6636728391897
 20
271.1299378372735
 30
0.0
  0
VERTEX
  5
1E9
  8
1
  6
CONTINUOUS
 62
     7
 10
-232.6738314998678
 20
271.2219811892119
 30
0.0
  0
VERTEX
  5
1EA
  8
1
  6
CONTINUOUS
 62
     7
 10
-232.6839901605461
 20
271.3293687664752
 30
0.0
  0
VERTEX
  5
1EB
  8
1
  6
CONTINUOUS
 62
     7
 10
-232.6941488212243
 20
271.451927768028
 30
0.0
  0
VERTEX
  5
1EC
  8
1
  6
CONTINUOUS
 62
     7
 10
-232.7043074819025
 20
271.5894853710813
 30
0.0
  0
VERTEX
  5
1ED
  8
1
  6
CONTINUOUS
 62
     7
 10
-232.7144661425808
 20
271.7418687528457
 30
0.0
  0
VERTEX
  5
1EE
  8
1
  6
CONTINUOUS
 62
     7
 10
-232.724624803259
 20
271.9089050905322
 30
0.0
  0
VERTEX
  5
1EF
  8
1
  6
CONTINUOUS
 62
     7
 10
-232.7347834639372
 20
272.0904215613516
 30
0.0
  0
VERTEX
  5
1F0
  8
1
  6
CONTINUOUS
 62
     7
 10
-232.7449421246154
 20
272.2862453425148
 30
0.0
  0
VERTEX
  5
1F1
  8
1
  6
CONTINUOUS
 62
     7
 10
-232.7551007852936
 20
272.4962036112326
 30
0.0
  0
VERTEX
  5
1F2
  8
1
  6
CONTINUOUS
 62
     7
 10
-232.7652594459718
 20
272.720123544716
 30
0.0
  0
VERTEX
  5
1F3
  8
1
  6
CONTINUOUS
 62
     7
 10
-232.77541810665
 20
272.9578323201756
 30
0.0
  0
VERTEX
  5
1F4
  8
1
  6
CONTINUOUS
 62
     7
 10
-232.7855767673282
 20
273.2091416908909
 30
0.0
  0
VERTEX
  5
1F5
  8
1
  6
CONTINUOUS
 62
     7
 10
-232.7957354280063
 20
273.4737656179351
 30
0.0
  0
VERTEX
  5
1F6
  8
1
  6
CONTINUOUS
 62
     7
 10
-232.8058940886846
 20
273.7513798547167
 30
0.0
  0
VERTEX
  5
1F7
  8
1
  6
CONTINUOUS
 62
     7
 10
-232.8160527493628
 20
274.0416600667737
 30
0.0
  0
VERTEX
  5
1F8
  8
1
  6
CONTINUOUS
 62
     7
 10
-232.826211410041
 20
274.3442819196438
 30
0.0
  0
VERTEX
  5
1F9
  8
1
  6
CONTINUOUS
 62
     7
 10
-232.8363700707192
 20
274.6589210788653
 30
0.0
  0
VERTEX
  5
1FA
  8
1
  6
CONTINUOUS
 62
     7
 10
-232.8465287313974
 20
274.985253209976
 30
0.0
  0
VERTEX
  5
1FB
  8
1
  6
CONTINUOUS
 62
     7
 10
-232.8566873920756
 20
275.3229539785139
 30
0.0
  0
VERTEX
  5
1FC
  8
1
  6
CONTINUOUS
 62
     7
 10
-232.8668460527538
 20
275.671699050017
 30
0.0
  0
VERTEX
  5
1FD
  8
1
  6
CONTINUOUS
 62
     7
 10
-232.877004713432
 20
276.0311640900233
 30
0.0
  0
VERTEX
  5
1FE
  8
1
  6
CONTINUOUS
 62
     7
 10
-232.8871633741103
 20
276.4010247640707
 30
0.0
  0
VERTEX
  5
1FF
  8
1
  6
CONTINUOUS
 62
     7
 10
-232.8973220347885
 20
276.7809476435581
 30
0.0
  0
VERTEX
  5
200
  8
1
  6
CONTINUOUS
 62
     7
 10
-232.9074806954667
 20
277.17052943596
 30
0.0
  0
VERTEX
  5
201
  8
1
  6
CONTINUOUS
 62
     7
 10
-232.9176393561449
 20
277.5693344666004
 30
0.0
  0
VERTEX
  5
202
  8
1
  6
CONTINUOUS
 62
     7
 10
-232.927798016823
 20
277.9769268836993
 30
0.0
  0
VERTEX
  5
203
  8
1
  6
CONTINUOUS
 62
     7
 10
-232.9379566775013
 20
278.3928708354766
 30
0.0
  0
VERTEX
  5
204
  8
1
  6
CONTINUOUS
 62
     7
 10
-232.9481153381795
 20
278.8167304701524
 30
0.0
  0
VERTEX
  5
205
  8
1
  6
CONTINUOUS
 62
     7
 10
-232.9582739988577
 20
279.2480699359464
 30
0.0
  0
VERTEX
  5
206
  8
1
  6
CONTINUOUS
 62
     7
 10
-232.9684326595359
 20
279.6864533810788
 30
0.0
  0
VERTEX
  5
207
  8
1
  6
CONTINUOUS
 62
     7
 10
-232.9785913202141
 20
280.1314449537692
 30
0.0
  0
VERTEX
  5
208
  8
1
  6
CONTINUOUS
 62
     7
 10
-232.9887499808923
 20
280.5826088022379
 30
0.0
  0
VERTEX
  5
209
  8
1
  6
CONTINUOUS
 62
     7
 10
-232.9989086415705
 20
281.0395090747047
 30
0.0
  0
VERTEX
  5
20A
  8
1
  6
CONTINUOUS
 62
     7
 10
-233.0090673022488
 20
281.5017062116562
 30
0.0
  0
VERTEX
  5
20B
  8
1
  6
CONTINUOUS
 62
     7
 10
-233.019225962927
 20
281.9687258439672
 30
0.0
  0
VERTEX
  5
20C
  8
1
  6
CONTINUOUS
 62
     7
 10
-233.0293846236052
 20
282.4400745431032
 30
0.0
  0
VERTEX
  5
20D
  8
1
  6
CONTINUOUS
 62
     7
 10
-233.0395432842834
 20
282.9152586857523
 30
0.0
  0
VERTEX
  5
20E
  8
1
  6
CONTINUOUS
 62
     7
 10
-233.0497019449616
 20
283.3937846486032
 30
0.0
  0
VERTEX
  5
20F
  8
1
  6
CONTINUOUS
 62
     7
 10
-233.0598606056398
 20
283.8751588083439
 30
0.0
  0
VERTEX
  5
210
  8
1
  6
CONTINUOUS
 62
     7
 10
-233.070019266318
 20
284.3588875416633
 30
0.0
  0
VERTEX
  5
211
  8
1
  6
CONTINUOUS
 62
     7
 10
-233.0801779269962
 20
284.8444772252495
 30
0.0
  0
VERTEX
  5
212
  8
1
  6
CONTINUOUS
 62
     7
 10
-233.0903365876744
 20
285.331434235791
 30
0.0
  0
VERTEX
  5
213
  8
1
  6
CONTINUOUS
 62
     7
 10
-233.1004952483526
 20
285.8192649499762
 30
0.0
  0
VERTEX
  5
214
  8
1
  6
CONTINUOUS
 62
     7
 10
-233.1106539090308
 20
286.3074757444934
 30
0.0
  0
VERTEX
  5
215
  8
1
  6
CONTINUOUS
 62
     7
 10
-233.120812569709
 20
286.795573149297
 30
0.0
  0
VERTEX
  5
216
  8
1
  6
CONTINUOUS
 62
     7
 10
-233.1309712303873
 20
287.2830654735319
 30
0.0
  0
VERTEX
  5
217
  8
1
  6
CONTINUOUS
 62
     7
 10
-233.1411298910655
 20
287.7694621730114
 30
0.0
  0
VERTEX
  5
218
  8
1
  6
CONTINUOUS
 62
     7
 10
-233.1512885517437
 20
288.2542727226062
 30
0.0
  0
VERTEX
  5
219
  8
1
  6
CONTINUOUS
 62
     7
 10
-233.1614472124219
 20
288.7370065971871
 30
0.0
  0
VERTEX
  5
21A
  8
1
  6
CONTINUOUS
 62
     7
 10
-233.1716058731001
 20
289.2171732716245
 30
0.0
  0
VERTEX
  5
21B
  8
1
  6
CONTINUOUS
 62
     7
 10
-233.1817645337783
 20
289.6942822207893
 30
0.0
  0
VERTEX
  5
21C
  8
1
  6
CONTINUOUS
 62
     7
 10
-233.1919231944565
 20
290.1678429195523
 30
0.0
  0
VERTEX
  5
21D
  8
1
  6
CONTINUOUS
 62
     7
 10
-233.2020818551347
 20
290.6373648427839
 30
0.0
  0
VERTEX
  5
21E
  8
1
  6
CONTINUOUS
 62
     7
 10
-233.2122405158129
 20
291.102357465355
 30
0.0
  0
VERTEX
  5
21F
  8
1
  6
CONTINUOUS
 62
     7
 10
-233.2223991764911
 20
291.5623302621361
 30
0.0
  0
VERTEX
  5
220
  8
1
  6
CONTINUOUS
 62
     7
 10
-233.2325578371694
 20
292.0167950733267
 30
0.0
  0
VERTEX
  5
221
  8
1
  6
CONTINUOUS
 62
     7
 10
-233.2427164978475
 20
292.4652982241912
 30
0.0
  0
VERTEX
  5
222
  8
1
  6
CONTINUOUS
 62
     7
 10
-233.2528751585257
 20
292.9074121301691
 30
0.0
  0
VERTEX
  5
223
  8
1
  6
CONTINUOUS
 62
     7
 10
-233.2630338192039
 20
293.3427098519841
 30
0.0
  0
VERTEX
  5
224
  8
1
  6
CONTINUOUS
 62
     7
 10
-233.2731924798822
 20
293.7707644503595
 30
0.0
  0
VERTEX
  5
225
  8
1
  6
CONTINUOUS
 62
     7
 10
-233.2833511405604
 20
294.191148986019
 30
0.0
  0
VERTEX
  5
226
  8
1
  6
CONTINUOUS
 62
     7
 10
-233.2935098012385
 20
294.6034365196859
 30
0.0
  0
VERTEX
  5
227
  8
1
  6
CONTINUOUS
 62
     7
 10
-233.3036684619168
 20
295.0072001120838
 30
0.0
  0
VERTEX
  5
228
  8
1
  6
CONTINUOUS
 62
     7
 10
-233.313827122595
 20
295.402012823936
 30
0.0
  0
VERTEX
  5
229
  8
1
  6
CONTINUOUS
 62
     7
 10
-233.3239857832732
 20
295.7874477159664
 30
0.0
  0
VERTEX
  5
22A
  8
1
  6
CONTINUOUS
 62
     7
 10
-233.3341444439514
 20
296.1630778488982
 30
0.0
  0
VERTEX
  5
22B
  8
1
  6
CONTINUOUS
 62
     7
 10
-233.3443031046296
 20
296.5284794387481
 30
0.0
  0
VERTEX
  5
22C
  8
1
  6
CONTINUOUS
 62
     7
 10
-233.3544617653078
 20
296.8832876791882
 30
0.0
  0
VERTEX
  5
22D
  8
1
  6
CONTINUOUS
 62
     7
 10
-233.3646204259861
 20
297.227190052216
 30
0.0
  0
VERTEX
  5
22E
  8
1
  6
CONTINUOUS
 62
     7
 10
-233.3747790866642
 20
297.5598758511748
 30
0.0
  0
VERTEX
  5
22F
  8
1
  6
CONTINUOUS
 62
     7
 10
-233.3849377473424
 20
297.8810343694082
 30
0.0
  0
VERTEX
  5
230
  8
1
  6
CONTINUOUS
 62
     7
 10
-233.3950964080207
 20
298.1903549002596
 30
0.0
  0
VERTEX
  5
231
  8
1
  6
CONTINUOUS
 62
     7
 10
-233.4052550686988
 20
298.4875267370726
 30
0.0
  0
VERTEX
  5
232
  8
1
  6
CONTINUOUS
 62
     7
 10
-233.4154137293771
 20
298.7722391731908
 30
0.0
  0
VERTEX
  5
233
  8
1
  6
CONTINUOUS
 62
     7
 10
-233.4255723900553
 20
299.0441815019576
 30
0.0
  0
VERTEX
  5
234
  8
1
  6
CONTINUOUS
 62
     7
 10
-233.4357310507335
 20
299.3030430167165
 30
0.0
  0
VERTEX
  5
235
  8
1
  6
CONTINUOUS
 62
     7
 10
-233.4458897114117
 20
299.548513010811
 30
0.0
  0
VERTEX
  5
236
  8
1
  6
CONTINUOUS
 62
     7
 10
-233.4560483720899
 20
299.7802837279758
 30
0.0
  0
VERTEX
  5
237
  8
1
  6
CONTINUOUS
 62
     7
 10
-233.4662070327681
 20
299.9981200717148
 30
0.0
  0
VERTEX
  5
238
  8
1
  6
CONTINUOUS
 62
     7
 10
-233.4763656934463
 20
300.2018623769162
 30
0.0
  0
VERTEX
  5
239
  8
1
  6
CONTINUOUS
 62
     7
 10
-233.4865243541245
 20
300.3913544834252
 30
0.0
  0
VERTEX
  5
23A
  8
1
  6
CONTINUOUS
 62
     7
 10
-233.4966830148027
 20
300.5664402310871
 30
0.0
  0
VERTEX
  5
23B
  8
1
  6
CONTINUOUS
 62
     7
 10
-233.506841675481
 20
300.7269634597476
 30
0.0
  0
VERTEX
  5
23C
  8
1
  6
CONTINUOUS
 62
     7
 10
-233.5170003361592
 20
300.872768009252
 30
0.0
  0
VERTEX
  5
23D
  8
1
  6
CONTINUOUS
 62
     7
 10
-233.5271589968373
 20
301.0036977194456
 30
0.0
  0
VERTEX
  5
23E
  8
1
  6
CONTINUOUS
 62
     7
 10
-233.5373176575156
 20
301.1195964301741
 30
0.0
  0
VERTEX
  5
23F
  8
1
  6
CONTINUOUS
 62
     7
 10
-233.5474763181938
 20
301.2203079812826
 30
0.0
  0
VERTEX
  5
240
  8
1
  6
CONTINUOUS
 62
     7
 10
-233.557634978872
 20
301.3056762126168
 30
0.0
  0
VERTEX
  5
241
  8
1
  6
CONTINUOUS
 62
     7
 10
-233.5677936395502
 20
301.3755471905562
 30
0.0
  0
VERTEX
  5
242
  8
1
  6
CONTINUOUS
 62
     7
 10
-233.5779523002284
 20
301.4298419279405
 30
0.0
  0
VERTEX
  5
243
  8
1
  6
CONTINUOUS
 62
     7
 10
-233.5881109609066
 20
301.4685725658385
 30
0.0
  0
VERTEX
  5
244
  8
1
  6
CONTINUOUS
 62
     7
 10
-233.5982696215848
 20
301.4917567470302
 30
0.0
  0
VERTEX
  5
245
  8
1
  6
CONTINUOUS
 62
     7
 10
-233.608428282263
 20
301.4994121142952
 30
0.0
  0
SEQEND
  5
540
  8
1
  6
CONTINUOUS
 62
     7
  0
POLYLINE
  5
8C
  8
1
  6
CONTINUOUS
 62
     7
 66
     1
 10
0.0
 20
0.0
 30
0.0
  0
VERTEX
  5
246
  8
1
  6
CONTINUOUS
 62
     7
 10
-230.6328548164408
 20
270.9451247781367
 30
0.0
  0
VERTEX
  5
247
  8
1
  6
CONTINUOUS
 62
     7
 10
-230.6430168293895
 20
270.9902926642016
 30
0.0
  0
VERTEX
  5
248
  8
1
  6
CONTINUOUS
 62
     7
 10
-230.6531788423382
 20
271.0510942804095
 30
0.0
  0
VERTEX
  5
249
  8
1
  6
CONTINUOUS
 62
     7
 10
-230.663340855287
 20
271.1274123022361
 30
0.0
  0
VERTEX
  5
24A
  8
1
  6
CONTINUOUS
 62
     7
 10
-230.6735028682358
 20
271.2191072888421
 30
0.0
  0
VERTEX
  5
24B
  8
1
  6
CONTINUOUS
 62
     7
 10
-230.6836648811845
 20
271.3260397993881
 30
0.0
  0
VERTEX
  5
24C
  8
1
  6
CONTINUOUS
 62
     7
 10
-230.6938268941332
 20
271.4480703930349
 30
0.0
  0
VERTEX
  5
24D
  8
1
  6
CONTINUOUS
 62
     7
 10
-230.703988907082
 20
271.5850596289433
 30
0.0
  0
VERTEX
  5
24E
  8
1
  6
CONTINUOUS
 62
     7
 10
-230.7141509200308
 20
271.7368680662737
 30
0.0
  0
VERTEX
  5
24F
  8
1
  6
CONTINUOUS
 62
     7
 10
-230.7243129329794
 20
271.903356264187
 30
0.0
  0
VERTEX
  5
250
  8
1
  6
CONTINUOUS
 62
     7
 10
-230.7344749459283
 20
272.0843847818441
 30
0.0
  0
VERTEX
  5
251
  8
1
  6
CONTINUOUS
 62
     7
 10
-230.744636958877
 20
272.2798141784053
 30
0.0
  0
VERTEX
  5
252
  8
1
  6
CONTINUOUS
 62
     7
 10
-230.7547989718257
 20
272.4895050122616
 30
0.0
  0
VERTEX
  5
253
  8
1
  6
CONTINUOUS
 62
     7
 10
-230.7649609847745
 20
272.7132890826088
 30
0.0
  0
VERTEX
  5
254
  8
1
  6
CONTINUOUS
 62
     7
 10
-230.7751229977233
 20
272.9508933063775
 30
0.0
  0
VERTEX
  5
255
  8
1
  6
CONTINUOUS
 62
     7
 10
-230.785285010672
 20
273.2020206980675
 30
0.0
  0
VERTEX
  5
256
  8
1
  6
CONTINUOUS
 62
     7
 10
-230.7954470236207
 20
273.4663742721788
 30
0.0
  0
VERTEX
  5
257
  8
1
  6
CONTINUOUS
 62
     7
 10
-230.8056090365695
 20
273.743657043211
 30
0.0
  0
VERTEX
  5
258
  8
1
  6
CONTINUOUS
 62
     7
 10
-230.8157710495182
 20
274.0335720256638
 30
0.0
  0
VERTEX
  5
259
  8
1
  6
CONTINUOUS
 62
     7
 10
-230.8259330624669
 20
274.3358222340372
 30
0.0
  0
VERTEX
  5
25A
  8
1
  6
CONTINUOUS
 62
     7
 10
-230.8360950754157
 20
274.6501106828309
 30
0.0
  0
VERTEX
  5
25B
  8
1
  6
CONTINUOUS
 62
     7
 10
-230.8462570883645
 20
274.9761403865448
 30
0.0
  0
VERTEX
  5
25C
  8
1
  6
CONTINUOUS
 62
     7
 10
-230.8564191013132
 20
275.3136143596785
 30
0.0
  0
VERTEX
  5
25D
  8
1
  6
CONTINUOUS
 62
     7
 10
-230.8665811142619
 20
275.6622356167319
 30
0.0
  0
VERTEX
  5
25E
  8
1
  6
CONTINUOUS
 62
     7
 10
-230.8767431272107
 20
276.0216885488924
 30
0.0
  0
VERTEX
  5
25F
  8
1
  6
CONTINUOUS
 62
     7
 10
-230.8869051401595
 20
276.3915770127458
 30
0.0
  0
VERTEX
  5
260
  8
1
  6
CONTINUOUS
 62
     7
 10
-230.8970671531082
 20
276.771483100382
 30
0.0
  0
VERTEX
  5
261
  8
1
  6
CONTINUOUS
 62
     7
 10
-230.9072291660569
 20
277.1609889035379
 30
0.0
  0
VERTEX
  5
262
  8
1
  6
CONTINUOUS
 62
     7
 10
-230.9173911790057
 20
277.5596765139497
 30
0.0
  0
VERTEX
  5
263
  8
1
  6
CONTINUOUS
 62
     7
 10
-230.9275531919544
 20
277.9671280233541
 30
0.0
  0
VERTEX
  5
264
  8
1
  6
CONTINUOUS
 62
     7
 10
-230.9377152049032
 20
278.3829255234877
 30
0.0
  0
VERTEX
  5
265
  8
1
  6
CONTINUOUS
 62
     7
 10
-230.9478772178519
 20
278.806651106087
 30
0.0
  0
VERTEX
  5
266
  8
1
  6
CONTINUOUS
 62
     7
 10
-230.9580392308007
 20
279.2378868628887
 30
0.0
  0
VERTEX
  5
267
  8
1
  6
CONTINUOUS
 62
     7
 10
-230.9682012437494
 20
279.6762148856291
 30
0.0
  0
VERTEX
  5
268
  8
1
  6
CONTINUOUS
 62
     7
 10
-230.9783632566981
 20
280.1212172660449
 30
0.0
  0
VERTEX
  5
269
  8
1
  6
CONTINUOUS
 62
     7
 10
-230.9885252696469
 20
280.5724671724519
 30
0.0
  0
VERTEX
  5
26A
  8
1
  6
CONTINUOUS
 62
     7
 10
-230.9986872825956
 20
281.0294919694733
 30
0.0
  0
VERTEX
  5
26B
  8
1
  6
CONTINUOUS
 62
     7
 10
-231.0088492955444
 20
281.4918043657824
 30
0.0
  0
VERTEX
  5
26C
  8
1
  6
CONTINUOUS
 62
     7
 10
-231.0190113084931
 20
281.9589170634867
 30
0.0
  0
VERTEX
  5
26D
  8
1
  6
CONTINUOUS
 62
     7
 10
-231.0291733214419
 20
282.4303427646939
 30
0.0
  0
VERTEX
  5
26E
  8
1
  6
CONTINUOUS
 62
     7
 10
-231.0393353343907
 20
282.9055941715116
 30
0.0
  0
VERTEX
  5
26F
  8
1
  6
CONTINUOUS
 62
     7
 10
-231.0494973473394
 20
283.3841839860472
 30
0.0
  0
VERTEX
  5
270
  8
1
  6
CONTINUOUS
 62
     7
 10
-231.0596593602882
 20
283.8656249104084
 30
0.0
  0
VERTEX
  5
271
  8
1
  6
CONTINUOUS
 62
     7
 10
-231.0698213732369
 20
284.3494296467029
 30
0.0
  0
VERTEX
  5
272
  8
1
  6
CONTINUOUS
 62
     7
 10
-231.0799833861856
 20
284.8351108970381
 30
0.0
  0
VERTEX
  5
273
  8
1
  6
CONTINUOUS
 62
     7
 10
-231.0901453991343
 20
285.3221813635216
 30
0.0
  0
VERTEX
  5
274
  8
1
  6
CONTINUOUS
 62
     7
 10
-231.1003074120831
 20
285.8101527610866
 30
0.0
  0
VERTEX
  5
275
  8
1
  6
CONTINUOUS
 62
     7
 10
-231.1104694250319
 20
286.2985307733638
 30
0.0
  0
VERTEX
  5
276
  8
1
  6
CONTINUOUS
 62
     7
 10
-231.1206314379806
 20
286.786818806764
 30
0.0
  0
VERTEX
  5
277
  8
1
  6
CONTINUOUS
 62
     7
 10
-231.1307934509294
 20
287.274520263479
 30
0.0
  0
VERTEX
  5
278
  8
1
  6
CONTINUOUS
 62
     7
 10
-231.140955463878
 20
287.7611385457006
 30
0.0
  0
VERTEX
  5
279
  8
1
  6
CONTINUOUS
 62
     7
 10
-231.1511174768269
 20
288.2461770556211
 30
0.0
  0
VERTEX
  5
27A
  8
1
  6
CONTINUOUS
 62
     7
 10
-231.1612794897756
 20
288.7291391954319
 30
0.0
  0
VERTEX
  5
27B
  8
1
  6
CONTINUOUS
 62
     7
 10
-231.1714415027243
 20
289.209528367325
 30
0.0
  0
VERTEX
  5
27C
  8
1
  6
CONTINUOUS
 62
     7
 10
-231.1816035156731
 20
289.6868479734924
 30
0.0
  0
VERTEX
  5
27D
  8
1
  6
CONTINUOUS
 62
     7
 10
-231.1917655286219
 20
290.1606014161259
 30
0.0
  0
VERTEX
  5
27E
  8
1
  6
CONTINUOUS
 62
     7
 10
-231.2019275415706
 20
290.6302920974174
 30
0.0
  0
VERTEX
  5
27F
  8
1
  6
CONTINUOUS
 62
     7
 10
-231.2120895545193
 20
291.0954279108543
 30
0.0
  0
VERTEX
  5
280
  8
1
  6
CONTINUOUS
 62
     7
 10
-231.2222515674681
 20
291.5555495669432
 30
0.0
  0
VERTEX
  5
281
  8
1
  6
CONTINUOUS
 62
     7
 10
-231.2324135804168
 20
292.0102123388457
 30
0.0
  0
VERTEX
  5
282
  8
1
  6
CONTINUOUS
 62
     7
 10
-231.2425755933655
 20
292.4589715653432
 30
0.0
  0
VERTEX
  5
283
  8
1
  6
CONTINUOUS
 62
     7
 10
-231.2527376063143
 20
292.9013825852169
 30
0.0
  0
VERTEX
  5
284
  8
1
  6
CONTINUOUS
 62
     7
 10
-231.2628996192631
 20
293.3370007372483
 30
0.0
  0
VERTEX
  5
285
  8
1
  6
CONTINUOUS
 62
     7
 10
-231.2730616322118
 20
293.7653813602183
 30
0.0
  0
VERTEX
  5
286
  8
1
  6
CONTINUOUS
 62
     7
 10
-231.2832236451606
 20
294.1860797929087
 30
0.0
  0
VERTEX
  5
287
  8
1
  6
CONTINUOUS
 62
     7
 10
-231.2933856581093
 20
294.5986513741004
 30
0.0
  0
VERTEX
  5
288
  8
1
  6
CONTINUOUS
 62
     7
 10
-231.3035476710581
 20
295.002651442575
 30
0.0
  0
VERTEX
  5
289
  8
1
  6
CONTINUOUS
 62
     7
 10
-231.3137096840068
 20
295.3976353371136
 30
0.0
  0
VERTEX
  5
28A
  8
1
  6
CONTINUOUS
 62
     7
 10
-231.3238716969556
 20
295.7831658060944
 30
0.0
  0
VERTEX
  5
28B
  8
1
  6
CONTINUOUS
 62
     7
 10
-231.3340337099043
 20
296.1588707958389
 30
0.0
  0
VERTEX
  5
28C
  8
1
  6
CONTINUOUS
 62
     7
 10
-231.344195722853
 20
296.5244121247391
 30
0.0
  0
VERTEX
  5
28D
  8
1
  6
CONTINUOUS
 62
     7
 10
-231.3543577358018
 20
296.8794519002624
 30
0.0
  0
VERTEX
  5
28E
  8
1
  6
CONTINUOUS
 62
     7
 10
-231.3645197487506
 20
297.2236522298762
 30
0.0
  0
VERTEX
  5
28F
  8
1
  6
CONTINUOUS
 62
     7
 10
-231.3746817616993
 20
297.5566752210479
 30
0.0
  0
VERTEX
  5
290
  8
1
  6
CONTINUOUS
 62
     7
 10
-231.384843774648
 20
297.8781829812448
 30
0.0
  0
VERTEX
  5
291
  8
1
  6
CONTINUOUS
 62
     7
 10
-231.3950057875967
 20
298.1878376179345
 30
0.0
  0
VERTEX
  5
292
  8
1
  6
CONTINUOUS
 62
     7
 10
-231.4051678005455
 20
298.485301238584
 30
0.0
  0
VERTEX
  5
293
  8
1
  6
CONTINUOUS
 62
     7
 10
-231.4153298134943
 20
298.770235950661
 30
0.0
  0
VERTEX
  5
294
  8
1
  6
CONTINUOUS
 62
     7
 10
-231.425491826443
 20
299.0423038616328
 30
0.0
  0
VERTEX
  5
295
  8
1
  6
CONTINUOUS
 62
     7
 10
-231.4356538393917
 20
299.3011752030375
 30
0.0
  0
VERTEX
  5
296
  8
1
  6
CONTINUOUS
 62
     7
 10
-231.4458158523405
 20
299.5466071035154
 30
0.0
  0
VERTEX
  5
297
  8
1
  6
CONTINUOUS
 62
     7
 10
-231.4559778652893
 20
299.778409367846
 30
0.0
  0
VERTEX
  5
298
  8
1
  6
CONTINUOUS
 62
     7
 10
-231.466139878238
 20
299.9963925384115
 30
0.0
  0
VERTEX
  5
299
  8
1
  6
CONTINUOUS
 62
     7
 10
-231.4763018911867
 20
300.2003671575937
 30
0.0
  0
VERTEX
  5
29A
  8
1
  6
CONTINUOUS
 62
     7
 10
-231.4864639041355
 20
300.3901437677749
 30
0.0
  0
VERTEX
  5
29B
  8
1
  6
CONTINUOUS
 62
     7
 10
-231.4966259170843
 20
300.5655329113372
 30
0.0
  0
VERTEX
  5
29C
  8
1
  6
CONTINUOUS
 62
     7
 10
-231.506787930033
 20
300.7263451306627
 30
0.0
  0
VERTEX
  5
29D
  8
1
  6
CONTINUOUS
 62
     7
 10
-231.5169499429817
 20
300.8723909681333
 30
0.0
  0
VERTEX
  5
29E
  8
1
  6
CONTINUOUS
 62
     7
 10
-231.5271119559305
 20
301.0034809661313
 30
0.0
  0
VERTEX
  5
29F
  8
1
  6
CONTINUOUS
 62
     7
 10
-231.5372739688792
 20
301.1194256670386
 30
0.0
  0
VERTEX
  5
2A0
  8
1
  6
CONTINUOUS
 62
     7
 10
-231.547435981828
 20
301.2200428788729
 30
0.0
  0
VERTEX
  5
2A1
  8
1
  6
CONTINUOUS
 62
     7
 10
-231.5575979947767
 20
301.3052460567984
 30
0.0
  0
VERTEX
  5
2A2
  8
1
  6
CONTINUOUS
 62
     7
 10
-231.5677600077254
 20
301.3750161262843
 30
0.0
  0
VERTEX
  5
2A3
  8
1
  6
CONTINUOUS
 62
     7
 10
-231.5779220206742
 20
301.429335427039
 30
0.0
  0
VERTEX
  5
2A4
  8
1
  6
CONTINUOUS
 62
     7
 10
-231.588084033623
 20
301.4681862987707
 30
0.0
  0
VERTEX
  5
2A5
  8
1
  6
CONTINUOUS
 62
     7
 10
-231.5982460465717
 20
301.4915510811879
 30
0.0
  0
VERTEX
  5
2A6
  8
1
  6
CONTINUOUS
 62
     7
 10
-231.6084080595204
 20
301.499412113999
 30
0.0
  0
SEQEND
  5
541
  8
1
  6
CONTINUOUS
 62
     7
  0
POLYLINE
  5
8D
  8
1
  6
CONTINUOUS
 62
     7
 66
     1
 10
0.0
 20
0.0
 30
0.0
  0
VERTEX
  5
2A7
  8
1
  6
CONTINUOUS
 62
     7
 10
-228.6331465595445
 20
270.9462550219733
 30
0.0
  0
VERTEX
  5
2A8
  8
1
  6
CONTINUOUS
 62
     7
 10
-228.6442279995547
 20
270.9970054341443
 30
0.0
  0
VERTEX
  5
2A9
  8
1
  6
CONTINUOUS
 62
     7
 10
-228.6553094395648
 20
271.0661781656511
 30
0.0
  0
VERTEX
  5
2AA
  8
1
  6
CONTINUOUS
 62
     7
 10
-228.666390879575
 20
271.1536368095277
 30
0.0
  0
VERTEX
  5
2AB
  8
1
  6
CONTINUOUS
 62
     7
 10
-228.6774723195851
 20
271.2592449588072
 30
0.0
  0
VERTEX
  5
2AC
  8
1
  6
CONTINUOUS
 62
     7
 10
-228.6885537595953
 20
271.3828662065235
 30
0.0
  0
VERTEX
  5
2AD
  8
1
  6
CONTINUOUS
 62
     7
 10
-228.6996351996054
 20
271.5243641457101
 30
0.0
  0
VERTEX
  5
2AE
  8
1
  6
CONTINUOUS
 62
     7
 10
-228.7107166396155
 20
271.6836023694007
 30
0.0
  0
VERTEX
  5
2AF
  8
1
  6
CONTINUOUS
 62
     7
 10
-228.7217980796257
 20
271.8604444706289
 30
0.0
  0
VERTEX
  5
2B0
  8
1
  6
CONTINUOUS
 62
     7
 10
-228.7328795196359
 20
272.0547540256617
 30
0.0
  0
VERTEX
  5
2B1
  8
1
  6
CONTINUOUS
 62
     7
 10
-228.743960959646
 20
272.266350627403
 30
0.0
  0
VERTEX
  5
2B2
  8
1
  6
CONTINUOUS
 62
     7
 10
-228.7550423996562
 20
272.4949145036093
 30
0.0
  0
VERTEX
  5
2B3
  8
1
  6
CONTINUOUS
 62
     7
 10
-228.7661238396663
 20
272.7400983437486
 30
0.0
  0
VERTEX
  5
2B4
  8
1
  6
CONTINUOUS
 62
     7
 10
-228.7772052796765
 20
273.0015548372888
 30
0.0
  0
VERTEX
  5
2B5
  8
1
  6
CONTINUOUS
 62
     7
 10
-228.7882867196866
 20
273.2789366736977
 30
0.0
  0
VERTEX
  5
2B6
  8
1
  6
CONTINUOUS
 62
     7
 10
-228.7993681596967
 20
273.5718965424433
 30
0.0
  0
VERTEX
  5
2B7
  8
1
  6
CONTINUOUS
 62
     7
 10
-228.8104495997069
 20
273.8800871329935
 30
0.0
  0
VERTEX
  5
2B8
  8
1
  6
CONTINUOUS
 62
     7
 10
-228.8215310397171
 20
274.2031611348162
 30
0.0
  0
VERTEX
  5
2B9
  8
1
  6
CONTINUOUS
 62
     7
 10
-228.8326124797272
 20
274.5407712373793
 30
0.0
  0
VERTEX
  5
2BA
  8
1
  6
CONTINUOUS
 62
     7
 10
-228.8436939197373
 20
274.8925701301507
 30
0.0
  0
VERTEX
  5
2BB
  8
1
  6
CONTINUOUS
 62
     7
 10
-228.8547753597475
 20
275.2581873323055
 30
0.0
  0
VERTEX
  5
2BC
  8
1
  6
CONTINUOUS
 62
     7
 10
-228.8658567997576
 20
275.6371409245944
 30
0.0
  0
VERTEX
  5
2BD
  8
1
  6
CONTINUOUS
 62
     7
 10
-228.8769382397678
 20
276.0289155268982
 30
0.0
  0
VERTEX
  5
2BE
  8
1
  6
CONTINUOUS
 62
     7
 10
-228.8880196797779
 20
276.4329957526443
 30
0.0
  0
VERTEX
  5
2BF
  8
1
  6
CONTINUOUS
 62
     7
 10
-228.8991011197881
 20
276.84886621526
 30
0.0
  0
VERTEX
  5
2C0
  8
1
  6
CONTINUOUS
 62
     7
 10
-228.9101825597983
 20
277.2760115281727
 30
0.0
  0
VERTEX
  5
2C1
  8
1
  6
CONTINUOUS
 62
     7
 10
-228.9212639998083
 20
277.7139163048097
 30
0.0
  0
VERTEX
  5
2C2
  8
1
  6
CONTINUOUS
 62
     7
 10
-228.9323454398185
 20
278.1620651585984
 30
0.0
  0
VERTEX
  5
2C3
  8
1
  6
CONTINUOUS
 62
     7
 10
-228.9434268798287
 20
278.6199427029661
 30
0.0
  0
VERTEX
  5
2C4
  8
1
  6
CONTINUOUS
 62
     7
 10
-228.9545083198388
 20
279.0870335513401
 30
0.0
  0
VERTEX
  5
2C5
  8
1
  6
CONTINUOUS
 62
     7
 10
-228.965589759849
 20
279.5628134225577
 30
0.0
  0
VERTEX
  5
2C6
  8
1
  6
CONTINUOUS
 62
     7
 10
-228.9766711998591
 20
280.0466921427932
 30
0.0
  0
VERTEX
  5
2C7
  8
1
  6
CONTINUOUS
 62
     7
 10
-228.9877526398693
 20
280.5380499437489
 30
0.0
  0
VERTEX
  5
2C8
  8
1
  6
CONTINUOUS
 62
     7
 10
-228.9988340798795
 20
281.0362669162141
 30
0.0
  0
VERTEX
  5
2C9
  8
1
  6
CONTINUOUS
 62
     7
 10
-229.0099155198896
 20
281.5407231509782
 30
0.0
  0
VERTEX
  5
2CA
  8
1
  6
CONTINUOUS
 62
     7
 10
-229.0209969598997
 20
282.0507987388305
 30
0.0
  0
VERTEX
  5
2CB
  8
1
  6
CONTINUOUS
 62
     7
 10
-229.0320783999099
 20
282.5658737705604
 30
0.0
  0
VERTEX
  5
2CC
  8
1
  6
CONTINUOUS
 62
     7
 10
-229.04315983992
 20
283.0853283369572
 30
0.0
  0
VERTEX
  5
2CD
  8
1
  6
CONTINUOUS
 62
     7
 10
-229.0542412799302
 20
283.6085425288103
 30
0.0
  0
VERTEX
  5
2CE
  8
1
  6
CONTINUOUS
 62
     7
 10
-229.0653227199404
 20
284.1348964369091
 30
0.0
  0
VERTEX
  5
2CF
  8
1
  6
CONTINUOUS
 62
     7
 10
-229.0764041599505
 20
284.6637688076103
 30
0.0
  0
VERTEX
  5
2D0
  8
1
  6
CONTINUOUS
 62
     7
 10
-229.0874855999606
 20
285.1945223637692
 30
0.0
  0
VERTEX
  5
2D1
  8
1
  6
CONTINUOUS
 62
     7
 10
-229.0985670399708
 20
285.7265093000504
 30
0.0
  0
VERTEX
  5
2D2
  8
1
  6
CONTINUOUS
 62
     7
 10
-229.1096484799809
 20
286.2590816268902
 30
0.0
  0
VERTEX
  5
2D3
  8
1
  6
CONTINUOUS
 62
     7
 10
-229.1207299199911
 20
286.7915913547253
 30
0.0
  0
VERTEX
  5
2D4
  8
1
  6
CONTINUOUS
 62
     7
 10
-229.1318113600012
 20
287.3233904939919
 30
0.0
  0
VERTEX
  5
2D5
  8
1
  6
CONTINUOUS
 62
     7
 10
-229.1428928000114
 20
287.8538310551266
 30
0.0
  0
VERTEX
  5
2D6
  8
1
  6
CONTINUOUS
 62
     7
 10
-229.1539742400215
 20
288.382265048566
 30
0.0
  0
VERTEX
  5
2D7
  8
1
  6
CONTINUOUS
 62
     7
 10
-229.1650556800317
 20
288.9080444847464
 30
0.0
  0
VERTEX
  5
2D8
  8
1
  6
CONTINUOUS
 62
     7
 10
-229.1761371200418
 20
289.4305213741042
 30
0.0
  0
VERTEX
  5
2D9
  8
1
  6
CONTINUOUS
 62
     7
 10
-229.187218560052
 20
289.9490489443013
 30
0.0
  0
VERTEX
  5
2DA
  8
1
  6
CONTINUOUS
 62
     7
 10
-229.1983000000621
 20
290.4630059104402
 30
0.0
  0
VERTEX
  5
2DB
  8
1
  6
CONTINUOUS
 62
     7
 10
-229.2093814400723
 20
290.9717951546368
 30
0.0
  0
VERTEX
  5
2DC
  8
1
  6
CONTINUOUS
 62
     7
 10
-229.2204628800824
 20
291.4748205119126
 30
0.0
  0
VERTEX
  5
2DD
  8
1
  6
CONTINUOUS
 62
     7
 10
-229.2315443200926
 20
291.971485817289
 30
0.0
  0
VERTEX
  5
2DE
  8
1
  6
CONTINUOUS
 62
     7
 10
-229.2426257601027
 20
292.4611949057872
 30
0.0
  0
VERTEX
  5
2DF
  8
1
  6
CONTINUOUS
 62
     7
 10
-229.2537072001129
 20
292.9433516124286
 30
0.0
  0
VERTEX
  5
2E0
  8
1
  6
CONTINUOUS
 62
     7
 10
-229.264788640123
 20
293.4173597722344
 30
0.0
  0
VERTEX
  5
2E1
  8
1
  6
CONTINUOUS
 62
     7
 10
-229.2758700801332
 20
293.8826232202263
 30
0.0
  0
VERTEX
  5
2E2
  8
1
  6
CONTINUOUS
 62
     7
 10
-229.2869515201433
 20
294.3385457914254
 30
0.0
  0
VERTEX
  5
2E3
  8
1
  6
CONTINUOUS
 62
     7
 10
-229.2980329601534
 20
294.7845324757735
 30
0.0
  0
VERTEX
  5
2E4
  8
1
  6
CONTINUOUS
 62
     7
 10
-229.3091144001636
 20
295.2200386574105
 30
0.0
  0
VERTEX
  5
2E5
  8
1
  6
CONTINUOUS
 62
     7
 10
-229.3201958401738
 20
295.644588554597
 30
0.0
  0
VERTEX
  5
2E6
  8
1
  6
CONTINUOUS
 62
     7
 10
-229.3312772801839
 20
296.0577113412783
 30
0.0
  0
VERTEX
  5
2E7
  8
1
  6
CONTINUOUS
 62
     7
 10
-229.342358720194
 20
296.4589361913995
 30
0.0
  0
VERTEX
  5
2E8
  8
1
  6
CONTINUOUS
 62
     7
 10
-229.3534401602042
 20
296.8477922789057
 30
0.0
  0
VERTEX
  5
2E9
  8
1
  6
CONTINUOUS
 62
     7
 10
-229.3645216002143
 20
297.223808777742
 30
0.0
  0
VERTEX
  5
2EA
  8
1
  6
CONTINUOUS
 62
     7
 10
-229.3756030402245
 20
297.5865148618536
 30
0.0
  0
VERTEX
  5
2EB
  8
1
  6
CONTINUOUS
 62
     7
 10
-229.3866844802346
 20
297.9354397051855
 30
0.0
  0
VERTEX
  5
2EC
  8
1
  6
CONTINUOUS
 62
     7
 10
-229.3977659202448
 20
298.270112481683
 30
0.0
  0
VERTEX
  5
2ED
  8
1
  6
CONTINUOUS
 62
     7
 10
-229.4088473602549
 20
298.5900627959078
 30
0.0
  0
VERTEX
  5
2EE
  8
1
  6
CONTINUOUS
 62
     7
 10
-229.419928800265
 20
298.8948770225868
 30
0.0
  0
VERTEX
  5
2EF
  8
1
  6
CONTINUOUS
 62
     7
 10
-229.4310102402752
 20
299.184254395521
 30
0.0
  0
VERTEX
  5
2F0
  8
1
  6
CONTINUOUS
 62
     7
 10
-229.4420916802854
 20
299.4579074861163
 30
0.0
  0
VERTEX
  5
2F1
  8
1
  6
CONTINUOUS
 62
     7
 10
-229.4531731202955
 20
299.7155488657784
 30
0.0
  0
VERTEX
  5
2F2
  8
1
  6
CONTINUOUS
 62
     7
 10
-229.4642545603057
 20
299.9568911059133
 30
0.0
  0
VERTEX
  5
2F3
  8
1
  6
CONTINUOUS
 62
     7
 10
-229.4753360003158
 20
300.181646777927
 30
0.0
  0
VERTEX
  5
2F4
  8
1
  6
CONTINUOUS
 62
     7
 10
-229.486417440326
 20
300.3895284532251
 30
0.0
  0
VERTEX
  5
2F5
  8
1
  6
CONTINUOUS
 62
     7
 10
-229.4974988803361
 20
300.5802487032136
 30
0.0
  0
VERTEX
  5
2F6
  8
1
  6
CONTINUOUS
 62
     7
 10
-229.5085803203463
 20
300.7535200992983
 30
0.0
  0
VERTEX
  5
2F7
  8
1
  6
CONTINUOUS
 62
     7
 10
-229.5196617603564
 20
300.9090552516848
 30
0.0
  0
VERTEX
  5
2F8
  8
1
  6
CONTINUOUS
 62
     7
 10
-229.5307432003666
 20
301.0466154377762
 30
0.0
  0
VERTEX
  5
2F9
  8
1
  6
CONTINUOUS
 62
     7
 10
-229.5418246403767
 20
301.1661056648026
 30
0.0
  0
VERTEX
  5
2FA
  8
1
  6
CONTINUOUS
 62
     7
 10
-229.5529060803869
 20
301.2674573450467
 30
0.0
  0
VERTEX
  5
2FB
  8
1
  6
CONTINUOUS
 62
     7
 10
-229.563987520397
 20
301.3506018907907
 30
0.0
  0
VERTEX
  5
2FC
  8
1
  6
CONTINUOUS
 62
     7
 10
-229.5750689604072
 20
301.4154707143169
 30
0.0
  0
VERTEX
  5
2FD
  8
1
  6
CONTINUOUS
 62
     7
 10
-229.5861504004174
 20
301.4619952279079
 30
0.0
  0
VERTEX
  5
2FE
  8
1
  6
CONTINUOUS
 62
     7
 10
-229.5972318404275
 20
301.4901068438458
 30
0.0
  0
VERTEX
  5
2FF
  8
1
  6
CONTINUOUS
 62
     7
 10
-229.6083132804376
 20
301.4997369744128
 30
0.0
  0
SEQEND
  5
542
  8
1
  6
CONTINUOUS
 62
     7
  0
LINE
  5
8E
  8
1
  6
CONTINUOUS
 62
     7
 10
-227.8763673761319
 20
300.5
 30
0.0
 11
-227.6084181837008
 21
301.5
 31
0.0
  0
LINE
  5
8F
  8
1
  6
CONTINUOUS
 62
     7
 10
-228.9999628797857
 20
272.9645048839959
 30
0.0
 11
-228.9027814521851
 21
271.9492069643988
 31
0.0
  0
LINE
  5
90
  8
1
  6
CONTINUOUS
 62
     7
 10
-229.1123224332178
 20
275.652198227978
 30
0.0
 11
-228.9999628797857
 21
272.9645048839959
 31
0.0
  0
LINE
  5
91
  8
1
  6
CONTINUOUS
 62
     7
 10
-229.2246819825391
 20
279.6405627752387
 30
0.0
 11
-229.1123224332178
 21
275.652198227978
 31
0.0
  0
LINE
  5
92
  8
1
  6
CONTINUOUS
 62
     7
 10
-229.3370415335298
 20
284.43778518084
 30
0.0
 11
-229.2246819825391
 21
279.6405627752387
 31
0.0
  0
LINE
  5
93
  8
1
  6
CONTINUOUS
 62
     7
 10
-229.4494010839696
 20
289.4523099263221
 30
0.0
 11
-229.3370415335298
 21
284.43778518084
 31
0.0
  0
LINE
  5
94
  8
1
  6
CONTINUOUS
 62
     7
 10
-229.5617606345636
 20
294.065785599549
 30
0.0
 11
-229.4494010839696
 21
289.4523099263221
 31
0.0
  0
LINE
  5
95
  8
1
  6
CONTINUOUS
 62
     7
 10
-229.6741201851183
 20
297.7093149434939
 30
0.0
 11
-229.5617606345636
 21
294.065785599549
 31
0.0
  0
LINE
  5
96
  8
1
  6
CONTINUOUS
 62
     7
 10
-229.7864797356814
 20
299.9336068037592
 30
0.0
 11
-229.6741201851183
 21
297.7093149434939
 31
0.0
  0
LINE
  5
97
  8
1
  6
CONTINUOUS
 62
     7
 10
-231.0224347918611
 20
273.3793739114396
 30
0.0
 11
-230.9100752412993
 21
271.9801053908574
 31
0.0
  0
LINE
  5
98
  8
1
  6
CONTINUOUS
 62
     7
 10
-231.1347943424229
 20
276.359580411564
 30
0.0
 11
-231.0224347918611
 21
273.3793739114396
 31
0.0
  0
LINE
  5
99
  8
1
  6
CONTINUOUS
 62
     7
 10
-231.2471538929847
 20
280.5532294498706
 30
0.0
 11
-231.1347943424229
 21
276.359580411564
 31
0.0
  0
LINE
  5
9A
  8
1
  6
CONTINUOUS
 62
     7
 10
-231.3595134435465
 20
285.4431934702086
 30
0.0
 11
-231.2471538929847
 21
280.5532294498706
 31
0.0
  0
LINE
  5
9B
  8
1
  6
CONTINUOUS
 62
     7
 10
-231.4718729941082
 20
290.4264808725569
 30
0.0
 11
-231.3595134435465
 21
285.4431934702086
 31
0.0
  0
LINE
  5
9C
  8
1
  6
CONTINUOUS
 62
     7
 10
-231.5842325446701
 20
294.8885921572162
 30
0.0
 11
-231.4718729941082
 21
290.4264808725569
 31
0.0
  0
LINE
  5
9D
  8
1
  6
CONTINUOUS
 62
     7
 10
-231.6965920952318
 20
298.2792951319165
 30
0.0
 11
-231.5842325446701
 21
294.8885921572162
 31
0.0
  0
LINE
  5
9E
  8
1
  6
CONTINUOUS
 62
     7
 10
-231.8089516457937
 20
300.1804751840857
 30
0.0
 11
-231.6965920952318
 21
298.2792951319165
 31
0.0
  0
LINE
  5
9F
  8
1
  6
CONTINUOUS
 62
     7
 10
-232.9325471514117
 20
272.1221456118639
 30
0.0
 11
-232.9027881148305
 21
271.9492317770736
 31
0.0
  0
LINE
  5
A0
  8
1
  6
CONTINUOUS
 62
     7
 10
-233.0449067019734
 20
273.8581146197722
 30
0.0
 11
-232.9325471514117
 21
272.1221456118639
 31
0.0
  0
LINE
  5
A1
  8
1
  6
CONTINUOUS
 62
     7
 10
-233.1572662525352
 20
277.1159870980692
 30
0.0
 11
-233.0449067019734
 21
273.8581146197722
 31
0.0
  0
LINE
  5
A2
  8
1
  6
CONTINUOUS
 62
     7
 10
-233.269625803097
 20
281.494028038043
 30
0.0
 11
-233.1572662525352
 21
277.1159870980692
 31
0.0
  0
LINE
  5
A3
  8
1
  6
CONTINUOUS
 62
     7
 10
-233.6067044547825
 20
295.6681125860238
 30
0.0
 11
-233.4943449042207
 21
291.3795957025357
 31
0.0
  0
LINE
  5
A4
  8
1
  6
CONTINUOUS
 62
     7
 10
-233.7190640053441
 20
298.7890968795678
 30
0.0
 11
-233.6067044547825
 21
295.6681125860238
 31
0.0
  0
LINE
  5
A5
  8
1
  6
CONTINUOUS
 62
     7
 10
-233.831423555906
 20
300.3576935402849
 30
0.0
 11
-233.7190640053441
 21
298.7890968795678
 31
0.0
  0
LINE
  5
A6
  8
1
  6
CONTINUOUS
 62
     7
 10
-234.9550190615241
 20
272.3343209952954
 30
0.0
 11
-234.902710638597
 21
271.9489436299709
 31
0.0
  0
LINE
  5
A7
  8
1
  6
CONTINUOUS
 62
     7
 10
-235.0673786120859
 20
274.3983419802545
 30
0.0
 11
-234.9550190615241
 21
272.3343209952954
 31
0.0
  0
LINE
  5
A8
  8
1
  6
CONTINUOUS
 62
     7
 10
-235.1797381626477
 20
277.9176498799172
 30
0.0
 11
-235.0673786120859
 21
274.3983419802545
 31
0.0
  0
LINE
  5
A9
  8
1
  6
CONTINUOUS
 62
     7
 10
-235.1923927799163
 20
278.3875157505775
 30
0.0
 11
-235.1797381626477
 21
277.9176498799172
 31
0.0
  0
POLYLINE
  5
AA
  8
1
  6
CONTINUOUS
 62
     7
 66
     1
 10
0.0
 20
0.0
 30
0.0
  0
VERTEX
  5
300
  8
1
  6
CONTINUOUS
 62
     7
 10
-228.9517629407813
 20
301.453714723037
 30
0.0
  0
VERTEX
  5
301
  8
1
  6
CONTINUOUS
 62
     7
 10
-228.9416016447317
 20
301.4081999978709
 30
0.0
  0
VERTEX
  5
302
  8
1
  6
CONTINUOUS
 62
     7
 10
-228.9314403486819
 20
301.3472682831005
 30
0.0
  0
VERTEX
  5
303
  8
1
  6
CONTINUOUS
 62
     7
 10
-228.9212790526323
 20
301.2709724603443
 30
0.0
  0
VERTEX
  5
304
  8
1
  6
CONTINUOUS
 62
     7
 10
-228.9111177565826
 20
301.1793654112207
 30
0.0
  0
VERTEX
  5
305
  8
1
  6
CONTINUOUS
 62
     7
 10
-228.9009564605328
 20
301.0725000173479
 30
0.0
  0
VERTEX
  5
306
  8
1
  6
CONTINUOUS
 62
     7
 10
-228.8907951644832
 20
300.9504291603445
 30
0.0
  0
VERTEX
  5
307
  8
1
  6
CONTINUOUS
 62
     7
 10
-228.8806338684335
 20
300.8132110765325
 30
0.0
  0
VERTEX
  5
308
  8
1
  6
CONTINUOUS
 62
     7
 10
-228.8704725723838
 20
300.6609925173435
 30
0.0
  0
VERTEX
  5
309
  8
1
  6
CONTINUOUS
 62
     7
 10
-228.8603112763342
 20
300.4939929383273
 30
0.0
  0
VERTEX
  5
30A
  8
1
  6
CONTINUOUS
 62
     7
 10
-228.8501499802844
 20
300.3124339491069
 30
0.0
  0
VERTEX
  5
30B
  8
1
  6
CONTINUOUS
 62
     7
 10
-228.8399886842348
 20
300.1165371593053
 30
0.0
  0
VERTEX
  5
30C
  8
1
  6
CONTINUOUS
 62
     7
 10
-228.8298273881851
 20
299.9065241785456
 30
0.0
  0
VERTEX
  5
30D
  8
1
  6
CONTINUOUS
 62
     7
 10
-228.8196660921354
 20
299.6826166164506
 30
0.0
  0
VERTEX
  5
30E
  8
1
  6
CONTINUOUS
 62
     7
 10
-228.8095047960857
 20
299.4450360826434
 30
0.0
  0
VERTEX
  5
30F
  8
1
  6
CONTINUOUS
 62
     7
 10
-228.799343500036
 20
299.1940041867472
 30
0.0
  0
VERTEX
  5
310
  8
1
  6
CONTINUOUS
 62
     7
 10
-228.7891822039863
 20
298.9297425383849
 30
0.0
  0
VERTEX
  5
311
  8
1
  6
CONTINUOUS
 62
     7
 10
-228.7790209079366
 20
298.6524727471793
 30
0.0
  0
VERTEX
  5
312
  8
1
  6
CONTINUOUS
 62
     7
 10
-228.7688596118869
 20
298.3624196927911
 30
0.0
  0
VERTEX
  5
313
  8
1
  6
CONTINUOUS
 62
     7
 10
-228.7586983158372
 20
298.0598775628425
 30
0.0
  0
VERTEX
  5
314
  8
1
  6
CONTINUOUS
 62
     7
 10
-228.7485370197876
 20
297.7452067239871
 30
0.0
  0
VERTEX
  5
315
  8
1
  6
CONTINUOUS
 62
     7
 10
-228.7383757237379
 20
297.4187701867103
 30
0.0
  0
VERTEX
  5
316
  8
1
  6
CONTINUOUS
 62
     7
 10
-228.7282144276882
 20
297.080930961498
 30
0.0
  0
VERTEX
  5
317
  8
1
  6
CONTINUOUS
 62
     7
 10
-228.7180531316385
 20
296.7320520588358
 30
0.0
  0
VERTEX
  5
318
  8
1
  6
CONTINUOUS
 62
     7
 10
-228.7078918355888
 20
296.3724964892095
 30
0.0
  0
VERTEX
  5
319
  8
1
  6
CONTINUOUS
 62
     7
 10
-228.6977305395391
 20
296.0026272631047
 30
0.0
  0
VERTEX
  5
31A
  8
1
  6
CONTINUOUS
 62
     7
 10
-228.6875692434894
 20
295.622807391007
 30
0.0
  0
VERTEX
  5
31B
  8
1
  6
CONTINUOUS
 62
     7
 10
-228.6774079474397
 20
295.2333998834024
 30
0.0
  0
VERTEX
  5
31C
  8
1
  6
CONTINUOUS
 62
     7
 10
-228.6672466513901
 20
294.8347677507762
 30
0.0
  0
VERTEX
  5
31D
  8
1
  6
CONTINUOUS
 62
     7
 10
-228.6570853553404
 20
294.4272755724189
 30
0.0
  0
VERTEX
  5
31E
  8
1
  6
CONTINUOUS
 62
     7
 10
-228.6469240592907
 20
294.011331788111
 30
0.0
  0
VERTEX
  5
31F
  8
1
  6
CONTINUOUS
 62
     7
 10
-228.636762763241
 20
293.5873935109781
 30
0.0
  0
VERTEX
  5
320
  8
1
  6
CONTINUOUS
 62
     7
 10
-228.6266014671913
 20
293.1559203887927
 30
0.0
  0
VERTEX
  5
321
  8
1
  6
CONTINUOUS
 62
     7
 10
-228.6164401711416
 20
292.7173720693276
 30
0.0
  0
VERTEX
  5
322
  8
1
  6
CONTINUOUS
 62
     7
 10
-228.6062788750919
 20
292.2722082003557
 30
0.0
  0
VERTEX
  5
323
  8
1
  6
CONTINUOUS
 62
     7
 10
-228.5961175790422
 20
291.8208884296496
 30
0.0
  0
VERTEX
  5
324
  8
1
  6
CONTINUOUS
 62
     7
 10
-228.5859562829926
 20
291.3638724049824
 30
0.0
  0
VERTEX
  5
325
  8
1
  6
CONTINUOUS
 62
     7
 10
-228.5757949869428
 20
290.9016197741263
 30
0.0
  0
VERTEX
  5
326
  8
1
  6
CONTINUOUS
 62
     7
 10
-228.5656336908932
 20
290.4345901848546
 30
0.0
  0
VERTEX
  5
327
  8
1
  6
CONTINUOUS
 62
     7
 10
-228.5554723948435
 20
289.9632432849399
 30
0.0
  0
VERTEX
  5
328
  8
1
  6
CONTINUOUS
 62
     7
 10
-228.5453110987938
 20
289.4880391564263
 30
0.0
  0
VERTEX
  5
329
  8
1
  6
CONTINUOUS
 62
     7
 10
-228.5351498027441
 20
289.0094545163327
 30
0.0
  0
VERTEX
  5
32A
  8
1
  6
CONTINUOUS
 62
     7
 10
-228.5249885066945
 20
288.5279875490919
 30
0.0
  0
VERTEX
  5
32B
  8
1
  6
CONTINUOUS
 62
     7
 10
-228.5148272106448
 20
288.0441378596446
 30
0.0
  0
VERTEX
  5
32C
  8
1
  6
CONTINUOUS
 62
     7
 10
-228.5046659145951
 20
287.5584050529311
 30
0.0
  0
VERTEX
  5
32D
  8
1
  6
CONTINUOUS
 62
     7
 10
-228.4945046185454
 20
287.0712887338919
 30
0.0
  0
VERTEX
  5
32E
  8
1
  6
CONTINUOUS
 62
     7
 10
-228.4843433224957
 20
286.5832885074677
 30
0.0
  0
VERTEX
  5
32F
  8
1
  6
CONTINUOUS
 62
     7
 10
-228.474182026446
 20
286.0949039785989
 30
0.0
  0
VERTEX
  5
330
  8
1
  6
CONTINUOUS
 62
     7
 10
-228.4640207303963
 20
285.6066347522258
 30
0.0
  0
VERTEX
  5
331
  8
1
  6
CONTINUOUS
 62
     7
 10
-228.4538594343467
 20
285.1189804332893
 30
0.0
  0
VERTEX
  5
332
  8
1
  6
CONTINUOUS
 62
     7
 10
-228.443698138297
 20
284.6324406267295
 30
0.0
  0
VERTEX
  5
333
  8
1
  6
CONTINUOUS
 62
     7
 10
-228.4335368422473
 20
284.147514789436
 30
0.0
  0
VERTEX
  5
334
  8
1
  6
CONTINUOUS
 62
     7
 10
-228.4233755461976
 20
283.664694192707
 30
0.0
  0
VERTEX
  5
335
  8
1
  6
CONTINUOUS
 62
     7
 10
-228.4132142501479
 20
283.1844578057558
 30
0.0
  0
VERTEX
  5
336
  8
1
  6
CONTINUOUS
 62
     7
 10
-228.4030529540982
 20
282.7072835833684
 30
0.0
  0
VERTEX
  5
337
  8
1
  6
CONTINUOUS
 62
     7
 10
-228.3928916580486
 20
282.2336494803312
 30
0.0
  0
VERTEX
  5
338
  8
1
  6
CONTINUOUS
 62
     7
 10
-228.3827303619988
 20
281.7640334514305
 30
0.0
  0
VERTEX
  5
339
  8
1
  6
CONTINUOUS
 62
     7
 10
-228.3725690659491
 20
281.2989134514524
 30
0.0
  0
VERTEX
  5
33A
  8
1
  6
CONTINUOUS
 62
     7
 10
-228.3624077698995
 20
280.8387674351833
 30
0.0
  0
VERTEX
  5
33B
  8
1
  6
CONTINUOUS
 62
     7
 10
-228.3522464738497
 20
280.3840733574094
 30
0.0
  0
VERTEX
  5
33C
  8
1
  6
CONTINUOUS
 62
     7
 10
-228.3420851778001
 20
279.9353091729168
 30
0.0
  0
VERTEX
  5
33D
  8
1
  6
CONTINUOUS
 62
     7
 10
-228.3319238817504
 20
279.492952836492
 30
0.0
  0
VERTEX
  5
33E
  8
1
  6
CONTINUOUS
 62
     7
 10
-228.3217625857007
 20
279.0574819843914
 30
0.0
  0
VERTEX
  5
33F
  8
1
  6
CONTINUOUS
 62
     7
 10
-228.311601289651
 20
278.6293468744769
 30
0.0
  0
VERTEX
  5
340
  8
1
  6
CONTINUOUS
 62
     7
 10
-228.3014399936013
 20
278.2089497359326
 30
0.0
  0
VERTEX
  5
341
  8
1
  6
CONTINUOUS
 62
     7
 10
-228.2912786975516
 20
277.7966879357988
 30
0.0
  0
VERTEX
  5
342
  8
1
  6
CONTINUOUS
 62
     7
 10
-228.281117401502
 20
277.3929588411156
 30
0.0
  0
VERTEX
  5
343
  8
1
  6
CONTINUOUS
 62
     7
 10
-228.2709561054523
 20
276.998159818923
 30
0.0
  0
VERTEX
  5
344
  8
1
  6
CONTINUOUS
 62
     7
 10
-228.2607948094026
 20
276.6126882362614
 30
0.0
  0
VERTEX
  5
345
  8
1
  6
CONTINUOUS
 62
     7
 10
-228.2506335133529
 20
276.2369414601707
 30
0.0
  0
VERTEX
  5
346
  8
1
  6
CONTINUOUS
 62
     7
 10
-228.2404722173032
 20
275.8713168576913
 30
0.0
  0
VERTEX
  5
347
  8
1
  6
CONTINUOUS
 62
     7
 10
-228.2303109212535
 20
275.5162117958632
 30
0.0
  0
VERTEX
  5
348
  8
1
  6
CONTINUOUS
 62
     7
 10
-228.2201496252038
 20
275.1720236417266
 30
0.0
  0
VERTEX
  5
349
  8
1
  6
CONTINUOUS
 62
     7
 10
-228.2099883291541
 20
274.8391495005479
 30
0.0
  0
VERTEX
  5
34A
  8
1
  6
CONTINUOUS
 62
     7
 10
-228.1998270331045
 20
274.5179473625959
 30
0.0
  0
VERTEX
  5
34B
  8
1
  6
CONTINUOUS
 62
     7
 10
-228.1896657370548
 20
274.2086948785189
 30
0.0
  0
VERTEX
  5
34C
  8
1
  6
CONTINUOUS
 62
     7
 10
-228.1795044410051
 20
273.9116598274454
 30
0.0
  0
VERTEX
  5
34D
  8
1
  6
CONTINUOUS
 62
     7
 10
-228.1693431449554
 20
273.6271099885035
 30
0.0
  0
VERTEX
  5
34E
  8
1
  6
CONTINUOUS
 62
     7
 10
-228.1591818489057
 20
273.3553131408217
 30
0.0
  0
VERTEX
  5
34F
  8
1
  6
CONTINUOUS
 62
     7
 10
-228.149020552856
 20
273.0965370635283
 30
0.0
  0
VERTEX
  5
350
  8
1
  6
CONTINUOUS
 62
     7
 10
-228.1388592568063
 20
272.8510495357517
 30
0.0
  0
VERTEX
  5
351
  8
1
  6
CONTINUOUS
 62
     7
 10
-228.1286979607567
 20
272.6191183366201
 30
0.0
  0
VERTEX
  5
352
  8
1
  6
CONTINUOUS
 62
     7
 10
-228.1185366647069
 20
272.4010112452619
 30
0.0
  0
VERTEX
  5
353
  8
1
  6
CONTINUOUS
 62
     7
 10
-228.1083753686573
 20
272.1969960408055
 30
0.0
  0
VERTEX
  5
354
  8
1
  6
CONTINUOUS
 62
     7
 10
-228.0982140726076
 20
272.0073403642226
 30
0.0
  0
VERTEX
  5
355
  8
1
  6
CONTINUOUS
 62
     7
 10
-228.0880527765579
 20
271.8322687684973
 30
0.0
  0
VERTEX
  5
356
  8
1
  6
CONTINUOUS
 62
     7
 10
-228.0778914805082
 20
271.6719018031067
 30
0.0
  0
VERTEX
  5
357
  8
1
  6
CONTINUOUS
 62
     7
 10
-228.0677301844585
 20
271.5263446389113
 30
0.0
  0
VERTEX
  5
358
  8
1
  6
CONTINUOUS
 62
     7
 10
-228.0575688884089
 20
271.3957024467722
 30
0.0
  0
VERTEX
  5
359
  8
1
  6
CONTINUOUS
 62
     7
 10
-228.0474075923591
 20
271.2800803975498
 30
0.0
  0
VERTEX
  5
35A
  8
1
  6
CONTINUOUS
 62
     7
 10
-228.0372462963094
 20
271.179583662105
 30
0.0
  0
VERTEX
  5
35B
  8
1
  6
CONTINUOUS
 62
     7
 10
-228.0270850002598
 20
271.0943174112984
 30
0.0
  0
VERTEX
  5
35C
  8
1
  6
CONTINUOUS
 62
     7
 10
-228.0169237042101
 20
271.0243868159909
 30
0.0
  0
VERTEX
  5
35D
  8
1
  6
CONTINUOUS
 62
     7
 10
-228.0067624081604
 20
270.9698970470432
 30
0.0
  0
VERTEX
  5
35E
  8
1
  6
CONTINUOUS
 62
     7
 10
-227.9966011121107
 20
270.9309532753159
 30
0.0
  0
VERTEX
  5
35F
  8
1
  6
CONTINUOUS
 62
     7
 10
-227.9864398160611
 20
270.9076606277372
 30
0.0
  0
VERTEX
  5
360
  8
1
  6
CONTINUOUS
 62
     7
 10
-227.9762785200113
 20
270.9000838969303
 30
0.0
  0
SEQEND
  5
543
  8
1
  6
CONTINUOUS
 62
     7
  0
POLYLINE
  5
AB
  8
1
  6
CONTINUOUS
 62
     7
 66
     1
 10
0.0
 20
0.0
 30
0.0
  0
VERTEX
  5
361
  8
1
  6
CONTINUOUS
 62
     7
 10
-230.951603696744
 20
301.4531545499428
 30
0.0
  0
VERTEX
  5
362
  8
1
  6
CONTINUOUS
 62
     7
 10
-230.9414445622751
 20
301.4075741033785
 30
0.0
  0
VERTEX
  5
363
  8
1
  6
CONTINUOUS
 62
     7
 10
-230.931285427806
 20
301.346541678151
 30
0.0
  0
VERTEX
  5
364
  8
1
  6
CONTINUOUS
 62
     7
 10
-230.921126293337
 20
301.270074919509
 30
0.0
  0
VERTEX
  5
365
  8
1
  6
CONTINUOUS
 62
     7
 10
-230.9109671588681
 20
301.1781914727007
 30
0.0
  0
VERTEX
  5
366
  8
1
  6
CONTINUOUS
 62
     7
 10
-230.9008080243991
 20
301.0709237189419
 30
0.0
  0
VERTEX
  5
367
  8
1
  6
CONTINUOUS
 62
     7
 10
-230.89064888993
 20
300.9484123876609
 30
0.0
  0
VERTEX
  5
368
  8
1
  6
CONTINUOUS
 62
     7
 10
-230.8804897554611
 20
300.8108465520876
 30
0.0
  0
VERTEX
  5
369
  8
1
  6
CONTINUOUS
 62
     7
 10
-230.8703306209921
 20
300.6584155088516
 30
0.0
  0
VERTEX
  5
36A
  8
1
  6
CONTINUOUS
 62
     7
 10
-230.8601714865231
 20
300.4913085545827
 30
0.0
  0
VERTEX
  5
36B
  8
1
  6
CONTINUOUS
 62
     7
 10
-230.8500123520542
 20
300.3097149859105
 30
0.0
  0
VERTEX
  5
36C
  8
1
  6
CONTINUOUS
 62
     7
 10
-230.8398532175852
 20
300.1138240994645
 30
0.0
  0
VERTEX
  5
36D
  8
1
  6
CONTINUOUS
 62
     7
 10
-230.8296940831162
 20
299.9038251918745
 30
0.0
  0
VERTEX
  5
36E
  8
1
  6
CONTINUOUS
 62
     7
 10
-230.8195349486472
 20
299.6799075597702
 30
0.0
  0
VERTEX
  5
36F
  8
1
  6
CONTINUOUS
 62
     7
 10
-230.8093758141782
 20
299.4422604997811
 30
0.0
  0
VERTEX
  5
370
  8
1
  6
CONTINUOUS
 62
     7
 10
-230.7992166797093
 20
299.1910733085371
 30
0.0
  0
VERTEX
  5
371
  8
1
  6
CONTINUOUS
 62
     7
 10
-230.7890575452403
 20
298.9265453663129
 30
0.0
  0
VERTEX
  5
372
  8
1
  6
CONTINUOUS
 62
     7
 10
-230.7788984107713
 20
298.6489663059515
 30
0.0
  0
VERTEX
  5
373
  8
1
  6
CONTINUOUS
 62
     7
 10
-230.7687392763024
 20
298.3586733066905
 30
0.0
  0
VERTEX
  5
374
  8
1
  6
CONTINUOUS
 62
     7
 10
-230.7585801418334
 20
298.0560039739812
 30
0.0
  0
VERTEX
  5
375
  8
1
  6
CONTINUOUS
 62
     7
 10
-230.7484210073644
 20
297.7412959132745
 30
0.0
  0
VERTEX
  5
376
  8
1
  6
CONTINUOUS
 62
     7
 10
-230.7382618728954
 20
297.4148867300216
 30
0.0
  0
VERTEX
  5
377
  8
1
  6
CONTINUOUS
 62
     7
 10
-230.7281027384264
 20
297.0771140296736
 30
0.0
  0
VERTEX
  5
378
  8
1
  6
CONTINUOUS
 62
     7
 10
-230.7179436039575
 20
296.7283154176819
 30
0.0
  0
VERTEX
  5
379
  8
1
  6
CONTINUOUS
 62
     7
 10
-230.7077844694884
 20
296.3688284994974
 30
0.0
  0
VERTEX
  5
37A
  8
1
  6
CONTINUOUS
 62
     7
 10
-230.6976253350195
 20
295.9989908805714
 30
0.0
  0
VERTEX
  5
37B
  8
1
  6
CONTINUOUS
 62
     7
 10
-230.6874662005505
 20
295.619140166355
 30
0.0
  0
VERTEX
  5
37C
  8
1
  6
CONTINUOUS
 62
     7
 10
-230.6773070660815
 20
295.2296195948205
 30
0.0
  0
VERTEX
  5
37D
  8
1
  6
CONTINUOUS
 62
     7
 10
-230.6671479316125
 20
294.8308344346205
 30
0.0
  0
VERTEX
  5
37E
  8
1
  6
CONTINUOUS
 62
     7
 10
-230.6569887971436
 20
294.4232283958298
 30
0.0
  0
VERTEX
  5
37F
  8
1
  6
CONTINUOUS
 62
     7
 10
-230.6468296626746
 20
294.0072457618928
 30
0.0
  0
VERTEX
  5
380
  8
1
  6
CONTINUOUS
 62
     7
 10
-230.6366705282056
 20
293.5833308162544
 30
0.0
  0
VERTEX
  5
381
  8
1
  6
CONTINUOUS
 62
     7
 10
-230.6265113937366
 20
293.1519278423591
 30
0.0
  0
VERTEX
  5
382
  8
1
  6
CONTINUOUS
 62
     7
 10
-230.6163522592677
 20
292.7134811236515
 30
0.0
  0
VERTEX
  5
383
  8
1
  6
CONTINUOUS
 62
     7
 10
-230.6061931247987
 20
292.2684349435763
 30
0.0
  0
VERTEX
  5
384
  8
1
  6
CONTINUOUS
 62
     7
 10
-230.5960339903297
 20
291.817233585578
 30
0.0
  0
VERTEX
  5
385
  8
1
  6
CONTINUOUS
 62
     7
 10
-230.5858748558607
 20
291.3603213331014
 30
0.0
  0
VERTEX
  5
386
  8
1
  6
CONTINUOUS
 62
     7
 10
-230.5757157213917
 20
290.8981424695911
 30
0.0
  0
VERTEX
  5
387
  8
1
  6
CONTINUOUS
 62
     7
 10
-230.5655565869228
 20
290.4311433571993
 30
0.0
  0
VERTEX
  5
388
  8
1
  6
CONTINUOUS
 62
     7
 10
-230.5553974524538
 20
289.9597989326961
 30
0.0
  0
VERTEX
  5
389
  8
1
  6
CONTINUOUS
 62
     7
 10
-230.5452383179848
 20
289.4846049039469
 30
0.0
  0
VERTEX
  5
38A
  8
1
  6
CONTINUOUS
 62
     7
 10
-230.5350791835158
 20
289.0060574468774
 30
0.0
  0
VERTEX
  5
38B
  8
1
  6
CONTINUOUS
 62
     7
 10
-230.5249200490468
 20
288.524652737413
 30
0.0
  0
VERTEX
  5
38C
  8
1
  6
CONTINUOUS
 62
     7
 10
-230.5147609145778
 20
288.0408869514793
 30
0.0
  0
VERTEX
  5
38D
  8
1
  6
CONTINUOUS
 62
     7
 10
-230.5046017801088
 20
287.5552562650018
 30
0.0
  0
VERTEX
  5
38E
  8
1
  6
CONTINUOUS
 62
     7
 10
-230.4944426456399
 20
287.0682568539062
 30
0.0
  0
VERTEX
  5
38F
  8
1
  6
CONTINUOUS
 62
     7
 10
-230.4842835111708
 20
286.580384894118
 30
0.0
  0
VERTEX
  5
390
  8
1
  6
CONTINUOUS
 62
     7
 10
-230.4741243767019
 20
286.0921365615629
 30
0.0
  0
VERTEX
  5
391
  8
1
  6
CONTINUOUS
 62
     7
 10
-230.4639652422329
 20
285.6040080321662
 30
0.0
  0
VERTEX
  5
392
  8
1
  6
CONTINUOUS
 62
     7
 10
-230.453806107764
 20
285.1164952072616
 30
0.0
  0
VERTEX
  5
393
  8
1
  6
CONTINUOUS
 62
     7
 10
-230.4436469732949
 20
284.6300891868656
 30
0.0
  0
VERTEX
  5
394
  8
1
  6
CONTINUOUS
 62
     7
 10
-230.433487838826
 20
284.1452769852182
 30
0.0
  0
VERTEX
  5
395
  8
1
  6
CONTINUOUS
 62
     7
 10
-230.423328704357
 20
283.6625454862437
 30
0.0
  0
VERTEX
  5
396
  8
1
  6
CONTINUOUS
 62
     7
 10
-230.413169569888
 20
283.1823815738669
 30
0.0
  0
VERTEX
  5
397
  8
1
  6
CONTINUOUS
 62
     7
 10
-230.403010435419
 20
282.7052721320122
 30
0.0
  0
VERTEX
  5
398
  8
1
  6
CONTINUOUS
 62
     7
 10
-230.39285130095
 20
282.2317040446042
 30
0.0
  0
VERTEX
  5
399
  8
1
  6
CONTINUOUS
 62
     7
 10
-230.382692166481
 20
281.7621641955675
 30
0.0
  0
VERTEX
  5
39A
  8
1
  6
CONTINUOUS
 62
     7
 10
-230.3725330320121
 20
281.2971394688268
 30
0.0
  0
VERTEX
  5
39B
  8
1
  6
CONTINUOUS
 62
     7
 10
-230.3623738975431
 20
280.8371167483064
 30
0.0
  0
VERTEX
  5
39C
  8
1
  6
CONTINUOUS
 62
     7
 10
-230.3522147630742
 20
280.3825829179311
 30
0.0
  0
VERTEX
  5
39D
  8
1
  6
CONTINUOUS
 62
     7
 10
-230.3420556286052
 20
279.934023401228
 30
0.0
  0
VERTEX
  5
39E
  8
1
  6
CONTINUOUS
 62
     7
 10
-230.3318964941361
 20
279.4918903210897
 30
0.0
  0
VERTEX
  5
39F
  8
1
  6
CONTINUOUS
 62
     7
 10
-230.3217373596672
 20
279.0566026592716
 30
0.0
  0
VERTEX
  5
3A0
  8
1
  6
CONTINUOUS
 62
     7
 10
-230.3115782251982
 20
278.6285779690311
 30
0.0
  0
VERTEX
  5
3A1
  8
1
  6
CONTINUOUS
 62
     7
 10
-230.3014190907292
 20
278.2082338036261
 30
0.0
  0
VERTEX
  5
3A2
  8
1
  6
CONTINUOUS
 62
     7
 10
-230.2912599562602
 20
277.7959877163139
 30
0.0
  0
VERTEX
  5
3A3
  8
1
  6
CONTINUOUS
 62
     7
 10
-230.2811008217913
 20
277.392257260352
 30
0.0
  0
VERTEX
  5
3A4
  8
1
  6
CONTINUOUS
 62
     7
 10
-230.2709416873223
 20
276.9974599889982
 30
0.0
  0
VERTEX
  5
3A5
  8
1
  6
CONTINUOUS
 62
     7
 10
-230.2607825528533
 20
276.6120134555098
 30
0.0
  0
VERTEX
  5
3A6
  8
1
  6
CONTINUOUS
 62
     7
 10
-230.2506234183843
 20
276.2363352131445
 30
0.0
  0
VERTEX
  5
3A7
  8
1
  6
CONTINUOUS
 62
     7
 10
-230.2404642839153
 20
275.8708428151599
 30
0.0
  0
VERTEX
  5
3A8
  8
1
  6
CONTINUOUS
 62
     7
 10
-230.2303051494464
 20
275.5159520773232
 30
0.0
  0
VERTEX
  5
3A9
  8
1
  6
CONTINUOUS
 62
     7
 10
-230.2201460149774
 20
275.1720254008551
 30
0.0
  0
VERTEX
  5
3AA
  8
1
  6
CONTINUOUS
 62
     7
 10
-230.2099868805084
 20
274.8393630196753
 30
0.0
  0
VERTEX
  5
3AB
  8
1
  6
CONTINUOUS
 62
     7
 10
-230.1998277460394
 20
274.5182616670165
 30
0.0
  0
VERTEX
  5
3AC
  8
1
  6
CONTINUOUS
 62
     7
 10
-230.1896686115705
 20
274.2090180761117
 30
0.0
  0
VERTEX
  5
3AD
  8
1
  6
CONTINUOUS
 62
     7
 10
-230.1795094771015
 20
273.9119289801935
 30
0.0
  0
VERTEX
  5
3AE
  8
1
  6
CONTINUOUS
 62
     7
 10
-230.1693503426325
 20
273.6272911124947
 30
0.0
  0
VERTEX
  5
3AF
  8
1
  6
CONTINUOUS
 62
     7
 10
-230.1591912081635
 20
273.3554012062481
 30
0.0
  0
VERTEX
  5
3B0
  8
1
  6
CONTINUOUS
 62
     7
 10
-230.1490320736945
 20
273.0965559946865
 30
0.0
  0
VERTEX
  5
3B1
  8
1
  6
CONTINUOUS
 62
     7
 10
-230.1388729392256
 20
272.8510522110427
 30
0.0
  0
VERTEX
  5
3B2
  8
1
  6
CONTINUOUS
 62
     7
 10
-230.1287138047566
 20
272.6191865885493
 30
0.0
  0
VERTEX
  5
3B3
  8
1
  6
CONTINUOUS
 62
     7
 10
-230.1185546702876
 20
272.4012543987697
 30
0.0
  0
VERTEX
  5
3B4
  8
1
  6
CONTINUOUS
 62
     7
 10
-230.1083955358186
 20
272.1974875217923
 30
0.0
  0
VERTEX
  5
3B5
  8
1
  6
CONTINUOUS
 62
     7
 10
-230.0982364013496
 20
272.0080314742648
 30
0.0
  0
VERTEX
  5
3B6
  8
1
  6
CONTINUOUS
 62
     7
 10
-230.0880772668806
 20
271.8330255786051
 30
0.0
  0
VERTEX
  5
3B7
  8
1
  6
CONTINUOUS
 62
     7
 10
-230.0779181324116
 20
271.6726091572312
 30
0.0
  0
VERTEX
  5
3B8
  8
1
  6
CONTINUOUS
 62
     7
 10
-230.0677589979427
 20
271.5269215325611
 30
0.0
  0
VERTEX
  5
3B9
  8
1
  6
CONTINUOUS
 62
     7
 10
-230.0575998634737
 20
271.3961020270127
 30
0.0
  0
VERTEX
  5
3BA
  8
1
  6
CONTINUOUS
 62
     7
 10
-230.0474407290047
 20
271.280289963004
 30
0.0
  0
VERTEX
  5
3BB
  8
1
  6
CONTINUOUS
 62
     7
 10
-230.0372815945357
 20
271.1796246629527
 30
0.0
  0
VERTEX
  5
3BC
  8
1
  6
CONTINUOUS
 62
     7
 10
-230.0271224600667
 20
271.0942454492772
 30
0.0
  0
VERTEX
  5
3BD
  8
1
  6
CONTINUOUS
 62
     7
 10
-230.0169633255978
 20
271.0242916443951
 30
0.0
  0
VERTEX
  5
3BE
  8
1
  6
CONTINUOUS
 62
     7
 10
-230.0068041911288
 20
270.9699015994054
 30
0.0
  0
VERTEX
  5
3BF
  8
1
  6
CONTINUOUS
 62
     7
 10
-229.9966450566598
 20
270.9311503232851
 30
0.0
  0
VERTEX
  5
3C0
  8
1
  6
CONTINUOUS
 62
     7
 10
-229.9864859221908
 20
270.9080116172596
 30
0.0
  0
VERTEX
  5
3C1
  8
1
  6
CONTINUOUS
 62
     7
 10
-229.9763267877218
 20
270.9004502127959
 30
0.0
  0
SEQEND
  5
544
  8
1
  6
CONTINUOUS
 62
     7
  0
POLYLINE
  5
AC
  8
1
  6
CONTINUOUS
 62
     7
 66
     1
 10
0.0
 20
0.0
 30
0.0
  0
VERTEX
  5
3C2
  8
1
  6
CONTINUOUS
 62
     7
 10
-232.9517834229675
 20
301.4541631179745
 30
0.0
  0
VERTEX
  5
3C3
  8
1
  6
CONTINUOUS
 62
     7
 10
-232.9416228392799
 20
301.408872239268
 30
0.0
  0
VERTEX
  5
3C4
  8
1
  6
CONTINUOUS
 62
     7
 10
-232.9314622555923
 20
301.3480039342392
 30
0.0
  0
VERTEX
  5
3C5
  8
1
  6
CONTINUOUS
 62
     7
 10
-232.9213016719047
 20
301.2715692037374
 30
0.0
  0
VERTEX
  5
3C6
  8
1
  6
CONTINUOUS
 62
     7
 10
-232.9111410882171
 20
301.1796949805316
 30
0.0
  0
VERTEX
  5
3C7
  8
1
  6
CONTINUOUS
 62
     7
 10
-232.9009805045295
 20
301.0725375134355
 30
0.0
  0
VERTEX
  5
3C8
  8
1
  6
CONTINUOUS
 62
     7
 10
-232.8908199208418
 20
300.9502530512644
 30
0.0
  0
VERTEX
  5
3C9
  8
1
  6
CONTINUOUS
 62
     7
 10
-232.8806593371542
 20
300.8129978428338
 30
0.0
  0
VERTEX
  5
3CA
  8
1
  6
CONTINUOUS
 62
     7
 10
-232.8704987534666
 20
300.6609281369589
 30
0.0
  0
VERTEX
  5
3CB
  8
1
  6
CONTINUOUS
 62
     7
 10
-232.860338169779
 20
300.4942001824549
 30
0.0
  0
VERTEX
  5
3CC
  8
1
  6
CONTINUOUS
 62
     7
 10
-232.8501775860914
 20
300.3129702281374
 30
0.0
  0
VERTEX
  5
3CD
  8
1
  6
CONTINUOUS
 62
     7
 10
-232.8400170024038
 20
300.1173945228214
 30
0.0
  0
VERTEX
  5
3CE
  8
1
  6
CONTINUOUS
 62
     7
 10
-232.8298564187162
 20
299.9076293153227
 30
0.0
  0
VERTEX
  5
3CF
  8
1
  6
CONTINUOUS
 62
     7
 10
-232.8196958350285
 20
299.6838308544561
 30
0.0
  0
VERTEX
  5
3D0
  8
1
  6
CONTINUOUS
 62
     7
 10
-232.8095352513409
 20
299.4461766462799
 30
0.0
  0
VERTEX
  5
3D1
  8
1
  6
CONTINUOUS
 62
     7
 10
-232.7993746676533
 20
299.1949467070163
 30
0.0
  0
VERTEX
  5
3D2
  8
1
  6
CONTINUOUS
 62
     7
 10
-232.7892140839657
 20
298.9304519135742
 30
0.0
  0
VERTEX
  5
3D3
  8
1
  6
CONTINUOUS
 62
     7
 10
-232.7790535002781
 20
298.6530031490602
 30
0.0
  0
VERTEX
  5
3D4
  8
1
  6
CONTINUOUS
 62
     7
 10
-232.7688929165905
 20
298.3629112965804
 30
0.0
  0
VERTEX
  5
3D5
  8
1
  6
CONTINUOUS
 62
     7
 10
-232.7587323329028
 20
298.0604872392413
 30
0.0
  0
VERTEX
  5
3D6
  8
1
  6
CONTINUOUS
 62
     7
 10
-232.7485717492152
 20
297.7460418601493
 30
0.0
  0
VERTEX
  5
3D7
  8
1
  6
CONTINUOUS
 62
     7
 10
-232.7384111655277
 20
297.4198860424109
 30
0.0
  0
VERTEX
  5
3D8
  8
1
  6
CONTINUOUS
 62
     7
 10
-232.72825058184
 20
297.0823306691323
 30
0.0
  0
VERTEX
  5
3D9
  8
1
  6
CONTINUOUS
 62
     7
 10
-232.7180899981524
 20
296.7336866234197
 30
0.0
  0
VERTEX
  5
3DA
  8
1
  6
CONTINUOUS
 62
     7
 10
-232.7079294144648
 20
296.3742647883798
 30
0.0
  0
VERTEX
  5
3DB
  8
1
  6
CONTINUOUS
 62
     7
 10
-232.6977688307772
 20
296.0043892309646
 30
0.0
  0
VERTEX
  5
3DC
  8
1
  6
CONTINUOUS
 62
     7
 10
-232.6876082470896
 20
295.6244599620885
 30
0.0
  0
VERTEX
  5
3DD
  8
1
  6
CONTINUOUS
 62
     7
 10
-232.6774476634019
 20
295.2349041295436
 30
0.0
  0
VERTEX
  5
3DE
  8
1
  6
CONTINUOUS
 62
     7
 10
-232.6672870797143
 20
294.8361489150869
 30
0.0
  0
VERTEX
  5
3DF
  8
1
  6
CONTINUOUS
 62
     7
 10
-232.6571264960267
 20
294.4286215004756
 30
0.0
  0
VERTEX
  5
3E0
  8
1
  6
CONTINUOUS
 62
     7
 10
-232.6469659123391
 20
294.0127490674669
 30
0.0
  0
VERTEX
  5
3E1
  8
1
  6
CONTINUOUS
 62
     7
 10
-232.6368053286515
 20
293.5889587978178
 30
0.0
  0
VERTEX
  5
3E2
  8
1
  6
CONTINUOUS
 62
     7
 10
-232.6266447449639
 20
293.1576778732856
 30
0.0
  0
VERTEX
  5
3E3
  8
1
  6
CONTINUOUS
 62
     7
 10
-232.6164841612762
 20
292.7193334756271
 30
0.0
  0
VERTEX
  5
3E4
  8
1
  6
CONTINUOUS
 62
     7
 10
-232.6063235775886
 20
292.2743527865997
 30
0.0
  0
VERTEX
  5
3E5
  8
1
  6
CONTINUOUS
 62
     7
 10
-232.5961629939011
 20
291.8231629879605
 30
0.0
  0
VERTEX
  5
3E6
  8
1
  6
CONTINUOUS
 62
     7
 10
-232.5860024102134
 20
291.3661971307852
 30
0.0
  0
VERTEX
  5
3E7
  8
1
  6
CONTINUOUS
 62
     7
 10
-232.5758418265258
 20
290.9039288260102
 30
0.0
  0
VERTEX
  5
3E8
  8
1
  6
CONTINUOUS
 62
     7
 10
-232.5656812428382
 20
290.4368488166254
 30
0.0
  0
VERTEX
  5
3E9
  8
1
  6
CONTINUOUS
 62
     7
 10
-232.5555206591506
 20
289.9654479063708
 30
0.0
  0
VERTEX
  5
3EA
  8
1
  6
CONTINUOUS
 62
     7
 10
-232.545360075463
 20
289.4902168989861
 30
0.0
  0
VERTEX
  5
3EB
  8
1
  6
CONTINUOUS
 62
     7
 10
-232.5351994917754
 20
289.0116465982113
 30
0.0
  0
VERTEX
  5
3EC
  8
1
  6
CONTINUOUS
 62
     7
 10
-232.5250389080877
 20
288.5302278077863
 30
0.0
  0
VERTEX
  5
3ED
  8
1
  6
CONTINUOUS
 62
     7
 10
-232.5148783244001
 20
288.0464513314509
 30
0.0
  0
VERTEX
  5
3EE
  8
1
  6
CONTINUOUS
 62
     7
 10
-232.5047177407126
 20
287.560807972945
 30
0.0
  0
VERTEX
  5
3EF
  8
1
  6
CONTINUOUS
 62
     7
 10
-232.4945571570249
 20
287.0737885360084
 30
0.0
  0
VERTEX
  5
3F0
  8
1
  6
CONTINUOUS
 62
     7
 10
-232.4843965733373
 20
286.5858838243811
 30
0.0
  0
VERTEX
  5
3F1
  8
1
  6
CONTINUOUS
 62
     7
 10
-232.4742359896497
 20
286.0975848710198
 30
0.0
  0
VERTEX
  5
3F2
  8
1
  6
CONTINUOUS
 62
     7
 10
-232.4640754059621
 20
285.6093846216544
 30
0.0
  0
VERTEX
  5
3F3
  8
1
  6
CONTINUOUS
 62
     7
 10
-232.4539148222745
 20
285.1217769730762
 30
0.0
  0
VERTEX
  5
3F4
  8
1
  6
CONTINUOUS
 62
     7
 10
-232.4437542385868
 20
284.6352558289811
 30
0.0
  0
VERTEX
  5
3F5
  8
1
  6
CONTINUOUS
 62
     7
 10
-232.4335936548993
 20
284.1503150930652
 30
0.0
  0
VERTEX
  5
3F6
  8
1
  6
CONTINUOUS
 62
     7
 10
-232.4234330712116
 20
283.6674486690245
 30
0.0
  0
VERTEX
  5
3F7
  8
1
  6
CONTINUOUS
 62
     7
 10
-232.413272487524
 20
283.1871504605551
 30
0.0
  0
VERTEX
  5
3F8
  8
1
  6
CONTINUOUS
 62
     7
 10
-232.4031119038364
 20
282.7099143713531
 30
0.0
  0
VERTEX
  5
3F9
  8
1
  6
CONTINUOUS
 62
     7
 10
-232.3929513201488
 20
282.2362343051145
 30
0.0
  0
VERTEX
  5
3FA
  8
1
  6
CONTINUOUS
 62
     7
 10
-232.3827907364612
 20
281.7666041655354
 30
0.0
  0
VERTEX
  5
3FB
  8
1
  6
CONTINUOUS
 62
     7
 10
-232.3726301527735
 20
281.3015178563117
 30
0.0
  0
VERTEX
  5
3FC
  8
1
  6
CONTINUOUS
 62
     7
 10
-232.3624695690859
 20
280.8414659151965
 30
0.0
  0
VERTEX
  5
3FD
  8
1
  6
CONTINUOUS
 62
     7
 10
-232.3523089853983
 20
280.3869046504097
 30
0.0
  0
VERTEX
  5
3FE
  8
1
  6
CONTINUOUS
 62
     7
 10
-232.3421484017107
 20
279.9382704103752
 30
0.0
  0
VERTEX
  5
3FF
  8
1
  6
CONTINUOUS
 62
     7
 10
-232.3319878180231
 20
279.4959992944566
 30
0.0
  0
VERTEX
  5
400
  8
1
  6
CONTINUOUS
 62
     7
 10
-232.3218272343354
 20
279.0605274020178
 30
0.0
  0
VERTEX
  5
401
  8
1
  6
CONTINUOUS
 62
     7
 10
-232.3116666506479
 20
278.632290832422
 30
0.0
  0
VERTEX
  5
402
  8
1
  6
CONTINUOUS
 62
     7
 10
-232.3015060669603
 20
278.2117256850332
 30
0.0
  0
VERTEX
  5
403
  8
1
  6
CONTINUOUS
 62
     7
 10
-232.2913454832727
 20
277.7992680592147
 30
0.0
  0
VERTEX
  5
404
  8
1
  6
CONTINUOUS
 62
     7
 10
-232.281184899585
 20
277.3953540543303
 30
0.0
  0
VERTEX
  5
405
  8
1
  6
CONTINUOUS
 62
     7
 10
-232.2710243158974
 20
277.0004197697436
 30
0.0
  0
VERTEX
  5
406
  8
1
  6
CONTINUOUS
 62
     7
 10
-232.2608637322098
 20
276.6149013048184
 30
0.0
  0
VERTEX
  5
407
  8
1
  6
CONTINUOUS
 62
     7
 10
-232.2507031485222
 20
276.2392297469358
 30
0.0
  0
VERTEX
  5
408
  8
1
  6
CONTINUOUS
 62
     7
 10
-232.2405425648346
 20
275.8737733078714
 30
0.0
  0
VERTEX
  5
409
  8
1
  6
CONTINUOUS
 62
     7
 10
-232.2303819811469
 20
275.5188573317629
 30
0.0
  0
VERTEX
  5
40A
  8
1
  6
CONTINUOUS
 62
     7
 10
-232.2202213974593
 20
275.174806337325
 30
0.0
  0
VERTEX
  5
40B
  8
1
  6
CONTINUOUS
 62
     7
 10
-232.2100608137717
 20
274.8419448432724
 30
0.0
  0
VERTEX
  5
40C
  8
1
  6
CONTINUOUS
 62
     7
 10
-232.1999002300842
 20
274.5205973683198
 30
0.0
  0
VERTEX
  5
40D
  8
1
  6
CONTINUOUS
 62
     7
 10
-232.1897396463965
 20
274.2110884311817
 30
0.0
  0
VERTEX
  5
40E
  8
1
  6
CONTINUOUS
 62
     7
 10
-232.1795790627089
 20
273.913742550573
 30
0.0
  0
VERTEX
  5
40F
  8
1
  6
CONTINUOUS
 62
     7
 10
-232.1694184790213
 20
273.6288842452082
 30
0.0
  0
VERTEX
  5
410
  8
1
  6
CONTINUOUS
 62
     7
 10
-232.1592578953337
 20
273.356838033802
 30
0.0
  0
VERTEX
  5
411
  8
1
  6
CONTINUOUS
 62
     7
 10
-232.149097311646
 20
273.097928435069
 30
0.0
  0
VERTEX
  5
412
  8
1
  6
CONTINUOUS
 62
     7
 10
-232.1389367279584
 20
272.8524748426187
 30
0.0
  0
VERTEX
  5
413
  8
1
  6
CONTINUOUS
 62
     7
 10
-232.1287761442708
 20
272.6207160545659
 30
0.0
  0
VERTEX
  5
414
  8
1
  6
CONTINUOUS
 62
     7
 10
-232.1186155605832
 20
272.4028267645268
 30
0.0
  0
VERTEX
  5
415
  8
1
  6
CONTINUOUS
 62
     7
 10
-232.1084549768956
 20
272.1989798934917
 30
0.0
  0
VERTEX
  5
416
  8
1
  6
CONTINUOUS
 62
     7
 10
-232.098294393208
 20
272.0093483624506
 30
0.0
  0
VERTEX
  5
417
  8
1
  6
CONTINUOUS
 62
     7
 10
-232.0881338095204
 20
271.8341050923941
 30
0.0
  0
VERTEX
  5
418
  8
1
  6
CONTINUOUS
 62
     7
 10
-232.0779732258327
 20
271.6734230043123
 30
0.0
  0
VERTEX
  5
419
  8
1
  6
CONTINUOUS
 62
     7
 10
-232.0678126421452
 20
271.5274750191955
 30
0.0
  0
VERTEX
  5
41A
  8
1
  6
CONTINUOUS
 62
     7
 10
-232.0576520584575
 20
271.3964340580341
 30
0.0
  0
VERTEX
  5
41B
  8
1
  6
CONTINUOUS
 62
     7
 10
-232.0474914747699
 20
271.2804730418181
 30
0.0
  0
VERTEX
  5
41C
  8
1
  6
CONTINUOUS
 62
     7
 10
-232.0373308910823
 20
271.1797648915382
 30
0.0
  0
VERTEX
  5
41D
  8
1
  6
CONTINUOUS
 62
     7
 10
-232.0271703073947
 20
271.0944782572513
 30
0.0
  0
VERTEX
  5
41E
  8
1
  6
CONTINUOUS
 62
     7
 10
-232.0170097237071
 20
271.0246958156737
 30
0.0
  0
VERTEX
  5
41F
  8
1
  6
CONTINUOUS
 62
     7
 10
-232.0068491400195
 20
270.9704205745845
 30
0.0
  0
VERTEX
  5
420
  8
1
  6
CONTINUOUS
 62
     7
 10
-231.9966885563318
 20
270.931652534004
 30
0.0
  0
VERTEX
  5
421
  8
1
  6
CONTINUOUS
 62
     7
 10
-231.9865279726442
 20
270.9083916939521
 30
0.0
  0
VERTEX
  5
422
  8
1
  6
CONTINUOUS
 62
     7
 10
-231.9763673889566
 20
270.9006380544491
 30
0.0
  0
SEQEND
  5
545
  8
1
  6
CONTINUOUS
 62
     7
  0
POLYLINE
  5
AD
  8
1
  6
CONTINUOUS
 62
     7
 66
     1
 10
0.0
 20
0.0
 30
0.0
  0
VERTEX
  5
423
  8
1
  6
CONTINUOUS
 62
     7
 10
-234.9518325495259
 20
301.4545706390494
 30
0.0
  0
VERTEX
  5
424
  8
1
  6
CONTINUOUS
 62
     7
 10
-234.9407481795323
 20
301.4042057716072
 30
0.0
  0
VERTEX
  5
425
  8
1
  6
CONTINUOUS
 62
     7
 10
-234.9296638095387
 20
301.3353296069363
 30
0.0
  0
VERTEX
  5
426
  8
1
  6
CONTINUOUS
 62
     7
 10
-234.9185794395451
 20
301.2481009818142
 30
0.0
  0
VERTEX
  5
427
  8
1
  6
CONTINUOUS
 62
     7
 10
-234.9074950695516
 20
301.1426787330182
 30
0.0
  0
VERTEX
  5
428
  8
1
  6
CONTINUOUS
 62
     7
 10
-234.8964106995579
 20
301.0192216973255
 30
0.0
  0
VERTEX
  5
429
  8
1
  6
CONTINUOUS
 62
     7
 10
-234.8853263295644
 20
300.8778887115137
 30
0.0
  0
VERTEX
  5
42A
  8
1
  6
CONTINUOUS
 62
     7
 10
-234.8742419595708
 20
300.7188386123602
 30
0.0
  0
VERTEX
  5
42B
  8
1
  6
CONTINUOUS
 62
     7
 10
-234.8631575895772
 20
300.5422302366422
 30
0.0
  0
VERTEX
  5
42C
  8
1
  6
CONTINUOUS
 62
     7
 10
-234.8520732195836
 20
300.3482224211372
 30
0.0
  0
VERTEX
  5
42D
  8
1
  6
CONTINUOUS
 62
     7
 10
-234.84098884959
 20
300.1369740067881
 30
0.0
  0
VERTEX
  5
42E
  8
1
  6
CONTINUOUS
 62
     7
 10
-234.8299044795965
 20
299.9086838542146
 30
0.0
  0
VERTEX
  5
42F
  8
1
  6
CONTINUOUS
 62
     7
 10
-234.8188201096029
 20
299.6636889250782
 30
0.0
  0
VERTEX
  5
430
  8
1
  6
CONTINUOUS
 62
     7
 10
-234.8077357396093
 20
299.4023559485784
 30
0.0
  0
VERTEX
  5
431
  8
1
  6
CONTINUOUS
 62
     7
 10
-234.7966513696157
 20
299.1250516539142
 30
0.0
  0
VERTEX
  5
432
  8
1
  6
CONTINUOUS
 62
     7
 10
-234.7855669996221
 20
298.8321427702849
 30
0.0
  0
VERTEX
  5
433
  8
1
  6
CONTINUOUS
 62
     7
 10
-234.7744826296285
 20
298.5239960268897
 30
0.0
  0
VERTEX
  5
434
  8
1
  6
CONTINUOUS
 62
     7
 10
-234.763398259635
 20
298.2009781529281
 30
0.0
  0
VERTEX
  5
435
  8
1
  6
CONTINUOUS
 62
     7
 10
-234.7523138896413
 20
297.8634558775991
 30
0.0
  0
VERTEX
  5
436
  8
1
  6
CONTINUOUS
 62
     7
 10
-234.7412295196477
 20
297.5117959301018
 30
0.0
  0
VERTEX
  5
437
  8
1
  6
CONTINUOUS
 62
     7
 10
-234.7301451496542
 20
297.1463650396358
 30
0.0
  0
VERTEX
  5
438
  8
1
  6
CONTINUOUS
 62
     7
 10
-234.7190607796606
 20
296.7675505415558
 30
0.0
  0
VERTEX
  5
439
  8
1
  6
CONTINUOUS
 62
     7
 10
-234.7079764096671
 20
296.3758470297489
 30
0.0
  0
VERTEX
  5
43A
  8
1
  6
CONTINUOUS
 62
     7
 10
-234.6968920396734
 20
295.9717838855975
 30
0.0
  0
VERTEX
  5
43B
  8
1
  6
CONTINUOUS
 62
     7
 10
-234.6858076696798
 20
295.5558905085848
 30
0.0
  0
VERTEX
  5
43C
  8
1
  6
CONTINUOUS
 62
     7
 10
-234.6747232996862
 20
295.1286962981941
 30
0.0
  0
VERTEX
  5
43D
  8
1
  6
CONTINUOUS
 62
     7
 10
-234.6636389296926
 20
294.690730653909
 30
0.0
  0
VERTEX
  5
43E
  8
1
  6
CONTINUOUS
 62
     7
 10
-234.6525545596991
 20
294.2425229752126
 30
0.0
  0
VERTEX
  5
43F
  8
1
  6
CONTINUOUS
 62
     7
 10
-234.6414701897055
 20
293.7846026615883
 30
0.0
  0
VERTEX
  5
440
  8
1
  6
CONTINUOUS
 62
     7
 10
-234.6303858197119
 20
293.3174991125193
 30
0.0
  0
VERTEX
  5
441
  8
1
  6
CONTINUOUS
 62
     7
 10
-234.6193014497183
 20
292.8417417274891
 30
0.0
  0
VERTEX
  5
442
  8
1
  6
CONTINUOUS
 62
     7
 10
-234.6082170797247
 20
292.3578674861778
 30
0.0
  0
VERTEX
  5
443
  8
1
  6
CONTINUOUS
 62
     7
 10
-234.5971327097311
 20
291.8664739492449
 30
0.0
  0
VERTEX
  5
444
  8
1
  6
CONTINUOUS
 62
     7
 10
-234.5860483397375
 20
291.3681877222946
 30
0.0
  0
VERTEX
  5
445
  8
1
  6
CONTINUOUS
 62
     7
 10
-234.574963969744
 20
290.8636355937466
 30
0.0
  0
VERTEX
  5
446
  8
1
  6
CONTINUOUS
 62
     7
 10
-234.5638795997503
 20
290.3534443520206
 30
0.0
  0
VERTEX
  5
447
  8
1
  6
CONTINUOUS
 62
     7
 10
-234.5527952297568
 20
289.8382407855362
 30
0.0
  0
VERTEX
  5
448
  8
1
  6
CONTINUOUS
 62
     7
 10
-234.5417108597632
 20
289.3186516827133
 30
0.0
  0
VERTEX
  5
449
  8
1
  6
CONTINUOUS
 62
     7
 10
-234.5306264897696
 20
288.7953038319717
 30
0.0
  0
VERTEX
  5
44A
  8
1
  6
CONTINUOUS
 62
     7
 10
-234.519542119776
 20
288.2688240217307
 30
0.0
  0
VERTEX
  5
44B
  8
1
  6
CONTINUOUS
 62
     7
 10
-234.5084577497824
 20
287.7398390404104
 30
0.0
  0
VERTEX
  5
44C
  8
1
  6
CONTINUOUS
 62
     7
 10
-234.4973733797888
 20
287.208976550791
 30
0.0
  0
VERTEX
  5
44D
  8
1
  6
CONTINUOUS
 62
     7
 10
-234.4862890097952
 20
286.6768754690194
 30
0.0
  0
VERTEX
  5
44E
  8
1
  6
CONTINUOUS
 62
     7
 10
-234.4752046398017
 20
286.1441825243963
 30
0.0
  0
VERTEX
  5
44F
  8
1
  6
CONTINUOUS
 62
     7
 10
-234.464120269808
 20
285.6115446036986
 30
0.0
  0
VERTEX
  5
450
  8
1
  6
CONTINUOUS
 62
     7
 10
-234.4530358998145
 20
285.079608593703
 30
0.0
  0
VERTEX
  5
451
  8
1
  6
CONTINUOUS
 62
     7
 10
-234.4419515298209
 20
284.5490213811862
 30
0.0
  0
VERTEX
  5
452
  8
1
  6
CONTINUOUS
 62
     7
 10
-234.4308671598273
 20
284.0204298529248
 30
0.0
  0
VERTEX
  5
453
  8
1
  6
CONTINUOUS
 62
     7
 10
-234.4197827898338
 20
283.4944808956959
 30
0.0
  0
VERTEX
  5
454
  8
1
  6
CONTINUOUS
 62
     7
 10
-234.4086984198402
 20
282.971821396276
 30
0.0
  0
VERTEX
  5
455
  8
1
  6
CONTINUOUS
 62
     7
 10
-234.3976140498466
 20
282.453098241442
 30
0.0
  0
VERTEX
  5
456
  8
1
  6
CONTINUOUS
 62
     7
 10
-234.386529679853
 20
281.9389570573583
 30
0.0
  0
VERTEX
  5
457
  8
1
  6
CONTINUOUS
 62
     7
 10
-234.3754453098594
 20
281.4300147911435
 30
0.0
  0
VERTEX
  5
458
  8
1
  6
CONTINUOUS
 62
     7
 10
-234.3643609398658
 20
280.9268598848064
 30
0.0
  0
VERTEX
  5
459
  8
1
  6
CONTINUOUS
 62
     7
 10
-234.3532765698722
 20
280.4300795545316
 30
0.0
  0
VERTEX
  5
45A
  8
1
  6
CONTINUOUS
 62
     7
 10
-234.3421921998786
 20
279.9402610165034
 30
0.0
  0
VERTEX
  5
45B
  8
1
  6
CONTINUOUS
 62
     7
 10
-234.331107829885
 20
279.4579914869062
 30
0.0
  0
VERTEX
  5
45C
  8
1
  6
CONTINUOUS
 62
     7
 10
-234.3200234598915
 20
278.9838581819246
 30
0.0
  0
VERTEX
  5
45D
  8
1
  6
CONTINUOUS
 62
     7
 10
-234.3089390898979
 20
278.5184483177426
 30
0.0
  0
VERTEX
  5
45E
  8
1
  6
CONTINUOUS
 62
     7
 10
-234.2978547199043
 20
278.0623491105449
 30
0.0
  0
VERTEX
  5
45F
  8
1
  6
CONTINUOUS
 62
     7
 10
-234.2867703499107
 20
277.6161477765156
 30
0.0
  0
VERTEX
  5
460
  8
1
  6
CONTINUOUS
 62
     7
 10
-234.2756859799171
 20
277.1804304563044
 30
0.0
  0
VERTEX
  5
461
  8
1
  6
CONTINUOUS
 62
     7
 10
-234.2646016099235
 20
276.7557315345937
 30
0.0
  0
VERTEX
  5
462
  8
1
  6
CONTINUOUS
 62
     7
 10
-234.2535172399299
 20
276.342511767327
 30
0.0
  0
VERTEX
  5
463
  8
1
  6
CONTINUOUS
 62
     7
 10
-234.2424328699363
 20
275.9412262892515
 30
0.0
  0
VERTEX
  5
464
  8
1
  6
CONTINUOUS
 62
     7
 10
-234.2313484999428
 20
275.5523302351142
 30
0.0
  0
VERTEX
  5
465
  8
1
  6
CONTINUOUS
 62
     7
 10
-234.2202641299492
 20
275.1762787396622
 30
0.0
  0
VERTEX
  5
466
  8
1
  6
CONTINUOUS
 62
     7
 10
-234.2091797599556
 20
274.8135269376425
 30
0.0
  0
VERTEX
  5
467
  8
1
  6
CONTINUOUS
 62
     7
 10
-234.198095389962
 20
274.4645299638021
 30
0.0
  0
VERTEX
  5
468
  8
1
  6
CONTINUOUS
 62
     7
 10
-234.1870110199685
 20
274.1297429528883
 30
0.0
  0
VERTEX
  5
469
  8
1
  6
CONTINUOUS
 62
     7
 10
-234.1759266499748
 20
273.8096210396479
 30
0.0
  0
VERTEX
  5
46A
  8
1
  6
CONTINUOUS
 62
     7
 10
-234.1648422799812
 20
273.5046189830207
 30
0.0
  0
VERTEX
  5
46B
  8
1
  6
CONTINUOUS
 62
     7
 10
-234.1537579099877
 20
273.2151348421645
 30
0.0
  0
VERTEX
  5
46C
  8
1
  6
CONTINUOUS
 62
     7
 10
-234.1426735399941
 20
272.9414499329863
 30
0.0
  0
VERTEX
  5
46D
  8
1
  6
CONTINUOUS
 62
     7
 10
-234.1315891700005
 20
272.6838311851867
 30
0.0
  0
VERTEX
  5
46E
  8
1
  6
CONTINUOUS
 62
     7
 10
-234.1205048000069
 20
272.4425455284663
 30
0.0
  0
VERTEX
  5
46F
  8
1
  6
CONTINUOUS
 62
     7
 10
-234.1094204300133
 20
272.2178598925258
 30
0.0
  0
VERTEX
  5
470
  8
1
  6
CONTINUOUS
 62
     7
 10
-234.0983360600197
 20
272.0100412070655
 30
0.0
  0
VERTEX
  5
471
  8
1
  6
CONTINUOUS
 62
     7
 10
-234.0872516900261
 20
271.8193564017863
 30
0.0
  0
VERTEX
  5
472
  8
1
  6
CONTINUOUS
 62
     7
 10
-234.0761673200325
 20
271.6460724063886
 30
0.0
  0
VERTEX
  5
473
  8
1
  6
CONTINUOUS
 62
     7
 10
-234.0650829500389
 20
271.4904561505729
 30
0.0
  0
VERTEX
  5
474
  8
1
  6
CONTINUOUS
 62
     7
 10
-234.0539985800453
 20
271.352774535282
 30
0.0
  0
VERTEX
  5
475
  8
1
  6
CONTINUOUS
 62
     7
 10
-234.0429142100518
 20
271.2332465784503
 30
0.0
  0
VERTEX
  5
476
  8
1
  6
CONTINUOUS
 62
     7
 10
-234.0318298400582
 20
271.1319456721449
 30
0.0
  0
VERTEX
  5
477
  8
1
  6
CONTINUOUS
 62
     7
 10
-234.0207454700646
 20
271.048917625365
 30
0.0
  0
VERTEX
  5
478
  8
1
  6
CONTINUOUS
 62
     7
 10
-234.009661100071
 20
270.9842082471101
 30
0.0
  0
VERTEX
  5
479
  8
1
  6
CONTINUOUS
 62
     7
 10
-233.9985767300774
 20
270.9378633463797
 30
0.0
  0
VERTEX
  5
47A
  8
1
  6
CONTINUOUS
 62
     7
 10
-233.9874923600839
 20
270.9099287321731
 30
0.0
  0
VERTEX
  5
47B
  8
1
  6
CONTINUOUS
 62
     7
 10
-233.9764079900903
 20
270.9004502134898
 30
0.0
  0
SEQEND
  5
546
  8
1
  6
CONTINUOUS
 62
     7
  0
LINE
  5
AE
  8
1
  6
CONTINUOUS
 62
     7
 10
-234.5735867230276
 20
299.2361813148887
 30
0.0
 11
-234.6822148188228
 21
300.4515745339779
 31
0.0
  0
LINE
  5
AF
  8
1
  6
CONTINUOUS
 62
     7
 10
-234.4612271724659
 20
296.4004649485506
 30
0.0
 11
-234.5735867230276
 21
299.2361813148887
 31
0.0
  0
LINE
  5
B0
  8
1
  6
CONTINUOUS
 62
     7
 10
-234.3488676219041
 20
292.3069081043163
 30
0.0
 11
-234.4612271724659
 21
296.4004649485506
 31
0.0
  0
LINE
  5
B1
  8
1
  6
CONTINUOUS
 62
     7
 10
-234.2365080713423
 20
287.4602957623995
 30
0.0
 11
-234.3488676219041
 21
292.3069081043163
 31
0.0
  0
LINE
  5
B2
  8
1
  6
CONTINUOUS
 62
     7
 10
-234.1241485207805
 20
282.4582737374884
 30
0.0
 11
-234.2365080713423
 21
287.4602957623995
 31
0.0
  0
LINE
  5
B3
  8
1
  6
CONTINUOUS
 62
     7
 10
-234.0117889702186
 20
277.917651734431
 30
0.0
 11
-234.1241485207805
 21
282.4582737374884
 31
0.0
  0
LINE
  5
B4
  8
1
  6
CONTINUOUS
 62
     7
 10
-233.8994294196569
 20
274.3983432649264
 30
0.0
 11
-234.0117889702186
 21
277.917651734431
 31
0.0
  0
LINE
  5
B5
  8
1
  6
CONTINUOUS
 62
     7
 10
-233.7870698690951
 20
272.3343215517094
 30
0.0
 11
-233.8994294196569
 21
274.3983432649264
 31
0.0
  0
LINE
  5
B6
  8
1
  6
CONTINUOUS
 62
     7
 10
-232.6634743634771
 20
300.3576938604283
 30
0.0
 11
-232.6821938870123
 21
300.4514971801805
 31
0.0
  0
LINE
  5
B7
  8
1
  6
CONTINUOUS
 62
     7
 10
-232.5511148129153
 20
298.7890979585999
 30
0.0
 11
-232.6634743634771
 21
300.3576938604283
 31
0.0
  0
LINE
  5
B8
  8
1
  6
CONTINUOUS
 62
     7
 10
-232.4387552623535
 20
295.6681142908825
 30
0.0
 11
-232.5511148129153
 21
298.7890979585999
 31
0.0
  0
LINE
  5
B9
  8
1
  6
CONTINUOUS
 62
     7
 10
-232.3263957117916
 20
291.3795978229879
 30
0.0
 11
-232.4387552623535
 21
295.6681142908825
 31
0.0
  0
LINE
  5
BA
  8
1
  6
CONTINUOUS
 62
     7
 10
-231.9893170601063
 20
277.1159888550235
 30
0.0
 11
-232.1016766106681
 21
281.4940301862611
 31
0.0
  0
LINE
  5
BB
  8
1
  6
CONTINUOUS
 62
     7
 10
-231.8769575095445
 20
273.8581157688093
 30
0.0
 11
-231.9893170601063
 21
277.1159888550235
 31
0.0
  0
LINE
  5
BC
  8
1
  6
CONTINUOUS
 62
     7
 10
-231.7645979589827
 20
272.1221460112947
 30
0.0
 11
-231.8769575095445
 21
273.8581157688093
 31
0.0
  0
LINE
  5
BD
  8
1
  6
CONTINUOUS
 62
     7
 10
-230.6410024533648
 20
300.1804756623062
 30
0.0
 11
-230.6819844076499
 21
300.4507196518398
 31
0.0
  0
LINE
  5
BE
  8
1
  6
CONTINUOUS
 62
     7
 10
-230.5286429028029
 20
298.2792963495306
 30
0.0
 11
-230.6410024533648
 21
300.1804756623062
 31
0.0
  0
LINE
  5
BF
  8
1
  6
CONTINUOUS
 62
     7
 10
-230.4162833522412
 20
294.8885939640772
 30
0.0
 11
-230.5286429028029
 21
298.2792963495306
 31
0.0
  0
LINE
  5
C0
  8
1
  6
CONTINUOUS
 62
     7
 10
-230.3040484727056
 20
290.4318327195148
 30
0.0
 11
-230.4162833522412
 21
294.8885939640772
 31
0.0
  0
LINE
  5
C1
  8
1
  6
CONTINUOUS
 62
     7
 10
-230.0792047005558
 20
280.5532315399301
 30
0.0
 11
-230.1915642511175
 21
285.4431957419533
 31
0.0
  0
LINE
  5
C2
  8
1
  6
CONTINUOUS
 62
     7
 10
-229.966845149994
 20
276.3595820622037
 30
0.0
 11
-230.0792047005558
 21
280.5532315399302
 31
0.0
  0
LINE
  5
C3
  8
1
  6
CONTINUOUS
 62
     7
 10
-229.8544855994322
 20
273.3793749191166
 30
0.0
 11
-229.966845149994
 21
276.3595820622037
 31
0.0
  0
LINE
  5
C4
  8
1
  6
CONTINUOUS
 62
     7
 10
-229.7421260488704
 20
271.9801056313146
 30
0.0
 11
-229.8544855994322
 21
273.3793749191166
 31
0.0
  0
LINE
  5
C5
  8
1
  6
CONTINUOUS
 62
     7
 10
-228.6185305432525
 20
299.9336074376742
 30
0.0
 11
-228.6821694004729
 21
300.4514066116181
 31
0.0
  0
LINE
  5
C6
  8
1
  6
CONTINUOUS
 62
     7
 10
-228.5061709926895
 20
297.7093162936289
 30
0.0
 11
-228.6185305432525
 21
299.9336074376742
 31
0.0
  0
LINE
  5
C7
  8
1
  6
CONTINUOUS
 62
     7
 10
-228.3938114421346
 20
294.0657874994107
 30
0.0
 11
-228.5061709926895
 21
297.7093162936289
 31
0.0
  0
LINE
  5
C8
  8
1
  6
CONTINUOUS
 62
     7
 10
-228.2814518915418
 20
289.4523121416868
 30
0.0
 11
-228.3938114421346
 21
294.0657874994107
 31
0.0
  0
LINE
  5
C9
  8
1
  6
CONTINUOUS
 62
     7
 10
-228.1690923411009
 20
284.4377874384337
 30
0.0
 11
-228.2814518915418
 21
289.4523121416868
 31
0.0
  0
LINE
  5
CA
  8
1
  6
CONTINUOUS
 62
     7
 10
-228.0567327901235
 20
279.6405647972549
 30
0.0
 11
-228.1690923411009
 21
284.4377874384337
 31
0.0
  0
LINE
  5
CB
  8
1
  6
CONTINUOUS
 62
     7
 10
-227.9443732407546
 20
275.6521997630389
 30
0.0
 11
-228.0567327901235
 21
279.6405647972549
 31
0.0
  0
LINE
  5
CC
  8
1
  6
CONTINUOUS
 62
     7
 10
-227.8320136874858
 20
272.9645057474893
 30
0.0
 11
-227.9443732407546
 21
275.6521997630389
 31
0.0
  0
LINE
  5
CD
  8
1
  6
CONTINUOUS
 62
     7
 10
-227.7196541393986
 20
271.9089080508118
 30
0.0
 11
-227.8320136874858
 21
272.9645057474893
 31
0.0
  0
LINE
  5
CE
  8
1
  6
CONTINUOUS
 62
     7
 10
-226.9415728348121
 20
301.3701450039686
 30
0.0
 11
-226.7084181837007
 21
300.5
 31
0.0
  0
LINE
  5
CF
  8
1
  6
CONTINUOUS
 62
     7
 10
-226.6407170635819
 20
271.9414538125686
 30
0.0
 11
-226.6091885559584
 21
271.9000329773658
 31
0.0
  0
POLYLINE
  5
D0
  8
1
  6
CONTINUOUS
 62
     7
 66
     1
 10
0.0
 20
0.0
 30
0.0
  0
VERTEX
  5
47C
  8
1
  6
CONTINUOUS
 62
     7
 10
-226.0086689436498
 20
271.9415394274093
 30
0.0
  0
VERTEX
  5
47D
  8
1
  6
CONTINUOUS
 62
     7
 10
-226.0192315143517
 20
271.9868133899642
 30
0.0
  0
VERTEX
  5
47E
  8
1
  6
CONTINUOUS
 62
     7
 10
-226.0297857401534
 20
272.0478296081059
 30
0.0
  0
VERTEX
  5
47F
  8
1
  6
CONTINUOUS
 62
     7
 10
-226.0403316411363
 20
272.1245816253573
 30
0.0
  0
VERTEX
  5
480
  8
1
  6
CONTINUOUS
 62
     7
 10
-226.0508692369762
 20
272.2169747637807
 30
0.0
  0
VERTEX
  5
481
  8
1
  6
CONTINUOUS
 62
     7
 10
-226.0613985469261
 20
272.3248224148913
 30
0.0
  0
VERTEX
  5
482
  8
1
  6
CONTINUOUS
 62
     7
 10
-226.0719195902196
 20
272.4479336705292
 30
0.0
  0
VERTEX
  5
483
  8
1
  6
CONTINUOUS
 62
     7
 10
-226.0824323860902
 20
272.5861176225339
 30
0.0
  0
VERTEX
  5
484
  8
1
  6
CONTINUOUS
 62
     7
 10
-226.0929369537712
 20
272.7391833627458
 30
0.0
  0
VERTEX
  5
485
  8
1
  6
CONTINUOUS
 62
     7
 10
-226.1034333124961
 20
272.9069399830047
 30
0.0
  0
VERTEX
  5
486
  8
1
  6
CONTINUOUS
 62
     7
 10
-226.1139214814984
 20
273.0891965751503
 30
0.0
  0
VERTEX
  5
487
  8
1
  6
CONTINUOUS
 62
     7
 10
-226.1244014800115
 20
273.2857622310225
 30
0.0
  0
VERTEX
  5
488
  8
1
  6
CONTINUOUS
 62
     7
 10
-226.1348733272689
 20
273.4964460424613
 30
0.0
  0
VERTEX
  5
489
  8
1
  6
CONTINUOUS
 62
     7
 10
-226.1453370425039
 20
273.7210571013067
 30
0.0
  0
VERTEX
  5
48A
  8
1
  6
CONTINUOUS
 62
     7
 10
-226.1557926449472
 20
273.959403930304
 30
0.0
  0
VERTEX
  5
48B
  8
1
  6
CONTINUOUS
 62
     7
 10
-226.1662401535546
 20
274.2112428454013
 30
0.0
  0
VERTEX
  5
48C
  8
1
  6
CONTINUOUS
 62
     7
 10
-226.1766795867913
 20
274.4762366810166
 30
0.0
  0
VERTEX
  5
48D
  8
1
  6
CONTINUOUS
 62
     7
 10
-226.1871109630711
 20
274.7540385587154
 30
0.0
  0
VERTEX
  5
48E
  8
1
  6
CONTINUOUS
 62
     7
 10
-226.1975343008078
 20
275.0443016000636
 30
0.0
  0
VERTEX
  5
48F
  8
1
  6
CONTINUOUS
 62
     7
 10
-226.2079496184155
 20
275.3466789266271
 30
0.0
  0
VERTEX
  5
490
  8
1
  6
CONTINUOUS
 62
     7
 10
-226.2183569343079
 20
275.6608236599715
 30
0.0
  0
VERTEX
  5
491
  8
1
  6
CONTINUOUS
 62
     7
 10
-226.2287562668989
 20
275.9863889216628
 30
0.0
  0
VERTEX
  5
492
  8
1
  6
CONTINUOUS
 62
     7
 10
-226.2391476346024
 20
276.3230278332666
 30
0.0
  0
VERTEX
  5
493
  8
1
  6
CONTINUOUS
 62
     7
 10
-226.2495310558324
 20
276.6703935163488
 30
0.0
  0
VERTEX
  5
494
  8
1
  6
CONTINUOUS
 62
     7
 10
-226.2599065490026
 20
277.0281390924752
 30
0.0
  0
VERTEX
  5
495
  8
1
  6
CONTINUOUS
 62
     7
 10
-226.2702741325271
 20
277.3959176832115
 30
0.0
  0
VERTEX
  5
496
  8
1
  6
CONTINUOUS
 62
     7
 10
-226.2806338246982
 20
277.7733661757546
 30
0.0
  0
VERTEX
  5
497
  8
1
  6
CONTINUOUS
 62
     7
 10
-226.2909856432887
 20
278.1600519100255
 30
0.0
  0
VERTEX
  5
498
  8
1
  6
CONTINUOUS
 62
     7
 10
-226.301329605932
 20
278.5555236060259
 30
0.0
  0
VERTEX
  5
499
  8
1
  6
CONTINUOUS
 62
     7
 10
-226.3116657302614
 20
278.9593299835502
 30
0.0
  0
VERTEX
  5
49A
  8
1
  6
CONTINUOUS
 62
     7
 10
-226.3219940339104
 20
279.3710197623927
 30
0.0
  0
VERTEX
  5
49B
  8
1
  6
CONTINUOUS
 62
     7
 10
-226.3323145345124
 20
279.7901416623475
 30
0.0
  0
VERTEX
  5
49C
  8
1
  6
CONTINUOUS
 62
     7
 10
-226.3426272497009
 20
280.2162444032091
 30
0.0
  0
VERTEX
  5
49D
  8
1
  6
CONTINUOUS
 62
     7
 10
-226.3529321971091
 20
280.6488767047717
 30
0.0
  0
VERTEX
  5
49E
  8
1
  6
CONTINUOUS
 62
     7
 10
-226.3632293943707
 20
281.0875872868294
 30
0.0
  0
VERTEX
  5
49F
  8
1
  6
CONTINUOUS
 62
     7
 10
-226.3735188591189
 20
281.5319248691767
 30
0.0
  0
VERTEX
  5
4A0
  8
1
  6
CONTINUOUS
 62
     7
 10
-226.3838006089873
 20
281.9814381716077
 30
0.0
  0
VERTEX
  5
4A1
  8
1
  6
CONTINUOUS
 62
     7
 10
-226.3940746615858
 20
282.4356746102569
 30
0.0
  0
VERTEX
  5
4A2
  8
1
  6
CONTINUOUS
 62
     7
 10
-226.4043410341409
 20
282.8941601489551
 30
0.0
  0
VERTEX
  5
4A3
  8
1
  6
CONTINUOUS
 62
     7
 10
-226.4145997435644
 20
283.3564031821427
 30
0.0
  0
VERTEX
  5
4A4
  8
1
  6
CONTINUOUS
 62
     7
 10
-226.4248508067592
 20
283.8219115869016
 30
0.0
  0
VERTEX
  5
4A5
  8
1
  6
CONTINUOUS
 62
     7
 10
-226.4350942406279
 20
284.2901932403136
 30
0.0
  0
VERTEX
  5
4A6
  8
1
  6
CONTINUOUS
 62
     7
 10
-226.4453300620735
 20
284.7607560194602
 30
0.0
  0
VERTEX
  5
4A7
  8
1
  6
CONTINUOUS
 62
     7
 10
-226.4555582879985
 20
285.2331078014236
 30
0.0
  0
VERTEX
  5
4A8
  8
1
  6
CONTINUOUS
 62
     7
 10
-226.4657789353056
 20
285.7067564632852
 30
0.0
  0
VERTEX
  5
4A9
  8
1
  6
CONTINUOUS
 62
     7
 10
-226.4759920208977
 20
286.1812098821271
 30
0.0
  0
VERTEX
  5
4AA
  8
1
  6
CONTINUOUS
 62
     7
 10
-226.4861975616775
 20
286.6559759350308
 30
0.0
  0
VERTEX
  5
4AB
  8
1
  6
CONTINUOUS
 62
     7
 10
-226.4963955745478
 20
287.1305624990783
 30
0.0
  0
VERTEX
  5
4AC
  8
1
  6
CONTINUOUS
 62
     7
 10
-226.5065860764112
 20
287.6044774533702
 30
0.0
  0
VERTEX
  5
4AD
  8
1
  6
CONTINUOUS
 62
     7
 10
-226.5167690840176
 20
288.077234085855
 30
0.0
  0
VERTEX
  5
4AE
  8
1
  6
CONTINUOUS
 62
     7
 10
-226.5269446136322
 20
288.5483628526657
 30
0.0
  0
VERTEX
  5
4AF
  8
1
  6
CONTINUOUS
 62
     7
 10
-226.537112681424
 20
289.01739760839
 30
0.0
  0
VERTEX
  5
4B0
  8
1
  6
CONTINUOUS
 62
     7
 10
-226.5472733035623
 20
289.4838722076161
 30
0.0
  0
VERTEX
  5
4B1
  8
1
  6
CONTINUOUS
 62
     7
 10
-226.5574264962162
 20
289.9473205049318
 30
0.0
  0
VERTEX
  5
4B2
  8
1
  6
CONTINUOUS
 62
     7
 10
-226.5675722755548
 20
290.4072763549248
 30
0.0
  0
VERTEX
  5
4B3
  8
1
  6
CONTINUOUS
 62
     7
 10
-226.5777106577471
 20
290.8632736121831
 30
0.0
  0
VERTEX
  5
4B4
  8
1
  6
CONTINUOUS
 62
     7
 10
-226.5878416589624
 20
291.3148461312945
 30
0.0
  0
VERTEX
  5
4B5
  8
1
  6
CONTINUOUS
 62
     7
 10
-226.5979652953698
 20
291.7615277668469
 30
0.0
  0
VERTEX
  5
4B6
  8
1
  6
CONTINUOUS
 62
     7
 10
-226.6080815831385
 20
292.2028523734283
 30
0.0
  0
VERTEX
  5
4B7
  8
1
  6
CONTINUOUS
 62
     7
 10
-226.6181905384374
 20
292.6383538056264
 30
0.0
  0
VERTEX
  5
4B8
  8
1
  6
CONTINUOUS
 62
     7
 10
-226.6282921774254
 20
293.0675675252418
 30
0.0
  0
VERTEX
  5
4B9
  8
1
  6
CONTINUOUS
 62
     7
 10
-226.6383865159958
 20
293.4900695698615
 30
0.0
  0
VERTEX
  5
4BA
  8
1
  6
CONTINUOUS
 62
     7
 10
-226.6484735697633
 20
293.9054786658438
 30
0.0
  0
VERTEX
  5
4BB
  8
1
  6
CONTINUOUS
 62
     7
 10
-226.6585533543291
 20
294.313415569698
 30
0.0
  0
VERTEX
  5
4BC
  8
1
  6
CONTINUOUS
 62
     7
 10
-226.6686258852945
 20
294.7135010379337
 30
0.0
  0
VERTEX
  5
4BD
  8
1
  6
CONTINUOUS
 62
     7
 10
-226.6786911782609
 20
295.1053558270603
 30
0.0
  0
VERTEX
  5
4BE
  8
1
  6
CONTINUOUS
 62
     7
 10
-226.6887492488295
 20
295.4886006935872
 30
0.0
  0
VERTEX
  5
4BF
  8
1
  6
CONTINUOUS
 62
     7
 10
-226.6988001126016
 20
295.8628563940238
 30
0.0
  0
VERTEX
  5
4C0
  8
1
  6
CONTINUOUS
 62
     7
 10
-226.7088437851786
 20
296.2277436848798
 30
0.0
  0
VERTEX
  5
4C1
  8
1
  6
CONTINUOUS
 62
     7
 10
-226.7188802821617
 20
296.5828833226643
 30
0.0
  0
VERTEX
  5
4C2
  8
1
  6
CONTINUOUS
 62
     7
 10
-226.7289096191522
 20
296.927896063887
 30
0.0
  0
VERTEX
  5
4C3
  8
1
  6
CONTINUOUS
 62
     7
 10
-226.7389318117515
 20
297.2624026650573
 30
0.0
  0
VERTEX
  5
4C4
  8
1
  6
CONTINUOUS
 62
     7
 10
-226.7489468754876
 20
297.5860347423436
 30
0.0
  0
VERTEX
  5
4C5
  8
1
  6
CONTINUOUS
 62
     7
 10
-226.7589548253225
 20
297.8985080427192
 30
0.0
  0
VERTEX
  5
4C6
  8
1
  6
CONTINUOUS
 62
     7
 10
-226.7689556759537
 20
298.1995775907503
 30
0.0
  0
VERTEX
  5
4C7
  8
1
  6
CONTINUOUS
 62
     7
 10
-226.7789494420771
 20
298.4889986325177
 30
0.0
  0
VERTEX
  5
4C8
  8
1
  6
CONTINUOUS
 62
     7
 10
-226.7889361383887
 20
298.7665264141032
 30
0.0
  0
VERTEX
  5
4C9
  8
1
  6
CONTINUOUS
 62
     7
 10
-226.7989157795844
 20
299.0319161815877
 30
0.0
  0
VERTEX
  5
4CA
  8
1
  6
CONTINUOUS
 62
     7
 10
-226.8088883803603
 20
299.2849231810526
 30
0.0
  0
VERTEX
  5
4CB
  8
1
  6
CONTINUOUS
 62
     7
 10
-226.8188539554123
 20
299.5253026585793
 30
0.0
  0
VERTEX
  5
4CC
  8
1
  6
CONTINUOUS
 62
     7
 10
-226.8288125194364
 20
299.752809860249
 30
0.0
  0
VERTEX
  5
4CD
  8
1
  6
CONTINUOUS
 62
     7
 10
-226.8387640871285
 20
299.967200032143
 30
0.0
  0
VERTEX
  5
4CE
  8
1
  6
CONTINUOUS
 62
     7
 10
-226.8487086731848
 20
300.1682284203426
 30
0.0
  0
VERTEX
  5
4CF
  8
1
  6
CONTINUOUS
 62
     7
 10
-226.8586462923009
 20
300.3556502709292
 30
0.0
  0
VERTEX
  5
4D0
  8
1
  6
CONTINUOUS
 62
     7
 10
-226.8685769591626
 20
300.5292472204152
 30
0.0
  0
VERTEX
  5
4D1
  8
1
  6
CONTINUOUS
 62
     7
 10
-226.8785006884117
 20
300.6889089896941
 30
0.0
  0
VERTEX
  5
4D2
  8
1
  6
CONTINUOUS
 62
     7
 10
-226.8884174946793
 20
300.8345529664166
 30
0.0
  0
VERTEX
  5
4D3
  8
1
  6
CONTINUOUS
 62
     7
 10
-226.8983273925966
 20
300.9660965382467
 30
0.0
  0
VERTEX
  5
4D4
  8
1
  6
CONTINUOUS
 62
     7
 10
-226.9082303967945
 20
301.0834570928486
 30
0.0
  0
SEQEND
  5
547
  8
1
  6
CONTINUOUS
 62
     7
  0
POLYLINE
  5
D1
  8
1
  6
CONTINUOUS
 62
     7
 66
     1
 10
0.0
 20
0.0
 30
0.0
  0
VERTEX
  5
4D5
  8
1
  6
CONTINUOUS
 62
     7
 10
-227.6084181837008
 20
301.5
 30
0.0
  0
VERTEX
  5
4D6
  8
1
  6
CONTINUOUS
 62
     7
 10
-227.5972339825186
 20
301.4792881787229
 30
0.0
  0
VERTEX
  5
4D7
  8
1
  6
CONTINUOUS
 62
     7
 10
-227.5860410321917
 20
301.4395938866748
 30
0.0
  0
VERTEX
  5
4D8
  8
1
  6
CONTINUOUS
 62
     7
 10
-227.5748393113434
 20
301.381037838151
 30
0.0
  0
VERTEX
  5
4D9
  8
1
  6
CONTINUOUS
 62
     7
 10
-227.5636287985969
 20
301.3037407474473
 30
0.0
  0
VERTEX
  5
4DA
  8
1
  6
CONTINUOUS
 62
     7
 10
-227.5524094725757
 20
301.2078233288593
 30
0.0
  0
VERTEX
  5
4DB
  8
1
  6
CONTINUOUS
 62
     7
 10
-227.5411813119029
 20
301.0934062966823
 30
0.0
  0
VERTEX
  5
4DC
  8
1
  6
CONTINUOUS
 62
     7
 10
-227.5299442952019
 20
300.9606103652123
 30
0.0
  0
VERTEX
  5
4DD
  8
1
  6
CONTINUOUS
 62
     7
 10
-227.5186984010961
 20
300.8095562487446
 30
0.0
  0
VERTEX
  5
4DE
  8
1
  6
CONTINUOUS
 62
     7
 10
-227.5074436082087
 20
300.6403646615749
 30
0.0
  0
VERTEX
  5
4DF
  8
1
  6
CONTINUOUS
 62
     7
 10
-227.496179895163
 20
300.4531563179987
 30
0.0
  0
VERTEX
  5
4E0
  8
1
  6
CONTINUOUS
 62
     7
 10
-227.48490724058
 20
300.2480574989987
 30
0.0
  0
VERTEX
  5
4E1
  8
1
  6
CONTINUOUS
 62
     7
 10
-227.4736256230328
 20
300.0253110109368
 30
0.0
  0
VERTEX
  5
4E2
  8
1
  6
CONTINUOUS
 62
     7
 10
-227.4623350210486
 20
299.7852701293846
 30
0.0
  0
VERTEX
  5
4E3
  8
1
  6
CONTINUOUS
 62
     7
 10
-227.451035413153
 20
299.5282924842853
 30
0.0
  0
VERTEX
  5
4E4
  8
1
  6
CONTINUOUS
 62
     7
 10
-227.4397267778716
 20
299.2547357055814
 30
0.0
  0
VERTEX
  5
4E5
  8
1
  6
CONTINUOUS
 62
     7
 10
-227.4284090937298
 20
298.9649574232157
 30
0.0
  0
VERTEX
  5
4E6
  8
1
  6
CONTINUOUS
 62
     7
 10
-227.4170823392533
 20
298.6593152671314
 30
0.0
  0
VERTEX
  5
4E7
  8
1
  6
CONTINUOUS
 62
     7
 10
-227.4057464929676
 20
298.338166867271
 30
0.0
  0
VERTEX
  5
4E8
  8
1
  6
CONTINUOUS
 62
     7
 10
-227.3944015333983
 20
298.0018698535775
 30
0.0
  0
VERTEX
  5
4E9
  8
1
  6
CONTINUOUS
 62
     7
 10
-227.3830474390709
 20
297.6507818559937
 30
0.0
  0
VERTEX
  5
4EA
  8
1
  6
CONTINUOUS
 62
     7
 10
-227.3716841885105
 20
297.2852605721886
 30
0.0
  0
VERTEX
  5
4EB
  8
1
  6
CONTINUOUS
 62
     7
 10
-227.3603117599284
 20
296.9057103627571
 30
0.0
  0
VERTEX
  5
4EC
  8
1
  6
CONTINUOUS
 62
     7
 10
-227.3489301306753
 20
296.5126636142649
 30
0.0
  0
VERTEX
  5
4ED
  8
1
  6
CONTINUOUS
 62
     7
 10
-227.3375392779551
 20
296.1066744752757
 30
0.0
  0
VERTEX
  5
4EE
  8
1
  6
CONTINUOUS
 62
     7
 10
-227.3261391789722
 20
295.6882970943547
 30
0.0
  0
VERTEX
  5
4EF
  8
1
  6
CONTINUOUS
 62
     7
 10
-227.3147298109307
 20
295.2580856200659
 30
0.0
  0
VERTEX
  5
4F0
  8
1
  6
CONTINUOUS
 62
     7
 10
-227.3033111510347
 20
294.816594200974
 30
0.0
  0
VERTEX
  5
4F1
  8
1
  6
CONTINUOUS
 62
     7
 10
-227.2918831764885
 20
294.3643769856434
 30
0.0
  0
VERTEX
  5
4F2
  8
1
  6
CONTINUOUS
 62
     7
 10
-227.2804458644961
 20
293.9019881226387
 30
0.0
  0
VERTEX
  5
4F3
  8
1
  6
CONTINUOUS
 62
     7
 10
-227.268999192262
 20
293.4299817605244
 30
0.0
  0
VERTEX
  5
4F4
  8
1
  6
CONTINUOUS
 62
     7
 10
-227.25754313699
 20
292.9489120478648
 30
0.0
  0
VERTEX
  5
4F5
  8
1
  6
CONTINUOUS
 62
     7
 10
-227.246077675808
 20
292.4593448370701
 30
0.0
  0
VERTEX
  5
4F6
  8
1
  6
CONTINUOUS
 62
     7
 10
-227.2346027853141
 20
291.9619269206656
 30
0.0
  0
VERTEX
  5
4F7
  8
1
  6
CONTINUOUS
 62
     7
 10
-227.2231184418827
 20
291.4573393023761
 30
0.0
  0
VERTEX
  5
4F8
  8
1
  6
CONTINUOUS
 62
     7
 10
-227.2116246218875
 20
290.946263107654
 30
0.0
  0
VERTEX
  5
4F9
  8
1
  6
CONTINUOUS
 62
     7
 10
-227.2001213017023
 20
290.4293794619518
 30
0.0
  0
VERTEX
  5
4FA
  8
1
  6
CONTINUOUS
 62
     7
 10
-227.1886084577005
 20
289.9073694907221
 30
0.0
  0
VERTEX
  5
4FB
  8
1
  6
CONTINUOUS
 62
     7
 10
-227.1770860662559
 20
289.3809143194173
 30
0.0
  0
VERTEX
  5
4FC
  8
1
  6
CONTINUOUS
 62
     7
 10
-227.1655541037421
 20
288.85069507349
 30
0.0
  0
VERTEX
  5
4FD
  8
1
  6
CONTINUOUS
 62
     7
 10
-227.1540125465328
 20
288.317392878393
 30
0.0
  0
VERTEX
  5
4FE
  8
1
  6
CONTINUOUS
 62
     7
 10
-227.1424613710017
 20
287.7816888595784
 30
0.0
  0
VERTEX
  5
4FF
  8
1
  6
CONTINUOUS
 62
     7
 10
-227.1309005534835
 20
287.2442655138637
 30
0.0
  0
VERTEX
  5
500
  8
1
  6
CONTINUOUS
 62
     7
 10
-227.1193300697356
 20
286.705825797807
 30
0.0
  0
VERTEX
  5
501
  8
1
  6
CONTINUOUS
 62
     7
 10
-227.1077498950712
 20
286.1670883873149
 30
0.0
  0
VERTEX
  5
502
  8
1
  6
CONTINUOUS
 62
     7
 10
-227.0961600047922
 20
285.628772360887
 30
0.0
  0
VERTEX
  5
503
  8
1
  6
CONTINUOUS
 62
     7
 10
-227.0845603742005
 20
285.0915967970224
 30
0.0
  0
VERTEX
  5
504
  8
1
  6
CONTINUOUS
 62
     7
 10
-227.0729509785981
 20
284.5562807742208
 30
0.0
  0
VERTEX
  5
505
  8
1
  6
CONTINUOUS
 62
     7
 10
-227.0613317932868
 20
284.0235433709813
 30
0.0
  0
VERTEX
  5
506
  8
1
  6
CONTINUOUS
 62
     7
 10
-227.0497027935686
 20
283.4941036658036
 30
0.0
  0
VERTEX
  5
507
  8
1
  6
CONTINUOUS
 62
     7
 10
-227.0380639547454
 20
282.9686807371867
 30
0.0
  0
VERTEX
  5
508
  8
1
  6
CONTINUOUS
 62
     7
 10
-227.0264152521191
 20
282.4479936636302
 30
0.0
  0
VERTEX
  5
509
  8
1
  6
CONTINUOUS
 62
     7
 10
-227.0147566609735
 20
281.9327605095694
 30
0.0
  0
VERTEX
  5
50A
  8
1
  6
CONTINUOUS
 62
     7
 10
-227.0030881561029
 20
281.4236719797994
 30
0.0
  0
VERTEX
  5
50B
  8
1
  6
CONTINUOUS
 62
     7
 10
-226.9914097117683
 20
280.9213889694731
 30
0.0
  0
VERTEX
  5
50C
  8
1
  6
CONTINUOUS
 62
     7
 10
-226.9797213022038
 20
280.4265708685496
 30
0.0
  0
VERTEX
  5
50D
  8
1
  6
CONTINUOUS
 62
     7
 10
-226.9680229016436
 20
279.9398770669874
 30
0.0
  0
VERTEX
  5
50E
  8
1
  6
CONTINUOUS
 62
     7
 10
-226.9563144843217
 20
279.461966954745
 30
0.0
  0
VERTEX
  5
50F
  8
1
  6
CONTINUOUS
 62
     7
 10
-226.9445960244722
 20
278.9934999217813
 30
0.0
  0
VERTEX
  5
510
  8
1
  6
CONTINUOUS
 62
     7
 10
-226.9328674963292
 20
278.535135358055
 30
0.0
  0
VERTEX
  5
511
  8
1
  6
CONTINUOUS
 62
     7
 10
-226.921128874127
 20
278.0875326535248
 30
0.0
  0
VERTEX
  5
512
  8
1
  6
CONTINUOUS
 62
     7
 10
-226.9093801320994
 20
277.6513511981493
 30
0.0
  0
VERTEX
  5
513
  8
1
  6
CONTINUOUS
 62
     7
 10
-226.8976212444666
 20
277.2272484978677
 30
0.0
  0
VERTEX
  5
514
  8
1
  6
CONTINUOUS
 62
     7
 10
-226.8858521849607
 20
276.8158167873671
 30
0.0
  0
VERTEX
  5
515
  8
1
  6
CONTINUOUS
 62
     7
 10
-226.8740729267122
 20
276.417567854233
 30
0.0
  0
VERTEX
  5
516
  8
1
  6
CONTINUOUS
 62
     7
 10
-226.862283442815
 20
276.0330085252219
 30
0.0
  0
VERTEX
  5
517
  8
1
  6
CONTINUOUS
 62
     7
 10
-226.8504837063625
 20
275.6626456270899
 30
0.0
  0
VERTEX
  5
518
  8
1
  6
CONTINUOUS
 62
     7
 10
-226.8386736904484
 20
275.3069859865934
 30
0.0
  0
VERTEX
  5
519
  8
1
  6
CONTINUOUS
 62
     7
 10
-226.8268533681662
 20
274.9665364304882
 30
0.0
  0
VERTEX
  5
51A
  8
1
  6
CONTINUOUS
 62
     7
 10
-226.8150227126096
 20
274.641803785531
 30
0.0
  0
VERTEX
  5
51B
  8
1
  6
CONTINUOUS
 62
     7
 10
-226.8031816968722
 20
274.3332948784777
 30
0.0
  0
VERTEX
  5
51C
  8
1
  6
CONTINUOUS
 62
     7
 10
-226.7913302940476
 20
274.0415165360845
 30
0.0
  0
VERTEX
  5
51D
  8
1
  6
CONTINUOUS
 62
     7
 10
-226.77946847721
 20
273.7669719028181
 30
0.0
  0
VERTEX
  5
51E
  8
1
  6
CONTINUOUS
 62
     7
 10
-226.7675962188907
 20
273.5100607872643
 30
0.0
  0
VERTEX
  5
51F
  8
1
  6
CONTINUOUS
 62
     7
 10
-226.7557134910173
 20
273.2710681028843
 30
0.0
  0
VERTEX
  5
520
  8
1
  6
CONTINUOUS
 62
     7
 10
-226.7438202654856
 20
273.0502727608493
 30
0.0
  0
VERTEX
  5
521
  8
1
  6
CONTINUOUS
 62
     7
 10
-226.7319165141917
 20
272.8479536723307
 30
0.0
  0
VERTEX
  5
522
  8
1
  6
CONTINUOUS
 62
     7
 10
-226.7200022090316
 20
272.6643897484996
 30
0.0
  0
VERTEX
  5
523
  8
1
  6
CONTINUOUS
 62
     7
 10
-226.7080773219013
 20
272.499859900527
 30
0.0
  0
VERTEX
  5
524
  8
1
  6
CONTINUOUS
 62
     7
 10
-226.6961418246966
 20
272.3546430395843
 30
0.0
  0
VERTEX
  5
525
  8
1
  6
CONTINUOUS
 62
     7
 10
-226.6841956893138
 20
272.2290180768425
 30
0.0
  0
SEQEND
  5
548
  8
1
  6
CONTINUOUS
 62
     7
  0
LINE
  5
D2
  8
1
  6
CONTINUOUS
 62
     7
 10
-225.9771133851422
 20
271.9000328109502
 30
0.0
 11
-226.0086689436498
 21
271.9415394274093
 31
0.0
  0
LINE
  5
D3
  8
1
  6
CONTINUOUS
 62
     7
 10
-226.6841956893138
 20
272.2290180768425
 30
0.0
 11
-226.6407170635819
 21
271.9414538125686
 31
0.0
  0
ARC
  5
D4
  8
1
  6
CONTINUOUS
 62
     7
 10
-4448.691358710761
 20
116.7570736749266
 30
0.0
 40
4224.851163693105
 50
2.109933596897168
 51
2.491588944061768
  0
LINE
  5
D5
  8
1
  6
CONTINUOUS
 62
     7
 10
-227.8343094417745
 20
300.4228706957477
 30
0.0
 11
-227.8763673761318
 21
300.5
 31
0.0
  0
LINE
  5
D6
  8
1
  6
CONTINUOUS
 62
     7
 10
-226.6091885559584
 20
271.9000329773658
 30
0.0
 11
-226.6391116044097
 21
271.941450234668
 31
0.0
  0
LINE
  5
D7
  8
1
  6
CONTINUOUS
 62
     7
 10
-226.6391116044097
 20
271.941450234668
 30
0.0
 11
-226.6453451229305
 21
271.9598829176118
 31
0.0
  0
LINE
  5
D8
  8
1
  6
CONTINUOUS
 62
     7
 10
-226.6453451229305
 20
271.9598829176118
 30
0.0
 11
-226.7045355525868
 21
272.3032740069723
 31
0.0
  0
LINE
  5
D9
  8
1
  6
CONTINUOUS
 62
     7
 10
-226.9082303967945
 20
301.0834570928485
 30
0.0
 11
-226.9763673761319
 21
301.4999999999999
 31
0.0
  0
ARC
  5
DA
  8
1
  6
CONTINUOUS
 62
     7
 10
6233.258104642297
 20
438.5195963141006
 30
0.0
 40
6461.397799342069
 50
181.2269046883597
 51
181.477374061205
  0
LINE
  5
DB
  8
1
  6
CONTINUOUS
 62
     7
 10
-225.9918241870006
 20
271.9306463166159
 30
0.0
 11
-225.9771133851422
 21
271.9000328109502
 31
0.0
  0
LINE
  5
DC
  8
1
  6
CONTINUOUS
 62
     7
 10
-226.7084181837007
 20
300.5
 30
0.0
 11
-226.6583494954107
 21
300.1688575974005
 31
0.0
  0
LINE
  5
DD
  8
1
  6
CONTINUOUS
 62
     7
 10
-227.7084178726463
 20
271.9000000000057
 30
0.0
 11
-227.7196541393986
 21
271.9089080508118
 31
0.0
  0
LINE
  5
DE
  8
1
  6
CONTINUOUS
 62
     7
 10
-229.7084184032971
 20
271.9000000000042
 30
0.0
 11
-229.7421260488704
 21
271.9801056313146
 31
0.0
  0
LINE
  5
DF
  8
1
  6
CONTINUOUS
 62
     7
 10
-231.7084181583798
 20
271.9
 30
0.0
 11
-231.7645979589827
 21
272.1221460112947
 31
0.0
  0
LINE
  5
E0
  8
1
  6
CONTINUOUS
 62
     7
 10
-233.7084179134729
 20
271.9000000000042
 30
0.0
 11
-233.7870698690951
 21
272.3343215517094
 31
0.0
  0
LINE
  5
E1
  8
1
  6
CONTINUOUS
 62
     7
 10
-233.8763677280023
 20
300.4999999999925
 30
0.0
 11
-233.831423555906
 21
300.3576935402849
 31
0.0
  0
LINE
  5
E2
  8
1
  6
CONTINUOUS
 62
     7
 10
-231.8763670748976
 20
300.4999999999925
 30
0.0
 11
-231.8089516457937
 21
300.1804751840857
 31
0.0
  0
LINE
  5
E3
  8
1
  6
CONTINUOUS
 62
     7
 10
-229.8763675647303
 20
300.4999999999981
 30
0.0
 11
-229.7864797356814
 21
299.9336068037592
 31
0.0
  0
ARC
  5
E4
  8
1
  6
CONTINUOUS
 62
     7
 10
-251.7648224603174
 20
286.2
 30
0.0
 40
4.300135491771847
 50
324.4525460253795
 51
35.54745397462209
  0
ARC
  5
E5
  8
1
  6
CONTINUOUS
 62
     7
 10
-238.5258653466014
 20
277.2
 30
0.0
 40
11.70990499157166
 50
146.2833869731009
 51
213.7166130268987
  0
POLYLINE
  5
E6
  8
1
  6
CONTINUOUS
 62
     7
 66
     1
 10
0.0
 20
0.0
 30
0.0
  0
VERTEX
  5
526
  8
1
  6
CONTINUOUS
 62
     7
 10
-248.2660847954467
 20
268.2
 30
0.0
  0
VERTEX
  5
527
  8
1
  6
CONTINUOUS
 62
     7
 10
-248.1099092184772
 20
268.2080344893932
 30
0.0
  0
VERTEX
  5
528
  8
1
  6
CONTINUOUS
 62
     7
 10
-247.9181444164357
 20
268.2455968735388
 30
0.0
  0
VERTEX
  5
529
  8
1
  6
CONTINUOUS
 62
     7
 10
-247.7710983676696
 20
268.3058424366445
 30
0.0
  0
VERTEX
  5
52A
  8
1
  6
CONTINUOUS
 62
     7
 10
-247.664777558134
 20
268.3786402972374
 30
0.0
  0
VERTEX
  5
52B
  8
1
  6
CONTINUOUS
 62
     7
 10
-247.5793375265016
 20
268.4711680492845
 30
0.0
  0
VERTEX
  5
52C
  8
1
  6
CONTINUOUS
 62
     7
 10
-247.5153298452229
 20
268.5865817985381
 30
0.0
  0
VERTEX
  5
52D
  8
1
  6
CONTINUOUS
 62
     7
 10
-247.4761579610627
 20
268.7261238985946
 30
0.0
  0
VERTEX
  5
52E
  8
1
  6
CONTINUOUS
 62
     7
 10
-247.4646997751824
 20
268.8734203387049
 30
0.0
  0
VERTEX
  5
52F
  8
1
  6
CONTINUOUS
 62
     7
 10
-247.4750722036098
 20
269.0214761577921
 30
0.0
  0
SEQEND
  5
549
  8
1
  6
CONTINUOUS
 62
     7
  0
ARC
  5
E7
  8
1
  6
CONTINUOUS
 62
     7
 10
-252.0916580016952
 20
267.8715336640451
 30
0.0
 40
4.757649857861453
 50
13.9871273675624
 51
36.47764786725796
  0
ARC
  5
E8
  8
1
  6
CONTINUOUS
 62
     7
 10
-251.4364623599347
 20
304.1775367670204
 30
0.0
 40
4.023615579719102
 50
321.9936449409746
 51
350.7916075417891
  0
POLYLINE
  5
E9
  8
1
  6
CONTINUOUS
 62
     7
 66
     1
 10
0.0
 20
0.0
 30
0.0
  0
VERTEX
  5
530
  8
1
  6
CONTINUOUS
 62
     7
 10
-247.4646997751825
 20
303.5336545544063
 30
0.0
  0
VERTEX
  5
531
  8
1
  6
CONTINUOUS
 62
     7
 10
-247.4750722036099
 20
303.6672766130423
 30
0.0
  0
VERTEX
  5
532
  8
1
  6
CONTINUOUS
 62
     7
 10
-247.5056488963878
 20
303.7881592378708
 30
0.0
  0
VERTEX
  5
533
  8
1
  6
CONTINUOUS
 62
     7
 10
-247.5566241878533
 20
303.8948745673601
 30
0.0
  0
VERTEX
  5
534
  8
1
  6
CONTINUOUS
 62
     7
 10
-247.6309093873585
 20
303.9897201057501
 30
0.0
  0
VERTEX
  5
535
  8
1
  6
CONTINUOUS
 62
     7
 10
-247.7304266153918
 20
304.070133647399
 30
0.0
  0
VERTEX
  5
536
  8
1
  6
CONTINUOUS
 62
     7
 10
-247.8505687276521
 20
304.1310952678543
 30
0.0
  0
VERTEX
  5
537
  8
1
  6
CONTINUOUS
 62
     7
 10
-247.9893595951673
 20
304.1726847117439
 30
0.0
  0
VERTEX
  5
538
  8
1
  6
CONTINUOUS
 62
     7
 10
-248.1630174232126
 20
304.1966078850463
 30
0.0
  0
VERTEX
  5
539
  8
1
  6
CONTINUOUS
 62
     7
 10
-248.2660847954452
 20
304.2
 30
0.0
  0
SEQEND
  5
54A
  8
1
  6
CONTINUOUS
 62
     7
  0
ARC
  5
EA
  8
1
  6
CONTINUOUS
 62
     7
 10
-238.5255460657112
 20
295.2
 30
0.0
 40
11.71017056858893
 50
146.2842541193093
 51
213.7157458807048
  0
LINE
  5
EB
  8
1
  6
CONTINUOUS
 62
     9
 10
-248.2660847954452
 20
288.7
 30
0.0
 11
-235.1923927799163
 21
288.7
 31
0.0
  0
LINE
  5
EC
  8
1
  6
CONTINUOUS
 62
     9
 10
-235.1923927799163
 20
301.7
 30
0.0
 11
-248.2660847954467
 21
301.6999999999977
 31
0.0
  0
LINE
  5
ED
  8
1
  6
CONTINUOUS
 62
     9
 10
-248.2660847954452
 20
270.7
 30
0.0
 11
-235.1923927799163
 21
270.7
 31
0.0
  0
LINE
  5
EE
  8
1
  6
CONTINUOUS
 62
     9
 10
-235.1923927799163
 20
283.7
 30
0.0
 11
-248.2660847954451
 21
283.7000000000001
 31
0.0
  0
ARC
  5
EF
  8
1
  6
CONTINUOUS
 62
     7
 10
-203.7423927799163
 20
267.8
 30
0.0
 40
1.250000000000029
 50
180.0000000000003
 51
270.0000000000007
  0
ARC
  5
F0
  8
1
  6
CONTINUOUS
 62
     7
 10
-186.2423927799163
 20
304.6
 30
0.0
 40
1.250000000000001
 50
0.0
 51
90.0
  0
ARC
  5
F1
  8
1
  6
CONTINUOUS
 62
     7
 10
-186.2423927799163
 20
267.8
 30
0.0
 40
1.250000000000029
 50
270.0
 51
0.0
  0
LINE
  5
F2
  8
1
  6
CONTINUOUS
 62
     7
 10
-203.7423927799163
 20
266.55
 30
0.0
 11
-186.2423927799163
 21
266.55
 31
0.0
  0
ARC
  5
F3
  8
1
  6
CONTINUOUS
 62
     7
 10
-203.7423927799163
 20
304.6
 30
0.0
 40
1.250000000000029
 50
89.99999999999936
 51
179.9999999999996
  0
LINE
  5
F4
  8
1
  6
CONTINUOUS
 62
     7
 10
-186.2423927799163
 20
305.85
 30
0.0
 11
-203.7423927799163
 21
305.85
 31
0.0
  0
LINE
  5
F5
  8
1
  6
CONTINUOUS
 62
     7
 10
-223.9307147335532
 20
268.25
 30
0.0
 11
-204.9923927799163
 21
268.25
 31
0.0
  0
LINE
  5
F6
  8
1
  6
CONTINUOUS
 62
     7
 10
-204.9923927799163
 20
304.15
 30
0.0
 11
-223.9307147335532
 21
304.15
 31
0.0
  0
ARC
  5
F7
  8
1
  6
CONTINUOUS
 62
     7
 10
-223.9307147335532
 20
303.65
 30
0.0
 40
0.5000000000000004
 50
90.0
 51
164.9999999999997
  0
ARC
  5
F8
  8
1
  6
CONTINUOUS
 62
     7
 10
-223.9307147335532
 20
268.75
 30
0.0
 40
0.4999999999999718
 50
195.0000000000003
 51
270.0
  0
LINE
  5
F9
  8
1
  6
CONTINUOUS
 62
     7
 10
-224.4136776466977
 20
303.7794095225512
 30
0.0
 11
-225.2923927799163
 21
300.5000000000001
 31
0.0
  0
LINE
  5
FA
  8
1
  6
CONTINUOUS
 62
     7
 10
-225.2923927799163
 20
271.9
 30
0.0
 11
-224.4136776466977
 21
268.6205904774487
 31
0.0
  0
LINE
  5
FB
  8
1
  6
CONTINUOUS
 62
     7
 10
-234.608458796036
 20
270.9004502133035
 30
0.0
 11
-233.9764079629201
 21
270.9004502129133
 31
0.0
  0
LINE
  5
FC
  8
1
  6
CONTINUOUS
 62
     7
 10
-232.6084181965201
 20
270.9006380544491
 30
0.0
 11
-231.9763673633124
 21
270.9006380544491
 31
0.0
  0
LINE
  5
FD
  8
1
  6
CONTINUOUS
 62
     7
 10
-230.6083775969124
 20
270.9004502129133
 30
0.0
 11
-229.9763267637965
 21
270.9004502133035
 31
0.0
  0
LINE
  5
FE
  8
1
  6
CONTINUOUS
 62
     7
 10
-228.6083293275791
 20
270.9000838972705
 30
0.0
 11
-227.9762784943481
 21
270.900083897607
 31
0.0
  0
LINE
  5
FF
  8
1
  6
CONTINUOUS
 62
     7
 10
-228.9762624744943
 20
301.4997369748669
 30
0.0
 11
-229.6083133075943
 21
301.499736975311
 31
0.0
  0
LINE
  5
100
  8
1
  6
CONTINUOUS
 62
     7
 10
-230.9763572519519
 20
301.4994121140351
 30
0.0
 11
-231.6084080851364
 21
301.4994121142593
 31
0.0
  0
LINE
  5
101
  8
1
  6
CONTINUOUS
 62
     7
 10
-232.9763774746962
 20
301.4994121142593
 30
0.0
 11
-233.6084283078807
 21
301.4994121140351
 31
0.0
  0
LINE
  5
102
  8
1
  6
CONTINUOUS
 62
     7
 10
-234.9764722522382
 20
301.499736975311
 30
0.0
 11
-235.1923927799163
 21
301.4997369751593
 31
0.0
  0
LINE
  5
103
  8
1
  6
CONTINUOUS
 62
     7
 10
-234.9027532106432
 20
271.9496914868747
 30
0.0
 11
-234.6330733616264
 21
270.9465081213772
 31
0.0
  0
LINE
  5
104
  8
1
  6
CONTINUOUS
 62
     7
 10
-232.9028478190205
 20
271.9498184761497
 30
0.0
 11
-232.6331885515437
 21
270.9467199732995
 31
0.0
  0
LINE
  5
105
  8
1
  6
CONTINUOUS
 62
     7
 10
-228.9028209873515
 20
271.9494797234884
 30
0.0
 11
-228.6331385675626
 21
270.9462251013059
 31
0.0
  0
LINE
  5
106
  8
1
  6
CONTINUOUS
 62
     7
 10
-227.6676747267549
 20
301.2788459098888
 30
0.0
 11
-227.8783648804647
 21
300.4999804324641
 31
0.0
  0
LINE
  5
107
  8
1
  6
CONTINUOUS
 62
     7
 10
-229.6329458092288
 20
301.4545973077502
 30
0.0
 11
-229.8895500604916
 21
300.4999950066986
 31
0.0
  0
LINE
  5
108
  8
1
  6
CONTINUOUS
 62
     7
 10
-231.632995011276
 20
301.4541894184392
 30
0.0
 11
-231.8895016302251
 21
300.4999950178136
 31
0.0
  0
LINE
  5
109
  8
1
  6
CONTINUOUS
 62
     7
 10
-233.6331738273653
 20
301.4531844827603
 30
0.0
 11
-233.8894136458076
 21
300.4999947800243
 31
0.0
  0
LINE
  5
10A
  8
1
  6
CONTINUOUS
 62
     7
 10
-233.9519382094473
 20
270.9450973455636
 30
0.0
 11
-233.6952448826541
 21
271.9000048872415
 31
0.0
  0
LINE
  5
10B
  8
1
  6
CONTINUOUS
 62
     7
 10
-231.9515970082889
 20
270.9467199732995
 30
0.0
 11
-231.6953317117287
 21
271.9000051761504
 31
0.0
  0
LINE
  5
10C
  8
1
  6
CONTINUOUS
 62
     7
 10
-229.9517121982061
 20
270.9465081213772
 30
0.0
 11
-229.6953920710689
 21
271.9000051824492
 31
0.0
  0
LINE
  5
10D
  8
1
  6
CONTINUOUS
 62
     7
 10
-227.9516612252703
 20
270.9465394284493
 30
0.0
 11
-227.6953585970141
 21
271.9000052031129
 31
0.0
  0
LINE
  5
10E
  8
1
  6
CONTINUOUS
 62
     7
 10
-228.6821024026216
 20
300.450586614539
 30
0.0
 11
-228.951770302201
 21
301.4537420951869
 31
0.0
  0
LINE
  5
10F
  8
1
  6
CONTINUOUS
 62
     7
 10
-230.6819348335744
 20
300.4500212474499
 30
0.0
 11
-230.9516117324673
 21
301.4531844827603
 31
0.0
  0
LINE
  5
110
  8
1
  6
CONTINUOUS
 62
     7
 10
-232.6821559394659
 20
300.4511701166517
 30
0.0
 11
-232.9517905485566
 21
301.4541894184392
 31
0.0
  0
LINE
  5
111
  8
1
  6
CONTINUOUS
 62
     7
 10
-234.6821565033982
 20
300.4513500791821
 30
0.0
 11
-234.9518397506037
 21
301.4545973077502
 31
0.0
  0
LINE
  5
112
  8
1
  6
CONTINUOUS
 62
     7
 10
-226.6407167137791
 20
271.9414525756063
 30
0.0
 11
-226.0086567680836
 21
271.941496341477
 31
0.0
  0
LINE
  5
113
  8
1
  6
CONTINUOUS
 62
     7
 10
-226.7051172147138
 20
272.3054144927397
 30
0.0
 11
-226.6841927360519
 21
272.2289894785424
 31
0.0
  0
LINE
  5
114
  8
1
  6
CONTINUOUS
 62
     7
 10
-226.6579784696713
 20
300.1674896391198
 30
0.0
 11
-226.9082349311865
 21
301.0835075863415
 31
0.0
  0
LINE
  5
115
  8
1
  6
CONTINUOUS
 62
     7
 10
-229.7084184032971
 20
271.9
 30
0.0
 11
-228.8895190093695
 21
271.9
 31
0.0
  0
LINE
  5
116
  8
1
  6
CONTINUOUS
 62
     7
 10
-231.7084181583798
 20
271.9
 30
0.0
 11
-230.8895406771785
 21
271.9
 31
0.0
  0
LINE
  5
117
  8
1
  6
CONTINUOUS
 62
     7
 10
-233.7084179134729
 20
271.9
 30
0.0
 11
-232.8894538481039
 21
271.9
 31
0.0
  0
LINE
  5
118
  8
1
  6
CONTINUOUS
 62
     7
 10
-235.1923927799163
 20
271.9
 30
0.0
 11
-234.8893934887637
 21
271.9
 31
0.0
  0
LINE
  5
119
  8
1
  6
CONTINUOUS
 62
     7
 10
-233.8763677280023
 20
300.5
 30
0.0
 11
-234.695235499341
 21
300.5
 31
0.0
  0
LINE
  5
11A
  8
1
  6
CONTINUOUS
 62
     7
 10
-231.8763670748976
 20
300.5
 30
0.0
 11
-232.6952839296076
 21
300.5
 31
0.0
  0
LINE
  5
11B
  8
1
  6
CONTINUOUS
 62
     7
 10
-229.8763675647303
 20
300.5
 30
0.0
 11
-230.695371914025
 21
300.5
 31
0.0
  0
LINE
  5
11C
  8
1
  6
CONTINUOUS
 62
     7
 10
-227.8763673761319
 20
300.5
 30
0.0
 11
-228.6953871354602
 21
300.5
 31
0.0
  0
LINE
  5
11D
  8
1
  6
CONTINUOUS
 62
     7
 10
-225.2923927799163
 20
300.5
 30
0.0
 11
-226.7084181837007
 21
300.5
 31
0.0
  0
ARC
  5
11E
  8
1
  6
CONTINUOUS
 62
     7
 10
-237.1460706379222
 20
283.3214997040753
 30
0.0
 40
19.99999999999998
 50
205.8667133919065
 51
229.1193520989769
  0
ARC
  5
11F
  8
1
  6
CONTINUOUS
 62
     7
 10
-237.1460706379222
 20
289.0785002959248
 30
0.0
 40
19.99999999999996
 50
130.8806479010229
 51
154.1332866080935
  0
ARC
  5
120
  8
1
  6
CONTINUOUS
 62
     7
 10
-254.6923927799163
 20
274.8140571218791
 30
0.0
 40
0.500000000000056
 50
180.0
 51
205.8667133919064
  0
ARC
  5
121
  8
1
  6
CONTINUOUS
 62
     7
 10
-254.6923927799163
 20
297.5859428781209
 30
0.0
 40
0.5000000000000204
 50
154.1332866080936
 51
180.0
  0
ENDBLK
  8
0
  0
BLOCK
  8
0
  2
D_FRAME_VIEW_2741
 70
     0
 10
0.0
 20
0.0
 30
0.0
  0
ARC
  5
126
  8
1
  6
CONTINUOUS
 62
     7
 10
-310.0509069578132
 20
286.2
 30
0.0
 40
19.65
 50
126.28029044112
 51
173.7260073442547
  0
ARC
  5
127
  8
1
  6
CONTINUOUS
 62
     7
 10
-310.0509069578132
 20
286.2
 30
0.0
 40
19.64999999999999
 50
66.28029044111986
 51
113.7260073442544
  0
ARC
  5
128
  8
1
  6
CONTINUOUS
 62
     7
 10
-310.0509069578132
 20
286.2
 30
0.0
 40
19.65
 50
8.56222204072219
 51
53.72600734425458
  0
ARC
  5
129
  8
1
  6
CONTINUOUS
 62
     7
 10
-329.9763304162995
 20
283.2
 30
0.0
 40
0.4999999999999989
 50
8.562222040722265
 51
90.00000000000085
  0
ARC
  5
12A
  8
1
  6
CONTINUOUS
 62
     7
 10
-310.0509069578132
 20
286.2
 30
0.0
 40
19.65
 50
306.2802904411201
 51
353.7260073442549
  0
ARC
  5
12B
  8
1
  6
CONTINUOUS
 62
     7
 10
-310.0509069578132
 20
286.2
 30
0.0
 40
19.65
 50
246.2802904411199
 51
293.7260073442539
  0
ARC
  5
12C
  8
1
  6
CONTINUOUS
 62
     7
 10
-310.0509069578132
 20
286.2
 30
0.0
 40
19.65
 50
188.5622220407222
 51
233.7260073442545
  0
ARC
  5
12D
  8
1
  6
CONTINUOUS
 62
     7
 10
-290.1254834993268
 20
289.2
 30
0.0
 40
0.4999999999999989
 50
188.5622220407222
 51
270.0000000000009
  0
LINE
  5
12E
  8
1
  6
CONTINUOUS
 62
     7
 10
-331.0526330773491
 20
283.7
 30
0.0
 11
-329.4449939759538
 21
283.7
 31
0.0
  0
LINE
  5
12F
  8
1
  6
CONTINUOUS
 62
     7
 10
-289.0491808382772
 20
288.7
 30
0.0
 11
-290.6568199396725
 21
288.7
 31
0.0
  0
ARC
  5
130
  8
1
  6
CONTINUOUS
 62
     7
 10
-289.2513877326003
 20
287.65
 30
0.0
 40
0.2999999999999999
 50
3.98781745017152
 51
90.0
  0
ARC
  5
131
  8
1
  6
CONTINUOUS
 62
     7
 10
-330.8504261830261
 20
284.75
 30
0.0
 40
0.2999999999999999
 50
183.9878174501722
 51
270.0
  0
CIRCLE
  5
132
  8
1
  6
CONTINUOUS
 62
     7
 10
-310.0509069578132
 20
286.2
 30
0.0
 40
8.3
  0
CIRCLE
  5
133
  8
1
  6
CONTINUOUS
 62
     7
 10
-310.0509069578132
 20
286.2
 30
0.0
 40
9.1
  0
CIRCLE
  5
134
  8
1
  6
CONTINUOUS
 62
     7
 10
-310.0509069578132
 20
286.2
 30
0.0
 40
10.5
  0
ARC
  5
135
  8
1
  6
CONTINUOUS
 62
     7
 10
-295.0405041074293
 20
286.2
 30
0.0
 40
5.000609822923293
 50
330.0040339819875
 51
29.99596601801369
  0
LINE
  5
136
  8
1
  6
CONTINUOUS
 62
     7
 10
-298.2152264394257
 20
270.7
 30
0.0
 11
-290.7096729399606
 21
283.7000000000002
 31
0.0
  0
ARC
  5
137
  8
1
  6
CONTINUOUS
 62
     7
 10
-302.5457055326212
 20
273.2006098105292
 30
0.0
 40
5.000609822923352
 50
270.0040339819566
 51
329.995966018014
  0
LINE
  5
138
  8
1
  6
CONTINUOUS
 62
     7
 10
-317.5564604572783
 20
268.2
 30
0.0
 11
-302.5453534583506
 21
268.2
 31
0.0
  0
ARC
  5
139
  8
1
  6
CONTINUOUS
 62
     7
 10
-317.5561083830052
 20
273.2006098105292
 30
0.0
 40
5.000609822923308
 50
210.004033982017
 51
269.9959660180138
  0
LINE
  5
13A
  8
1
  6
CONTINUOUS
 62
     7
 10
-329.3921409756656
 20
283.7
 30
0.0
 11
-321.8865874761991
 21
270.6999999999977
 31
0.0
  0
ARC
  5
13B
  8
1
  6
CONTINUOUS
 62
     7
 10
-325.0613098081972
 20
286.2
 30
0.0
 40
5.000609822923144
 50
150.0040339819887
 51
209.9959660180154
  0
LINE
  5
13C
  8
1
  6
CONTINUOUS
 62
     7
 10
-321.8865874762005
 20
301.7
 30
0.0
 11
-329.3921409756658
 21
288.6999999999997
 31
0.0
  0
ARC
  5
13D
  8
1
  6
CONTINUOUS
 62
     7
 10
-317.5561083830051
 20
299.1993901894708
 30
0.0
 40
5.000609822923368
 50
90.00403398195664
 51
149.9959660180135
  0
LINE
  5
13E
  8
1
  6
CONTINUOUS
 62
     7
 10
-302.545353458348
 20
304.2
 30
0.0
 11
-317.5564604572756
 21
304.2
 31
0.0
  0
ARC
  5
13F
  8
1
  6
CONTINUOUS
 62
     7
 10
-302.5457055326214
 20
299.1993901894707
 30
0.0
 40
5.000609822923402
 50
30.00403398195508
 51
89.99596601801254
  0
LINE
  5
140
  8
1
  6
CONTINUOUS
 62
     7
 10
-290.7096729399607
 20
288.7
 30
0.0
 11
-298.2152264394245
 21
301.6999999999977
 31
0.0
  0
ENDBLK
  8
0
  0
ENDSEC
  0
SECTION
  2
ENTITIES
  0
INSERT
  5
122
  8
1
  6
CONTINUOUS
 62
     7
  2
D_FRAME_VIEW_3074
 10
0.0
 20
0.0
 30
0.0
  0
INSERT
  5
141
  8
1
  6
CONTINUOUS
 62
     7
  2
D_FRAME_VIEW_2741
 10
0.0
 20
0.0
 30
0.0
  0
LINE
  5
142
  8
1
  6
CONTINUOUS
 62
     7
 10
-232.1016766106681
 20
281.4940301862611
 30
0.0
 11
-232.3256908543655
 21
291.3796137955505
 31
0.0
  0
LINE
  5
143
  8
1
  6
CONTINUOUS
 62
     7
 10
-330.8504261830261
 20
287.95
 30
0.0
 11
-329.7448709577376
 21
287.95
 31
0.0
  0
LINE
  5
144
  8
1
  6
CONTINUOUS
 62
     7
 10
-233.4943449042207
 20
291.3795957025357
 30
0.0
 11
-233.2689165047525
 21
281.4940442127593
 31
0.0
  0
LINE
  5
145
  8
1
  6
CONTINUOUS
 62
     7
 10
-289.2513877326003
 20
284.45
 30
0.0
 11
-290.3569429578887
 21
284.45
 31
0.0
  0
LINE
  5
146
  8
1
  6
CONTINUOUS
 62
     7
 10
-204.9923927799163
 20
304.6
 30
0.0
 11
-204.9923927799163
 21
267.8
 31
0.0
  0
LINE
  5
147
  8
1
  6
CONTINUOUS
 62
     7
 10
-227.7084178726463
 20
271.9
 30
0.0
 11
-225.2923927799163
 21
271.9
 31
0.0
  0
ARC
  5
148
  8
1
  6
CONTINUOUS
 62
     7
 10
-310.0509069578132
 20
286.2
 30
0.0
 40
18.14999999999999
 50
262.7767604399057
 51
277.2232395600918
  0
LINE
  5
149
  8
1
  6
CONTINUOUS
 62
     7
 10
-186.6740386288004
 20
288.7
 30
0.0
 11
-204.9923927799163
 21
288.7
 31
0.0
  0
ARC
  5
14A
  8
1
  6
CONTINUOUS
 62
     7
 10
-310.0509069578132
 20
286.2
 30
0.0
 40
21.15000000000001
 50
356.012182549828
 51
6.788421799986907
  0
LINE
  5
14B
  8
1
  6
CONTINUOUS
 62
     7
 10
-235.1923927799163
 20
304.2
 30
0.0
 11
-235.1923927799163
 21
268.2
 31
0.0
  0
LINE
  5
14C
  8
1
  6
CONTINUOUS
 62
     7
 10
-230.1915642511175
 20
285.4431957419533
 30
0.0
 11
-230.304044424302
 21
290.4318328107952
 31
0.0
  0
LINE
  5
14D
  8
1
  6
CONTINUOUS
 62
     7
 10
-204.9923927799163
 20
285.2
 30
0.0
 11
-186.7113515004863
 21
285.2
 31
0.0
  0
LINE
  5
14E
  8
1
  6
CONTINUOUS
 62
     7
 10
-205.6923927799163
 20
284.45
 30
0.0
 11
-217.9058377567662
 21
284.45
 31
0.0
  0
LINE
  5
14F
  8
1
  6
CONTINUOUS
 62
     7
 10
-230.911008354805
 20
271.9798545534745
 30
0.0
 11
-230.6328473503853
 21
270.9450973455635
 31
0.0
  0
LINE
  5
150
  8
1
  6
CONTINUOUS
 62
     7
 10
-329.7448007634159
 20
284.45
 30
0.0
 11
-330.850426183026
 21
284.45
 31
0.0
  0
ARC
  5
151
  8
1
  6
CONTINUOUS
 62
     7
 10
-330.8504261830261
 20
287.65
 30
0.0
 40
0.3000000000000001
 50
90.0
 51
176.0121825498263
  0
LINE
  5
152
  8
1
  6
CONTINUOUS
 62
     7
 10
-250.2357706612096
 20
304.2
 30
0.0
 11
-235.1923927799163
 21
304.2
 31
0.0
  0
LINE
  5
153
  8
1
  6
CONTINUOUS
 62
     7
 10
-235.1923927799163
 20
268.2
 30
0.0
 11
-250.2357706609444
 21
268.2
 31
0.0
  0
LINE
  5
154
  8
1
  6
CONTINUOUS
 62
     7
 10
-217.9058377567663
 20
287.95
 30
0.0
 11
-205.6923927799163
 21
287.95
 31
0.0
  0
ARC
  5
155
  8
1
  6
CONTINUOUS
 62
     7
 10
-289.2513877326003
 20
284.75
 30
0.0
 40
0.3
 50
270.0
 51
356.0121825498262
  0
LINE
  5
156
  8
1
  6
CONTINUOUS
 62
     7
 10
-290.3570131522105
 20
287.95
 30
0.0
 11
-289.2513877326003
 21
287.95
 31
0.0
  0
LINE
  5
157
  8
1
  6
CONTINUOUS
 62
     7
 10
-225.2923927799163
 20
271.9
 30
0.0
 11
-225.2923927799163
 21
300.5000000000001
 31
0.0
  0
LINE
  5
158
  8
1
  6
CONTINUOUS
 62
     7
 10
-205.6923927799163
 20
287.95
 30
0.0
 11
-205.6923927799163
 21
284.45
 31
0.0
  0
ARC
  5
159
  8
1
  6
CONTINUOUS
 62
     7
 10
-310.0509069578132
 20
286.2
 30
0.0
 40
21.15000000000001
 50
176.0121825498279
 51
186.7884217999869
  0
LINE
  5
15A
  8
1
  6
CONTINUOUS
 62
     7
 10
-255.1923927799163
 20
274.8140571218791
 30
0.0
 11
-255.1923927799163
 21
297.5859428781209
 31
0.0
  0
TEXT
  5
15B
  8
1
  6
CONTINUOUS
 62
     7
 10
-279.5712392147055
 20
249.5284200325122
 30
0.0
 40
3.0
  1
GLMFS-22D16
  0
ENDSEC
  0
EOF
