  0
SECTION
  2
HEADER
  9
$ACADVER
  1
AC1006
  9
$DWGCODEPAGE
  3
ansi_932
  9
$INSBASE
 10
0.0
 20
0.0
 30
0.0
  9
$EXTMIN
 10
-327.7509069578132
 20
249.8704545454545
  9
$EXTMAX
 10
-200.1423927799162
 20
307.0
  9
$LIMMIN
 10
0.0
 20
0.0
  9
$LIMMAX
 10
12.0
 20
9.0
  9
$ORTHOMODE
 70
     0
  9
$REGENMODE
 70
     1
  9
$FILLMODE
 70
     1
  9
$QTEXTMODE
 70
     0
  9
$MIRRTEXT
 70
     1
  9
$DRAGMODE
 70
     2
  9
$LTSCALE
 40
1.0
  9
$OSMODE
 70
    37
  9
$ATTMODE
 70
     1
  9
$TEXTSIZE
 40
0.2
  9
$TRACEWID
 40
0.05
  9
$TEXTSTYLE
  7
STANDARD
  9
$CLAYER
  8
0
  9
$CELTYPE
  6
BYLAYER
  9
$CECOLOR
 62
   256
  9
$DIMSCALE
 40
1.0
  9
$DIMASZ
 40
3.0
  9
$DIMEXO
 40
0.0625
  9
$DIMDLI
 40
0.38
  9
$DIMRND
 40
0.0
  9
$DIMDLE
 40
0.0
  9
$DIMEXE
 40
1.5
  9
$DIMTP
 40
0.0
  9
$DIMTM
 40
0.0
  9
$DIMTXT
 40
3.0
  9
$DIMCEN
 40
0.09
  9
$DIMTSZ
 40
0.0
  9
$DIMTOL
 70
     0
  9
$DIMLIM
 70
     0
  9
$DIMTIH
 70
     1
  9
$DIMTOH
 70
     1
  9
$DIMSE1
 70
     0
  9
$DIMSE2
 70
     0
  9
$DIMTAD
 70
     1
  9
$DIMZIN
 70
     0
  9
$DIMBLK
  1

  9
$DIMASO
 70
     1
  9
$DIMSHO
 70
     1
  9
$DIMPOST
  1

  9
$DIMAPOST
  1

  9
$DIMALT
 70
     0
  9
$DIMALTD
 70
     2
  9
$DIMALTF
 40
25.4
  9
$DIMLFAC
 40
1.0
  9
$DIMTOFL
 70
     0
  9
$DIMTVP
 40
0.0
  9
$DIMTIX
 70
     0
  9
$DIMSOXD
 70
     0
  9
$DIMSAH
 70
     0
  9
$DIMBLK1
  1

  9
$DIMBLK2
  1

  9
$LUNITS
 70
     2
  9
$LUPREC
 70
     4
  9
$SKETCHINC
 40
0.1
  9
$FILLETRAD
 40
0.5
  9
$AUNITS
 70
     0
  9
$AUPREC
 70
     0
  9
$MENU
  1
.
  9
$ELEVATION
 40
0.0
  9
$THICKNESS
 40
0.0
  9
$LIMCHECK
 70
     0
  9
$CHAMFERA
 40
0.0
  9
$CHAMFERB
 40
0.0
  9
$SKPOLY
 70
     0
  9
$TDCREATE
 40
2459289.454485301
  9
$TDUPDATE
 40
2459289.454485486
  9
$TDINDWG
 40
0.0000000116
  9
$TDUSRTIMER
 40
0.0000000116
  9
$USRTIMER
 70
     1
  9
$ANGBASE
 50
0.0
  9
$ANGDIR
 70
     0
  9
$PDMODE
 70
     0
  9
$PDSIZE
 40
0.0
  9
$PLINEWID
 40
0.0
  9
$COORDS
 70
     1
  9
$SPLFRAME
 70
     0
  9
$SPLINETYPE
 70
     6
  9
$SPLINESEGS
 70
     8
  9
$ATTDIA
 70
     0
  9
$ATTREQ
 70
     1
  9
$HANDLING
 70
     1
  9
$HANDSEED
  5
56E
  9
$SURFTAB1
 70
     6
  9
$SURFTAB2
 70
     6
  9
$SURFTYPE
 70
     6
  9
$SURFU
 70
     6
  9
$SURFV
 70
     6
  9
$UCSNAME
  2

  9
$UCSORG
 10
0.0
 20
0.0
 30
0.0
  9
$UCSXDIR
 10
1.0
 20
0.0
 30
0.0
  9
$UCSYDIR
 10
0.0
 20
1.0
 30
0.0
  9
$USERI1
 70
     0
  9
$USERI2
 70
     0
  9
$USERI3
 70
     0
  9
$USERI4
 70
     0
  9
$USERI5
 70
     0
  9
$USERR1
 40
0.0
  9
$USERR2
 40
0.0
  9
$USERR3
 40
0.0
  9
$USERR4
 40
0.0
  9
$USERR5
 40
0.0
  9
$WORLDVIEW
 70
     1
  0
ENDSEC
  0
SECTION
  2
TABLES
  0
TABLE
  2
VPORT
 70
     1
  0
VPORT
  2
*ACTIVE
 70
     0
 10
0.0
 20
0.0
 11
1.0
 21
1.0
 12
-263.9466498688647
 22
278.4352272727273
 13
0.0
 23
0.0
 14
0.5
 24
0.5
 15
0.5
 25
0.5
 16
0.0
 26
0.0
 36
1.0
 17
0.0
 27
0.0
 37
0.0
 40
57.12954545454548
 41
1.6
 42
50.0
 43
0.0
 44
0.0
 50
0.0
 51
0.0
 71
     0
 72
   100
 73
     1
 74
     3
 75
     0
 76
     0
 77
     0
 78
     0
  0
ENDTAB
  0
TABLE
  2
LTYPE
 70
     1
  0
LTYPE
  2
CONTINUOUS
 70
     0
  3
Solid line
 72
    65
 73
     0
 40
0.0
  0
ENDTAB
  0
TABLE
  2
LAYER
 70
     2
  0
LAYER
  2
0
 70
     0
 62
     7
  6
CONTINUOUS
  0
LAYER
  2
1
 70
     0
 62
     7
  6
CONTINUOUS
  0
ENDTAB
  0
TABLE
  2
STYLE
 70
     2
  0
STYLE
  2
STANDARD
 70
     0
 40
0.0
 41
1.0
 50
0.0
 71
     0
 42
0.2
  3
txt
  4

  0
STYLE
  2
ＭＳ_ゴシック
 70
     0
 40
0.0
 41
1.0
 50
0.0
 71
     0
 42
0.2
  3
ＭＳ ゴシック.shx
  4

  0
ENDTAB
  0
TABLE
  2
VIEW
 70
     0
  0
ENDTAB
  0
TABLE
  2
UCS
 70
     0
  0
ENDTAB
  0
ENDSEC
  0
SECTION
  2
BLOCKS
  0
BLOCK
  8
0
  2
D_FRAME_VIEW_3106
 70
     0
 10
0.0
 20
0.0
 30
0.0
  0
ARC
  5
71
  8
1
  6
CONTINUOUS
 62
     7
 10
-306.6009069578132
 20
285.4
 30
0.0
 40
4.599999999999996
 50
180.0
 51
0.0
  0
LINE
  5
72
  8
1
  6
CONTINUOUS
 62
     7
 10
-302.0009069578132
 20
289.3
 30
0.0
 11
-302.0009069578132
 21
285.4
 31
0.0
  0
ARC
  5
73
  8
1
  6
CONTINUOUS
 62
     7
 10
-306.6009069578132
 20
289.3
 30
0.0
 40
4.599999999999996
 50
359.9999999999999
 51
180.0
  0
LINE
  5
74
  8
1
  6
CONTINUOUS
 62
     7
 10
-311.2009069578132
 20
285.4
 30
0.0
 11
-311.2009069578132
 21
289.3
 31
0.0
  0
LINE
  5
75
  8
1
  6
CONTINUOUS
 62
     7
 10
-310.4009069578131
 20
289.3
 30
0.0
 11
-310.4009069578131
 21
285.4
 31
0.0
  0
ARC
  5
76
  8
1
  6
CONTINUOUS
 62
     7
 10
-306.6009069578132
 20
289.3
 30
0.0
 40
3.799999999999996
 50
359.9999999999999
 51
180.0000000000006
  0
ARC
  5
77
  8
1
  6
CONTINUOUS
 62
     7
 10
-306.6009069578132
 20
285.4
 30
0.0
 40
3.799999999999996
 50
180.0
 51
359.9999999999993
  0
LINE
  5
78
  8
1
  6
CONTINUOUS
 62
     7
 10
-302.8009069578132
 20
285.4
 30
0.0
 11
-302.8009069578132
 21
289.3
 31
0.0
  0
ARC
  5
79
  8
1
  6
CONTINUOUS
 62
     7
 10
-326.5263304162995
 20
284.35
 30
0.0
 40
0.4999999999999989
 50
8.562222040722265
 51
90.00000000000085
  0
ARC
  5
7A
  8
1
  6
CONTINUOUS
 62
     7
 10
-306.6009069578132
 20
287.35
 30
0.0
 40
19.65
 50
126.2808024599163
 51
173.7260073442547
  0
ARC
  5
7B
  8
1
  6
CONTINUOUS
 62
     7
 10
-306.6009069578132
 20
287.35
 30
0.0
 40
19.64999999999999
 50
66.28080245991617
 51
113.7307376672057
  0
ARC
  5
7C
  8
1
  6
CONTINUOUS
 62
     7
 10
-306.6009069578132
 20
287.35
 30
0.0
 40
19.65
 50
8.56222204072219
 51
53.73073766720574
  0
ARC
  5
7D
  8
1
  6
CONTINUOUS
 62
     7
 10
-306.6009069578132
 20
287.35
 30
0.0
 40
19.65
 50
306.2808024599165
 51
353.7256889703058
  0
ARC
  5
7E
  8
1
  6
CONTINUOUS
 62
     7
 10
-306.6009069578132
 20
287.35
 30
0.0
 40
19.65
 50
246.2808024599161
 51
293.7307376672052
  0
ARC
  5
7F
  8
1
  6
CONTINUOUS
 62
     7
 10
-306.6009069578132
 20
287.35
 30
0.0
 40
19.65
 50
188.5622220407222
 51
233.7307376672047
  0
ARC
  5
80
  8
1
  6
CONTINUOUS
 62
     7
 10
-286.6754834993267
 20
290.35
 30
0.0
 40
0.4999999999999989
 50
188.5622220407222
 51
270.0000000000009
  0
LINE
  5
81
  8
1
  6
CONTINUOUS
 62
     7
 10
-327.6026330773491
 20
284.85
 30
0.0
 11
-325.9949939759538
 21
284.85
 31
0.0
  0
LINE
  5
82
  8
1
  6
CONTINUOUS
 62
     7
 10
-285.5991808382772
 20
289.85
 30
0.0
 11
-287.2068199396725
 21
289.85
 31
0.0
  0
ARC
  5
83
  8
1
  6
CONTINUOUS
 62
     7
 10
-285.8013877326003
 20
288.8
 30
0.0
 40
0.2999999999999999
 50
3.98781745017152
 51
90.0
  0
ARC
  5
84
  8
1
  6
CONTINUOUS
 62
     7
 10
-327.400426183026
 20
285.9
 30
0.0
 40
0.2999999999999999
 50
183.9878174501722
 51
270.0
  0
CIRCLE
  5
85
  8
1
  6
CONTINUOUS
 62
     7
 10
-306.6009069578132
 20
287.35
 30
0.0
 40
10.5
  0
ARC
  5
86
  8
1
  6
CONTINUOUS
 62
     7
 10
-291.5898119307544
 20
287.35
 30
0.0
 40
5.000010367948433
 50
330.0000685936303
 51
29.99993140637099
  0
LINE
  5
87
  8
1
  6
CONTINUOUS
 62
     7
 10
-294.7652264394258
 20
271.85
 30
0.0
 11
-287.2596729399606
 21
284.8500000000001
 31
0.0
  0
ARC
  5
88
  8
1
  6
CONTINUOUS
 62
     7
 10
-299.0953774890426
 20
274.3500416223841
 30
0.0
 40
5.000041622441845
 50
270.0002753691545
 51
329.9997246308162
  0
LINE
  5
89
  8
1
  6
CONTINUOUS
 62
     7
 10
-314.1064604572783
 20
269.35
 30
0.0
 11
-299.0953534583506
 21
269.35
 31
0.0
  0
ARC
  5
8A
  8
1
  6
CONTINUOUS
 62
     7
 10
-314.1064364265836
 20
274.3500416223841
 30
0.0
 40
5.000041622441832
 50
210.0002753692151
 51
269.9997246308156
  0
LINE
  5
8B
  8
1
  6
CONTINUOUS
 62
     7
 10
-325.9421409756656
 20
284.85
 30
0.0
 11
-318.4365874761991
 21
271.8499999999976
 31
0.0
  0
ARC
  5
8C
  8
1
  6
CONTINUOUS
 62
     7
 10
-321.6119063746224
 20
287.35
 30
0.0
 40
5.000093169139149
 50
150.0006163886666
 51
209.9993836113374
  0
LINE
  5
8D
  8
1
  6
CONTINUOUS
 62
     7
 10
-318.4365874762004
 20
302.85
 30
0.0
 11
-325.9421409756658
 21
289.8499999999997
 31
0.0
  0
ARC
  5
8E
  8
1
  6
CONTINUOUS
 62
     7
 10
-314.1064364265836
 20
300.3499583776158
 30
0.0
 40
5.000041622441874
 50
90.00027536915462
 51
149.9997246308155
  0
LINE
  5
8F
  8
1
  6
CONTINUOUS
 62
     7
 10
-299.095353458348
 20
305.35
 30
0.0
 11
-314.1064604572757
 21
305.35
 31
0.0
  0
ARC
  5
90
  8
1
  6
CONTINUOUS
 62
     7
 10
-299.0953774890427
 20
300.3499583776158
 30
0.0
 40
5.000041622441911
 50
30.00027536915309
 51
89.99972463081457
  0
LINE
  5
91
  8
1
  6
CONTINUOUS
 62
     7
 10
-287.2596729399607
 20
289.85
 30
0.0
 11
-294.7652264394245
 21
302.8499999999976
 31
0.0
  0
ENDBLK
  8
0
  0
BLOCK
  8
0
  2
D_FRAME_VIEW_3450
 70
     0
 10
0.0
 20
0.0
 30
0.0
  0
POLYLINE
  5
B0
  8
1
  6
CONTINUOUS
 62
     7
 66
     1
 10
0.0
 20
0.0
 30
0.0
  0
VERTEX
  5
16C
  8
1
  6
CONTINUOUS
 62
     7
 10
-201.3923927799163
 20
290.2755583126551
 30
0.0
  0
VERTEX
  5
16D
  8
1
  6
CONTINUOUS
 62
     7
 10
-201.3926643957819
 20
290.2595128080396
 30
0.0
  0
VERTEX
  5
16E
  8
1
  6
CONTINUOUS
 62
     7
 10
-201.3934768428872
 20
290.2435805989658
 30
0.0
  0
VERTEX
  5
16F
  8
1
  6
CONTINUOUS
 62
     7
 10
-201.3948405921916
 20
290.2276589360703
 30
0.0
  0
VERTEX
  5
170
  8
1
  6
CONTINUOUS
 62
     7
 10
-201.3967425406115
 20
290.2119196958566
 30
0.0
  0
VERTEX
  5
171
  8
1
  6
CONTINUOUS
 62
     7
 10
-201.3992448057313
 20
290.1959856862288
 30
0.0
  0
VERTEX
  5
172
  8
1
  6
CONTINUOUS
 62
     7
 10
-201.4022896163832
 20
290.1803075633793
 30
0.0
  0
VERTEX
  5
173
  8
1
  6
CONTINUOUS
 62
     7
 10
-201.4058939393397
 20
290.164785353709
 30
0.0
  0
VERTEX
  5
174
  8
1
  6
CONTINUOUS
 62
     7
 10
-201.4100151397357
 20
290.1495775845116
 30
0.0
  0
VERTEX
  5
175
  8
1
  6
CONTINUOUS
 62
     7
 10
-201.4144406675334
 20
290.1352952715206
 30
0.0
  0
VERTEX
  5
176
  8
1
  6
CONTINUOUS
 62
     7
 10
-201.419309481418
 20
290.1213293444093
 30
0.0
  0
VERTEX
  5
177
  8
1
  6
CONTINUOUS
 62
     7
 10
-201.4245979888625
 20
290.1077037981797
 30
0.0
  0
VERTEX
  5
178
  8
1
  6
CONTINUOUS
 62
     7
 10
-201.4302825973399
 20
290.0944426278342
 30
0.0
  0
VERTEX
  5
179
  8
1
  6
CONTINUOUS
 62
     7
 10
-201.4386619561928
 20
290.0769147499842
 30
0.0
  0
VERTEX
  5
17A
  8
1
  6
CONTINUOUS
 62
     7
 10
-201.4477069078939
 20
290.0600697060558
 30
0.0
  0
VERTEX
  5
17B
  8
1
  6
CONTINUOUS
 62
     7
 10
-201.4573583164241
 20
290.0439379345028
 30
0.0
  0
VERTEX
  5
17C
  8
1
  6
CONTINUOUS
 62
     7
 10
-201.4679770878481
 20
290.0279409822015
 30
0.0
  0
VERTEX
  5
17D
  8
1
  6
CONTINUOUS
 62
     7
 10
-201.4791559187101
 20
290.0127086302803
 30
0.0
  0
VERTEX
  5
17E
  8
1
  6
CONTINUOUS
 62
     7
 10
-201.4909412723005
 20
289.9981284530983
 30
0.0
  0
VERTEX
  5
17F
  8
1
  6
CONTINUOUS
 62
     7
 10
-201.5032044002668
 20
289.9843138089702
 30
0.0
  0
VERTEX
  5
180
  8
1
  6
CONTINUOUS
 62
     7
 10
-201.5161763475712
 20
289.9709885400559
 30
0.0
  0
VERTEX
  5
181
  8
1
  6
CONTINUOUS
 62
     7
 10
-201.5295638875276
 20
289.9584391887818
 30
0.0
  0
VERTEX
  5
182
  8
1
  6
CONTINUOUS
 62
     7
 10
-201.5434111000513
 20
289.946586444852
 30
0.0
  0
VERTEX
  5
183
  8
1
  6
CONTINUOUS
 62
     7
 10
-201.5576073485535
 20
289.9354906992659
 30
0.0
  0
VERTEX
  5
184
  8
1
  6
CONTINUOUS
 62
     7
 10
-201.5772913324531
 20
289.9216727398393
 30
0.0
  0
VERTEX
  5
185
  8
1
  6
CONTINUOUS
 62
     7
 10
-201.5974862800118
 20
289.9091739386126
 30
0.0
  0
VERTEX
  5
186
  8
1
  6
CONTINUOUS
 62
     7
 10
-201.6182887156121
 20
289.8978786434902
 30
0.0
  0
VERTEX
  5
187
  8
1
  6
CONTINUOUS
 62
     7
 10
-201.6394903893878
 20
289.8878525970925
 30
0.0
  0
VERTEX
  5
188
  8
1
  6
CONTINUOUS
 62
     7
 10
-201.6614947480728
 20
289.8788928551708
 30
0.0
  0
VERTEX
  5
189
  8
1
  6
CONTINUOUS
 62
     7
 10
-201.6838141990501
 20
289.8711911087337
 30
0.0
  0
VERTEX
  5
18A
  8
1
  6
CONTINUOUS
 62
     7
 10
-201.7065393510342
 20
289.8646840696265
 30
0.0
  0
VERTEX
  5
18B
  8
1
  6
CONTINUOUS
 62
     7
 10
-201.7294988397448
 20
289.8593949682152
 30
0.0
  0
VERTEX
  5
18C
  8
1
  6
CONTINUOUS
 62
     7
 10
-201.7528577396582
 20
289.8552702976297
 30
0.0
  0
VERTEX
  5
18D
  8
1
  6
CONTINUOUS
 62
     7
 10
-201.7763824101409
 20
289.852340814643
 30
0.0
  0
VERTEX
  5
18E
  8
1
  6
CONTINUOUS
 62
     7
 10
-201.800158954595
 20
289.8505830924016
 30
0.0
  0
VERTEX
  5
18F
  8
1
  6
CONTINUOUS
 62
     7
 10
-201.8240386288003
 20
289.85
 30
0.0
  0
SEQEND
  5
55E
  8
1
  6
CONTINUOUS
 62
     7
  0
LINE
  5
B1
  8
1
  6
CONTINUOUS
 62
     7
 10
-201.3923927799163
 20
290.2755583126551
 30
0.0
 11
-201.3923927799163
 21
285.8872208436725
 31
0.0
  0
POLYLINE
  5
B2
  8
1
  6
CONTINUOUS
 62
     7
 66
     1
 10
0.0
 20
0.0
 30
0.0
  0
VERTEX
  5
190
  8
1
  6
CONTINUOUS
 62
     7
 10
-201.8613515004863
 20
286.35
 30
0.0
  0
VERTEX
  5
191
  8
1
  6
CONTINUOUS
 62
     7
 10
-201.8334919316759
 20
286.3492191419455
 30
0.0
  0
VERTEX
  5
192
  8
1
  6
CONTINUOUS
 62
     7
 10
-201.8057159220921
 20
286.346869741221
 30
0.0
  0
VERTEX
  5
193
  8
1
  6
CONTINUOUS
 62
     7
 10
-201.7778890287869
 20
286.3429068134563
 30
0.0
  0
VERTEX
  5
194
  8
1
  6
CONTINUOUS
 62
     7
 10
-201.7502433399926
 20
286.3373209998373
 30
0.0
  0
VERTEX
  5
195
  8
1
  6
CONTINUOUS
 62
     7
 10
-201.7222319810222
 20
286.3299095582047
 30
0.0
  0
VERTEX
  5
196
  8
1
  6
CONTINUOUS
 62
     7
 10
-201.6945273446053
 20
286.3207444472608
 30
0.0
  0
VERTEX
  5
197
  8
1
  6
CONTINUOUS
 62
     7
 10
-201.6669701845753
 20
286.3096876148905
 30
0.0
  0
VERTEX
  5
198
  8
1
  6
CONTINUOUS
 62
     7
 10
-201.6398726504843
 20
286.2967626274945
 30
0.0
  0
VERTEX
  5
199
  8
1
  6
CONTINUOUS
 62
     7
 10
-201.6167278785794
 20
286.2839509304803
 30
0.0
  0
VERTEX
  5
19A
  8
1
  6
CONTINUOUS
 62
     7
 10
-201.5940527971855
 20
286.2696395719948
 30
0.0
  0
VERTEX
  5
19B
  8
1
  6
CONTINUOUS
 62
     7
 10
-201.5719466640523
 20
286.2538040106652
 30
0.0
  0
VERTEX
  5
19C
  8
1
  6
CONTINUOUS
 62
     7
 10
-201.5554185934605
 20
286.2405919847708
 30
0.0
  0
VERTEX
  5
19D
  8
1
  6
CONTINUOUS
 62
     7
 10
-201.5392960852127
 20
286.2264223842803
 30
0.0
  0
VERTEX
  5
19E
  8
1
  6
CONTINUOUS
 62
     7
 10
-201.5236431299656
 20
286.211290170529
 30
0.0
  0
VERTEX
  5
19F
  8
1
  6
CONTINUOUS
 62
     7
 10
-201.5085237183762
 20
286.1951903048524
 30
0.0
  0
VERTEX
  5
1A0
  8
1
  6
CONTINUOUS
 62
     7
 10
-201.4978523048213
 20
286.1828144232885
 30
0.0
  0
VERTEX
  5
1A1
  8
1
  6
CONTINUOUS
 62
     7
 10
-201.4875126424917
 20
286.169903294805
 30
0.0
  0
VERTEX
  5
1A2
  8
1
  6
CONTINUOUS
 62
     7
 10
-201.4774800493689
 20
286.1563815959158
 30
0.0
  0
VERTEX
  5
1A3
  8
1
  6
CONTINUOUS
 62
     7
 10
-201.4678375491147
 20
286.142313205505
 30
0.0
  0
VERTEX
  5
1A4
  8
1
  6
CONTINUOUS
 62
     7
 10
-201.4584500354254
 20
286.1274237817444
 30
0.0
  0
VERTEX
  5
1A5
  8
1
  6
CONTINUOUS
 62
     7
 10
-201.4495321160281
 20
286.1119698588679
 30
0.0
  0
VERTEX
  5
1A6
  8
1
  6
CONTINUOUS
 62
     7
 10
-201.4410588219718
 20
286.0958353229095
 30
0.0
  0
VERTEX
  5
1A7
  8
1
  6
CONTINUOUS
 62
     7
 10
-201.4331357928105
 20
286.0791437754258
 30
0.0
  0
VERTEX
  5
1A8
  8
1
  6
CONTINUOUS
 62
     7
 10
-201.4273827632285
 20
286.0657941608657
 30
0.0
  0
VERTEX
  5
1A9
  8
1
  6
CONTINUOUS
 62
     7
 10
-201.4220041776533
 20
286.052125729037
 30
0.0
  0
VERTEX
  5
1AA
  8
1
  6
CONTINUOUS
 62
     7
 10
-201.4169903694617
 20
286.0380650233171
 30
0.0
  0
VERTEX
  5
1AB
  8
1
  6
CONTINUOUS
 62
     7
 10
-201.4123930158409
 20
286.0237068045851
 30
0.0
  0
VERTEX
  5
1AC
  8
1
  6
CONTINUOUS
 62
     7
 10
-201.4081511090086
 20
286.0087674499126
 30
0.0
  0
VERTEX
  5
1AD
  8
1
  6
CONTINUOUS
 62
     7
 10
-201.4043803667441
 20
285.9935553258351
 30
0.0
  0
VERTEX
  5
1AE
  8
1
  6
CONTINUOUS
 62
     7
 10
-201.401075663372
 20
285.9779733542205
 30
0.0
  0
VERTEX
  5
1AF
  8
1
  6
CONTINUOUS
 62
     7
 10
-201.3982834782521
 20
285.9621637198449
 30
0.0
  0
VERTEX
  5
1B0
  8
1
  6
CONTINUOUS
 62
     7
 10
-201.396505911758
 20
285.9499537018178
 30
0.0
  0
VERTEX
  5
1B1
  8
1
  6
CONTINUOUS
 62
     7
 10
-201.3950408204358
 20
285.9376376308019
 30
0.0
  0
VERTEX
  5
1B2
  8
1
  6
CONTINUOUS
 62
     7
 10
-201.3938937984621
 20
285.9252377904212
 30
0.0
  0
VERTEX
  5
1B3
  8
1
  6
CONTINUOUS
 62
     7
 10
-201.3930612606914
 20
285.9126191664287
 30
0.0
  0
VERTEX
  5
1B4
  8
1
  6
CONTINUOUS
 62
     7
 10
-201.3925602404649
 20
285.8999384779901
 30
0.0
  0
VERTEX
  5
1B5
  8
1
  6
CONTINUOUS
 62
     7
 10
-201.3923927799163
 20
285.8872208436725
 30
0.0
  0
SEQEND
  5
55F
  8
1
  6
CONTINUOUS
 62
     7
  0
LINE
  5
B3
  8
1
  6
CONTINUOUS
 62
     7
 10
-200.1423927799163
 20
305.7499999999999
 30
0.0
 11
-200.1423927799163
 21
268.95
 31
0.0
  0
ARC
  5
B4
  8
1
  6
CONTINUOUS
 62
     9
 10
-252.1459461705095
 20
287.35
 30
0.0
 40
18.45
 50
355.4924313375777
 51
4.507568662422386
  0
ARC
  5
B5
  8
1
  6
CONTINUOUS
 62
     9
 10
-233.0873544966828
 20
287.6595409635344
 30
0.0
 40
1.440803782834516
 50
88.74658836864926
 51
108.4843312192561
  0
POLYLINE
  5
B6
  8
1
  6
CONTINUOUS
 62
     9
 66
     1
 10
0.0
 20
0.0
 30
0.0
  0
VERTEX
  5
1B6
  8
1
  6
CONTINUOUS
 62
     9
 10
-233.5441545711011
 20
289.0260142463474
 30
0.0
  0
VERTEX
  5
1B7
  8
1
  6
CONTINUOUS
 62
     9
 10
-233.6420575906346
 20
288.9797285969171
 30
0.0
  0
VERTEX
  5
1B8
  8
1
  6
CONTINUOUS
 62
     9
 10
-233.7214733136485
 20
288.9136161678601
 30
0.0
  0
VERTEX
  5
1B9
  8
1
  6
CONTINUOUS
 62
     9
 10
-233.7553066994874
 20
288.8158417524063
 30
0.0
  0
VERTEX
  5
1BA
  8
1
  6
CONTINUOUS
 62
     9
 10
-233.7530127448703
 20
288.8
 30
0.0
  0
SEQEND
  5
560
  8
1
  6
CONTINUOUS
 62
     9
  0
POLYLINE
  5
B7
  8
1
  6
CONTINUOUS
 62
     9
 66
     1
 10
0.0
 20
0.0
 30
0.0
  0
VERTEX
  5
1BB
  8
1
  6
CONTINUOUS
 62
     9
 10
-233.7530127448702
 20
285.9
 30
0.0
  0
VERTEX
  5
1BC
  8
1
  6
CONTINUOUS
 62
     9
 10
-233.7540808627411
 20
285.8942759606201
 30
0.0
  0
VERTEX
  5
1BD
  8
1
  6
CONTINUOUS
 62
     9
 10
-233.7545594143334
 20
285.8910808021826
 30
0.0
  0
VERTEX
  5
1BE
  8
1
  6
CONTINUOUS
 62
     9
 10
-233.7549555068965
 20
285.8878684547437
 30
0.0
  0
VERTEX
  5
1BF
  8
1
  6
CONTINUOUS
 62
     9
 10
-233.7552682764807
 20
285.8846309748748
 30
0.0
  0
VERTEX
  5
1C0
  8
1
  6
CONTINUOUS
 62
     9
 10
-233.755494925293
 20
285.8813808309857
 30
0.0
  0
VERTEX
  5
1C1
  8
1
  6
CONTINUOUS
 62
     9
 10
-233.75563504017
 20
285.8780889278387
 30
0.0
  0
VERTEX
  5
1C2
  8
1
  6
CONTINUOUS
 62
     9
 10
-233.7556850080481
 20
285.8747894331283
 30
0.0
  0
VERTEX
  5
1C3
  8
1
  6
CONTINUOUS
 62
     9
 10
-233.7556436500148
 20
285.8714734708768
 30
0.0
  0
VERTEX
  5
1C4
  8
1
  6
CONTINUOUS
 62
     9
 10
-233.7555101770131
 20
285.8681556663266
 30
0.0
  0
VERTEX
  5
1C5
  8
1
  6
CONTINUOUS
 62
     9
 10
-233.7553071089458
 20
285.8651210328006
 30
0.0
  0
VERTEX
  5
1C6
  8
1
  6
CONTINUOUS
 62
     9
 10
-233.7550264977903
 20
285.8620873641866
 30
0.0
  0
VERTEX
  5
1C7
  8
1
  6
CONTINUOUS
 62
     9
 10
-233.7546656243518
 20
285.8590356713383
 30
0.0
  0
VERTEX
  5
1C8
  8
1
  6
CONTINUOUS
 62
     9
 10
-233.7542264789333
 20
285.8559896546979
 30
0.0
  0
VERTEX
  5
1C9
  8
1
  6
CONTINUOUS
 62
     9
 10
-233.7536498852809
 20
285.8526283641114
 30
0.0
  0
VERTEX
  5
1CA
  8
1
  6
CONTINUOUS
 62
     9
 10
-233.7529796895842
 20
285.8492827707
 30
0.0
  0
VERTEX
  5
1CB
  8
1
  6
CONTINUOUS
 62
     9
 10
-233.7522143521603
 20
285.8459436343256
 30
0.0
  0
VERTEX
  5
1CC
  8
1
  6
CONTINUOUS
 62
     9
 10
-233.7513580089486
 20
285.8426260115613
 30
0.0
  0
VERTEX
  5
1CD
  8
1
  6
CONTINUOUS
 62
     9
 10
-233.7504022813476
 20
285.8392983034744
 30
0.0
  0
VERTEX
  5
1CE
  8
1
  6
CONTINUOUS
 62
     9
 10
-233.7493579809768
 20
285.8359977006047
 30
0.0
  0
VERTEX
  5
1CF
  8
1
  6
CONTINUOUS
 62
     9
 10
-233.7482235861758
 20
285.8327155734248
 30
0.0
  0
VERTEX
  5
1D0
  8
1
  6
CONTINUOUS
 62
     9
 10
-233.747005151417
 20
285.8294650844359
 30
0.0
  0
VERTEX
  5
1D1
  8
1
  6
CONTINUOUS
 62
     9
 10
-233.7445666161207
 20
285.8236039322671
 30
0.0
  0
VERTEX
  5
1D2
  8
1
  6
CONTINUOUS
 62
     9
 10
-233.7426000963792
 20
285.8193506207826
 30
0.0
  0
VERTEX
  5
1D3
  8
1
  6
CONTINUOUS
 62
     9
 10
-233.7405017537116
 20
285.8151664287014
 30
0.0
  0
VERTEX
  5
1D4
  8
1
  6
CONTINUOUS
 62
     9
 10
-233.7382683440395
 20
285.811035084137
 30
0.0
  0
VERTEX
  5
1D5
  8
1
  6
CONTINUOUS
 62
     9
 10
-233.7359163837777
 20
285.8069773195978
 30
0.0
  0
VERTEX
  5
1D6
  8
1
  6
CONTINUOUS
 62
     9
 10
-233.7324810550731
 20
285.8014882888102
 30
0.0
  0
VERTEX
  5
1D7
  8
1
  6
CONTINUOUS
 62
     9
 10
-233.7288439910853
 20
285.7961344361002
 30
0.0
  0
VERTEX
  5
1D8
  8
1
  6
CONTINUOUS
 62
     9
 10
-233.7253696090527
 20
285.791376608832
 30
0.0
  0
VERTEX
  5
1D9
  8
1
  6
CONTINUOUS
 62
     9
 10
-233.7204086677553
 20
285.7850748243416
 30
0.0
  0
VERTEX
  5
1DA
  8
1
  6
CONTINUOUS
 62
     9
 10
-233.714130578183
 20
285.7777688589292
 30
0.0
  0
VERTEX
  5
1DB
  8
1
  6
CONTINUOUS
 62
     9
 10
-233.7075492238502
 20
285.7707507662175
 30
0.0
  0
VERTEX
  5
1DC
  8
1
  6
CONTINUOUS
 62
     9
 10
-233.6989281183502
 20
285.7623456879628
 30
0.0
  0
VERTEX
  5
1DD
  8
1
  6
CONTINUOUS
 62
     9
 10
-233.6899488579347
 20
285.7543533635656
 30
0.0
  0
VERTEX
  5
1DE
  8
1
  6
CONTINUOUS
 62
     9
 10
-233.6799924471204
 20
285.7462236087673
 30
0.0
  0
VERTEX
  5
1DF
  8
1
  6
CONTINUOUS
 62
     9
 10
-233.6697393875659
 20
285.7385127187924
 30
0.0
  0
VERTEX
  5
1E0
  8
1
  6
CONTINUOUS
 62
     9
 10
-233.6609392179197
 20
285.7323449612389
 30
0.0
  0
VERTEX
  5
1E1
  8
1
  6
CONTINUOUS
 62
     9
 10
-233.6519926072853
 20
285.7264432348669
 30
0.0
  0
VERTEX
  5
1E2
  8
1
  6
CONTINUOUS
 62
     9
 10
-233.63367559504
 20
285.7153432629422
 30
0.0
  0
VERTEX
  5
1E3
  8
1
  6
CONTINUOUS
 62
     9
 10
-233.6128917057464
 20
285.7040712510561
 30
0.0
  0
VERTEX
  5
1E4
  8
1
  6
CONTINUOUS
 62
     9
 10
-233.5916806262035
 20
285.693746122203
 30
0.0
  0
VERTEX
  5
1E5
  8
1
  6
CONTINUOUS
 62
     9
 10
-233.5720419936495
 20
285.6850718626125
 30
0.0
  0
VERTEX
  5
1E6
  8
1
  6
CONTINUOUS
 62
     9
 10
-233.545244543726
 20
285.6743932856798
 30
0.0
  0
VERTEX
  5
1E7
  8
1
  6
CONTINUOUS
 62
     9
 10
-233.5181597857496
 20
285.6647624629531
 30
0.0
  0
VERTEX
  5
1E8
  8
1
  6
CONTINUOUS
 62
     9
 10
-233.49073137747
 20
285.6560269292504
 30
0.0
  0
VERTEX
  5
1E9
  8
1
  6
CONTINUOUS
 62
     9
 10
-233.4631281523606
 20
285.6481433667764
 30
0.0
  0
VERTEX
  5
1EA
  8
1
  6
CONTINUOUS
 62
     9
 10
-233.4138096495202
 20
285.6360154035956
 30
0.0
  0
VERTEX
  5
1EB
  8
1
  6
CONTINUOUS
 62
     9
 10
-233.364126698967
 20
285.6259886245562
 30
0.0
  0
VERTEX
  5
1EC
  8
1
  6
CONTINUOUS
 62
     9
 10
-233.2875393523826
 20
285.6141801285092
 30
0.0
  0
VERTEX
  5
1ED
  8
1
  6
CONTINUOUS
 62
     9
 10
-233.2104566878621
 20
285.6061450938516
 30
0.0
  0
VERTEX
  5
1EE
  8
1
  6
CONTINUOUS
 62
     9
 10
-233.1332246596305
 20
285.6015075961781
 30
0.0
  0
VERTEX
  5
1EF
  8
1
  6
CONTINUOUS
 62
     9
 10
-233.0558377567662
 20
285.6
 30
0.0
  0
SEQEND
  5
561
  8
1
  6
CONTINUOUS
 62
     9
  0
LINE
  5
B8
  8
1
  6
CONTINUOUS
 62
     7
 10
-249.7584587976579
 20
272.0504502133379
 30
0.0
 11
-249.7830805403184
 21
272.096534813587
 31
0.0
  0
LINE
  5
B9
  8
1
  6
CONTINUOUS
 62
     7
 10
-248.758428282263
 20
302.6494121142952
 30
0.0
 11
-248.7831818630885
 21
302.6031545499428
 31
0.0
  0
LINE
  5
BA
  8
1
  6
CONTINUOUS
 62
     7
 10
-247.7584181965159
 20
272.0506380544491
 30
0.0
 11
-247.783196857155
 21
272.0967508814296
 31
0.0
  0
LINE
  5
BB
  8
1
  6
CONTINUOUS
 62
     7
 10
-246.7584080595204
 20
302.649412113999
 30
0.0
 11
-246.783002136865
 21
302.6041631179745
 31
0.0
  0
LINE
  5
BC
  8
1
  6
CONTINUOUS
 62
     7
 10
-245.7583775952895
 20
272.0504502129477
 30
0.0
 11
-245.7828548164407
 21
272.0951247781367
 31
0.0
  0
LINE
  5
BD
  8
1
  6
CONTINUOUS
 62
     7
 10
-244.7583132804376
 20
302.6497369744128
 30
0.0
 11
-244.7829530103066
 21
302.6045706390494
 31
0.0
  0
LINE
  5
BE
  8
1
  6
CONTINUOUS
 62
     7
 10
-243.758329327579
 20
272.0500838972705
 30
0.0
 11
-243.7831465595445
 21
272.0962550219733
 31
0.0
  0
LINE
  5
BF
  8
1
  6
CONTINUOUS
 62
     7
 10
-243.1262785200113
 20
272.0500838969302
 30
0.0
 11
-243.1016542404504
 21
272.0965655628429
 31
0.0
  0
LINE
  5
C0
  8
1
  6
CONTINUOUS
 62
     7
 10
-244.1262624728699
 20
302.6497369748131
 30
0.0
 11
-244.1017629407812
 21
302.603714723037
 31
0.0
  0
LINE
  5
C1
  8
1
  6
CONTINUOUS
 62
     7
 10
-245.1263267877218
 20
272.050450212796
 30
0.0
 11
-245.1017050195141
 21
272.0965348135871
 31
0.0
  0
LINE
  5
C2
  8
1
  6
CONTINUOUS
 62
     7
 10
-246.1263572519527
 20
302.649412114035
 30
0.0
 11
-246.101603696744
 21
302.6031545499428
 31
0.0
  0
LINE
  5
C3
  8
1
  6
CONTINUOUS
 62
     7
 10
-247.1263673889566
 20
272.0506380544491
 30
0.0
 11
-247.1015887026775
 21
272.0967508814296
 31
0.0
  0
LINE
  5
C4
  8
1
  6
CONTINUOUS
 62
     7
 10
-248.1263774746953
 20
302.6494121142593
 30
0.0
 11
-248.1017834229675
 21
302.6041631179745
 31
0.0
  0
LINE
  5
C5
  8
1
  6
CONTINUOUS
 62
     7
 10
-249.1264079900902
 20
272.0504502134897
 30
0.0
 11
-249.1019307433917
 21
272.0951247781368
 31
0.0
  0
LINE
  5
C6
  8
1
  6
CONTINUOUS
 62
     7
 10
-250.126472255488
 20
302.6497369752036
 30
0.0
 11
-250.1018325495259
 21
302.6045706390494
 31
0.0
  0
LINE
  5
C7
  8
1
  6
CONTINUOUS
 62
     7
 10
-242.7584181837007
 20
302.65
 30
0.0
 11
-242.1263673761318
 21
302.65
 31
0.0
  0
ARC
  5
C8
  8
1
  6
CONTINUOUS
 62
     7
 10
157.7885860054265
 20
293.0699934724764
 30
0.0
 40
408.1109522409218
 50
180.4628214597422
 51
182.9458171820651
  0
LINE
  5
C9
  8
1
  6
CONTINUOUS
 62
     7
 10
-250.3090516514492
 20
289.7734076827051
 30
0.0
 11
-250.3423927799163
 21
291.3395282199413
 31
0.0
  0
POLYLINE
  5
CA
  8
1
  6
CONTINUOUS
 62
     7
 66
     1
 10
0.0
 20
0.0
 30
0.0
  0
VERTEX
  5
1F0
  8
1
  6
CONTINUOUS
 62
     7
 10
-247.783196857155
 20
272.0967508814296
 30
0.0
  0
VERTEX
  5
1F1
  8
1
  6
CONTINUOUS
 62
     7
 10
-247.7933555178332
 20
272.1423118686823
 30
0.0
  0
VERTEX
  5
1F2
  8
1
  6
CONTINUOUS
 62
     7
 10
-247.8035141785115
 20
272.2033741872903
 30
0.0
  0
VERTEX
  5
1F3
  8
1
  6
CONTINUOUS
 62
     7
 10
-247.8136728391897
 20
272.2799378372735
 30
0.0
  0
VERTEX
  5
1F4
  8
1
  6
CONTINUOUS
 62
     7
 10
-247.8238314998679
 20
272.3719811892119
 30
0.0
  0
VERTEX
  5
1F5
  8
1
  6
CONTINUOUS
 62
     7
 10
-247.8339901605461
 20
272.4793687664751
 30
0.0
  0
VERTEX
  5
1F6
  8
1
  6
CONTINUOUS
 62
     7
 10
-247.8441488212243
 20
272.601927768028
 30
0.0
  0
VERTEX
  5
1F7
  8
1
  6
CONTINUOUS
 62
     7
 10
-247.8543074819025
 20
272.7394853710812
 30
0.0
  0
VERTEX
  5
1F8
  8
1
  6
CONTINUOUS
 62
     7
 10
-247.8644661425807
 20
272.8918687528457
 30
0.0
  0
VERTEX
  5
1F9
  8
1
  6
CONTINUOUS
 62
     7
 10
-247.874624803259
 20
273.0589050905322
 30
0.0
  0
VERTEX
  5
1FA
  8
1
  6
CONTINUOUS
 62
     7
 10
-247.8847834639372
 20
273.2404215613516
 30
0.0
  0
VERTEX
  5
1FB
  8
1
  6
CONTINUOUS
 62
     7
 10
-247.8949421246154
 20
273.4362453425148
 30
0.0
  0
VERTEX
  5
1FC
  8
1
  6
CONTINUOUS
 62
     7
 10
-247.9051007852936
 20
273.6462036112326
 30
0.0
  0
VERTEX
  5
1FD
  8
1
  6
CONTINUOUS
 62
     7
 10
-247.9152594459718
 20
273.870123544716
 30
0.0
  0
VERTEX
  5
1FE
  8
1
  6
CONTINUOUS
 62
     7
 10
-247.9254181066499
 20
274.1078323201756
 30
0.0
  0
VERTEX
  5
1FF
  8
1
  6
CONTINUOUS
 62
     7
 10
-247.9355767673282
 20
274.3591416908909
 30
0.0
  0
VERTEX
  5
200
  8
1
  6
CONTINUOUS
 62
     7
 10
-247.9457354280064
 20
274.6237656179351
 30
0.0
  0
VERTEX
  5
201
  8
1
  6
CONTINUOUS
 62
     7
 10
-247.9558940886846
 20
274.9013798547168
 30
0.0
  0
VERTEX
  5
202
  8
1
  6
CONTINUOUS
 62
     7
 10
-247.9660527493628
 20
275.1916600667736
 30
0.0
  0
VERTEX
  5
203
  8
1
  6
CONTINUOUS
 62
     7
 10
-247.976211410041
 20
275.4942819196439
 30
0.0
  0
VERTEX
  5
204
  8
1
  6
CONTINUOUS
 62
     7
 10
-247.9863700707192
 20
275.8089210788653
 30
0.0
  0
VERTEX
  5
205
  8
1
  6
CONTINUOUS
 62
     7
 10
-247.9965287313974
 20
276.135253209976
 30
0.0
  0
VERTEX
  5
206
  8
1
  6
CONTINUOUS
 62
     7
 10
-248.0066873920756
 20
276.4729539785139
 30
0.0
  0
VERTEX
  5
207
  8
1
  6
CONTINUOUS
 62
     7
 10
-248.0168460527538
 20
276.8216990500169
 30
0.0
  0
VERTEX
  5
208
  8
1
  6
CONTINUOUS
 62
     7
 10
-248.027004713432
 20
277.1811640900232
 30
0.0
  0
VERTEX
  5
209
  8
1
  6
CONTINUOUS
 62
     7
 10
-248.0371633741103
 20
277.5510247640707
 30
0.0
  0
VERTEX
  5
20A
  8
1
  6
CONTINUOUS
 62
     7
 10
-248.0473220347884
 20
277.9309476435582
 30
0.0
  0
VERTEX
  5
20B
  8
1
  6
CONTINUOUS
 62
     7
 10
-248.0574806954667
 20
278.32052943596
 30
0.0
  0
VERTEX
  5
20C
  8
1
  6
CONTINUOUS
 62
     7
 10
-248.0676393561449
 20
278.7193344666004
 30
0.0
  0
VERTEX
  5
20D
  8
1
  6
CONTINUOUS
 62
     7
 10
-248.0777980168231
 20
279.1269268836992
 30
0.0
  0
VERTEX
  5
20E
  8
1
  6
CONTINUOUS
 62
     7
 10
-248.0879566775013
 20
279.5428708354766
 30
0.0
  0
VERTEX
  5
20F
  8
1
  6
CONTINUOUS
 62
     7
 10
-248.0981153381795
 20
279.9667304701524
 30
0.0
  0
VERTEX
  5
210
  8
1
  6
CONTINUOUS
 62
     7
 10
-248.1082739988577
 20
280.3980699359464
 30
0.0
  0
VERTEX
  5
211
  8
1
  6
CONTINUOUS
 62
     7
 10
-248.1184326595359
 20
280.8364533810787
 30
0.0
  0
VERTEX
  5
212
  8
1
  6
CONTINUOUS
 62
     7
 10
-248.1285913202141
 20
281.2814449537693
 30
0.0
  0
VERTEX
  5
213
  8
1
  6
CONTINUOUS
 62
     7
 10
-248.1387499808923
 20
281.7326088022379
 30
0.0
  0
VERTEX
  5
214
  8
1
  6
CONTINUOUS
 62
     7
 10
-248.1489086415705
 20
282.1895090747047
 30
0.0
  0
VERTEX
  5
215
  8
1
  6
CONTINUOUS
 62
     7
 10
-248.1590673022488
 20
282.6517062116562
 30
0.0
  0
VERTEX
  5
216
  8
1
  6
CONTINUOUS
 62
     7
 10
-248.169225962927
 20
283.1187258439671
 30
0.0
  0
VERTEX
  5
217
  8
1
  6
CONTINUOUS
 62
     7
 10
-248.1793846236052
 20
283.5900745431032
 30
0.0
  0
VERTEX
  5
218
  8
1
  6
CONTINUOUS
 62
     7
 10
-248.1895432842834
 20
284.0652586857522
 30
0.0
  0
VERTEX
  5
219
  8
1
  6
CONTINUOUS
 62
     7
 10
-248.1997019449616
 20
284.5437846486031
 30
0.0
  0
VERTEX
  5
21A
  8
1
  6
CONTINUOUS
 62
     7
 10
-248.2098606056398
 20
285.025158808344
 30
0.0
  0
VERTEX
  5
21B
  8
1
  6
CONTINUOUS
 62
     7
 10
-248.220019266318
 20
285.5088875416633
 30
0.0
  0
VERTEX
  5
21C
  8
1
  6
CONTINUOUS
 62
     7
 10
-248.2301779269962
 20
285.9944772252495
 30
0.0
  0
VERTEX
  5
21D
  8
1
  6
CONTINUOUS
 62
     7
 10
-248.2403365876744
 20
286.481434235791
 30
0.0
  0
VERTEX
  5
21E
  8
1
  6
CONTINUOUS
 62
     7
 10
-248.2504952483526
 20
286.9692649499762
 30
0.0
  0
VERTEX
  5
21F
  8
1
  6
CONTINUOUS
 62
     7
 10
-248.2606539090308
 20
287.4574757444934
 30
0.0
  0
VERTEX
  5
220
  8
1
  6
CONTINUOUS
 62
     7
 10
-248.270812569709
 20
287.945573149297
 30
0.0
  0
VERTEX
  5
221
  8
1
  6
CONTINUOUS
 62
     7
 10
-248.2809712303873
 20
288.4330654735319
 30
0.0
  0
VERTEX
  5
222
  8
1
  6
CONTINUOUS
 62
     7
 10
-248.2911298910654
 20
288.9194621730113
 30
0.0
  0
VERTEX
  5
223
  8
1
  6
CONTINUOUS
 62
     7
 10
-248.3012885517437
 20
289.4042727226062
 30
0.0
  0
VERTEX
  5
224
  8
1
  6
CONTINUOUS
 62
     7
 10
-248.3114472124218
 20
289.887006597187
 30
0.0
  0
VERTEX
  5
225
  8
1
  6
CONTINUOUS
 62
     7
 10
-248.3216058731
 20
290.3671732716244
 30
0.0
  0
VERTEX
  5
226
  8
1
  6
CONTINUOUS
 62
     7
 10
-248.3317645337782
 20
290.8442822207893
 30
0.0
  0
VERTEX
  5
227
  8
1
  6
CONTINUOUS
 62
     7
 10
-248.3419231944565
 20
291.3178429195523
 30
0.0
  0
VERTEX
  5
228
  8
1
  6
CONTINUOUS
 62
     7
 10
-248.3520818551347
 20
291.7873648427839
 30
0.0
  0
VERTEX
  5
229
  8
1
  6
CONTINUOUS
 62
     7
 10
-248.3622405158129
 20
292.252357465355
 30
0.0
  0
VERTEX
  5
22A
  8
1
  6
CONTINUOUS
 62
     7
 10
-248.3723991764911
 20
292.7123302621362
 30
0.0
  0
VERTEX
  5
22B
  8
1
  6
CONTINUOUS
 62
     7
 10
-248.3825578371693
 20
293.1667950733267
 30
0.0
  0
VERTEX
  5
22C
  8
1
  6
CONTINUOUS
 62
     7
 10
-248.3927164978475
 20
293.6152982241911
 30
0.0
  0
VERTEX
  5
22D
  8
1
  6
CONTINUOUS
 62
     7
 10
-248.4028751585257
 20
294.0574121301691
 30
0.0
  0
VERTEX
  5
22E
  8
1
  6
CONTINUOUS
 62
     7
 10
-248.4130338192039
 20
294.4927098519841
 30
0.0
  0
VERTEX
  5
22F
  8
1
  6
CONTINUOUS
 62
     7
 10
-248.4231924798821
 20
294.9207644503596
 30
0.0
  0
VERTEX
  5
230
  8
1
  6
CONTINUOUS
 62
     7
 10
-248.4333511405604
 20
295.341148986019
 30
0.0
  0
VERTEX
  5
231
  8
1
  6
CONTINUOUS
 62
     7
 10
-248.4435098012385
 20
295.7534365196859
 30
0.0
  0
VERTEX
  5
232
  8
1
  6
CONTINUOUS
 62
     7
 10
-248.4536684619167
 20
296.1572001120837
 30
0.0
  0
VERTEX
  5
233
  8
1
  6
CONTINUOUS
 62
     7
 10
-248.463827122595
 20
296.5520128239361
 30
0.0
  0
VERTEX
  5
234
  8
1
  6
CONTINUOUS
 62
     7
 10
-248.4739857832732
 20
296.9374477159664
 30
0.0
  0
VERTEX
  5
235
  8
1
  6
CONTINUOUS
 62
     7
 10
-248.4841444439514
 20
297.3130778488981
 30
0.0
  0
VERTEX
  5
236
  8
1
  6
CONTINUOUS
 62
     7
 10
-248.4943031046296
 20
297.678479438748
 30
0.0
  0
VERTEX
  5
237
  8
1
  6
CONTINUOUS
 62
     7
 10
-248.5044617653078
 20
298.0332876791882
 30
0.0
  0
VERTEX
  5
238
  8
1
  6
CONTINUOUS
 62
     7
 10
-248.514620425986
 20
298.377190052216
 30
0.0
  0
VERTEX
  5
239
  8
1
  6
CONTINUOUS
 62
     7
 10
-248.5247790866642
 20
298.7098758511748
 30
0.0
  0
VERTEX
  5
23A
  8
1
  6
CONTINUOUS
 62
     7
 10
-248.5349377473424
 20
299.0310343694081
 30
0.0
  0
VERTEX
  5
23B
  8
1
  6
CONTINUOUS
 62
     7
 10
-248.5450964080207
 20
299.3403549002596
 30
0.0
  0
VERTEX
  5
23C
  8
1
  6
CONTINUOUS
 62
     7
 10
-248.5552550686988
 20
299.6375267370726
 30
0.0
  0
VERTEX
  5
23D
  8
1
  6
CONTINUOUS
 62
     7
 10
-248.5654137293771
 20
299.9222391731908
 30
0.0
  0
VERTEX
  5
23E
  8
1
  6
CONTINUOUS
 62
     7
 10
-248.5755723900553
 20
300.1941815019575
 30
0.0
  0
VERTEX
  5
23F
  8
1
  6
CONTINUOUS
 62
     7
 10
-248.5857310507335
 20
300.4530430167164
 30
0.0
  0
VERTEX
  5
240
  8
1
  6
CONTINUOUS
 62
     7
 10
-248.5958897114117
 20
300.6985130108109
 30
0.0
  0
VERTEX
  5
241
  8
1
  6
CONTINUOUS
 62
     7
 10
-248.6060483720899
 20
300.9302837279757
 30
0.0
  0
VERTEX
  5
242
  8
1
  6
CONTINUOUS
 62
     7
 10
-248.6162070327681
 20
301.1481200717148
 30
0.0
  0
VERTEX
  5
243
  8
1
  6
CONTINUOUS
 62
     7
 10
-248.6263656934463
 20
301.3518623769162
 30
0.0
  0
VERTEX
  5
244
  8
1
  6
CONTINUOUS
 62
     7
 10
-248.6365243541245
 20
301.5413544834252
 30
0.0
  0
VERTEX
  5
245
  8
1
  6
CONTINUOUS
 62
     7
 10
-248.6466830148027
 20
301.7164402310871
 30
0.0
  0
VERTEX
  5
246
  8
1
  6
CONTINUOUS
 62
     7
 10
-248.6568416754809
 20
301.8769634597476
 30
0.0
  0
VERTEX
  5
247
  8
1
  6
CONTINUOUS
 62
     7
 10
-248.6670003361591
 20
302.0227680092519
 30
0.0
  0
VERTEX
  5
248
  8
1
  6
CONTINUOUS
 62
     7
 10
-248.6771589968373
 20
302.1536977194456
 30
0.0
  0
VERTEX
  5
249
  8
1
  6
CONTINUOUS
 62
     7
 10
-248.6873176575156
 20
302.269596430174
 30
0.0
  0
VERTEX
  5
24A
  8
1
  6
CONTINUOUS
 62
     7
 10
-248.6974763181937
 20
302.3703079812826
 30
0.0
  0
VERTEX
  5
24B
  8
1
  6
CONTINUOUS
 62
     7
 10
-248.707634978872
 20
302.4556762126168
 30
0.0
  0
VERTEX
  5
24C
  8
1
  6
CONTINUOUS
 62
     7
 10
-248.7177936395501
 20
302.5255471905562
 30
0.0
  0
VERTEX
  5
24D
  8
1
  6
CONTINUOUS
 62
     7
 10
-248.7279523002284
 20
302.5798419279404
 30
0.0
  0
VERTEX
  5
24E
  8
1
  6
CONTINUOUS
 62
     7
 10
-248.7381109609067
 20
302.6185725658385
 30
0.0
  0
VERTEX
  5
24F
  8
1
  6
CONTINUOUS
 62
     7
 10
-248.7482696215848
 20
302.6417567470302
 30
0.0
  0
VERTEX
  5
250
  8
1
  6
CONTINUOUS
 62
     7
 10
-248.758428282263
 20
302.6494121142952
 30
0.0
  0
SEQEND
  5
562
  8
1
  6
CONTINUOUS
 62
     7
  0
POLYLINE
  5
CB
  8
1
  6
CONTINUOUS
 62
     7
 66
     1
 10
0.0
 20
0.0
 30
0.0
  0
VERTEX
  5
251
  8
1
  6
CONTINUOUS
 62
     7
 10
-245.7828548164407
 20
272.0951247781367
 30
0.0
  0
VERTEX
  5
252
  8
1
  6
CONTINUOUS
 62
     7
 10
-245.7930168293894
 20
272.1402926642016
 30
0.0
  0
VERTEX
  5
253
  8
1
  6
CONTINUOUS
 62
     7
 10
-245.8031788423382
 20
272.2010942804096
 30
0.0
  0
VERTEX
  5
254
  8
1
  6
CONTINUOUS
 62
     7
 10
-245.813340855287
 20
272.2774123022361
 30
0.0
  0
VERTEX
  5
255
  8
1
  6
CONTINUOUS
 62
     7
 10
-245.8235028682357
 20
272.3691072888421
 30
0.0
  0
VERTEX
  5
256
  8
1
  6
CONTINUOUS
 62
     7
 10
-245.8336648811845
 20
272.4760397993881
 30
0.0
  0
VERTEX
  5
257
  8
1
  6
CONTINUOUS
 62
     7
 10
-245.8438268941332
 20
272.5980703930349
 30
0.0
  0
VERTEX
  5
258
  8
1
  6
CONTINUOUS
 62
     7
 10
-245.8539889070819
 20
272.7350596289432
 30
0.0
  0
VERTEX
  5
259
  8
1
  6
CONTINUOUS
 62
     7
 10
-245.8641509200307
 20
272.8868680662738
 30
0.0
  0
VERTEX
  5
25A
  8
1
  6
CONTINUOUS
 62
     7
 10
-245.8743129329794
 20
273.0533562641871
 30
0.0
  0
VERTEX
  5
25B
  8
1
  6
CONTINUOUS
 62
     7
 10
-245.8844749459282
 20
273.2343847818441
 30
0.0
  0
VERTEX
  5
25C
  8
1
  6
CONTINUOUS
 62
     7
 10
-245.894636958877
 20
273.4298141784053
 30
0.0
  0
VERTEX
  5
25D
  8
1
  6
CONTINUOUS
 62
     7
 10
-245.9047989718257
 20
273.6395050122616
 30
0.0
  0
VERTEX
  5
25E
  8
1
  6
CONTINUOUS
 62
     7
 10
-245.9149609847744
 20
273.8632890826087
 30
0.0
  0
VERTEX
  5
25F
  8
1
  6
CONTINUOUS
 62
     7
 10
-245.9251229977232
 20
274.1008933063775
 30
0.0
  0
VERTEX
  5
260
  8
1
  6
CONTINUOUS
 62
     7
 10
-245.9352850106719
 20
274.3520206980675
 30
0.0
  0
VERTEX
  5
261
  8
1
  6
CONTINUOUS
 62
     7
 10
-245.9454470236206
 20
274.6163742721787
 30
0.0
  0
VERTEX
  5
262
  8
1
  6
CONTINUOUS
 62
     7
 10
-245.9556090365694
 20
274.893657043211
 30
0.0
  0
VERTEX
  5
263
  8
1
  6
CONTINUOUS
 62
     7
 10
-245.9657710495182
 20
275.1835720256638
 30
0.0
  0
VERTEX
  5
264
  8
1
  6
CONTINUOUS
 62
     7
 10
-245.9759330624669
 20
275.4858222340372
 30
0.0
  0
VERTEX
  5
265
  8
1
  6
CONTINUOUS
 62
     7
 10
-245.9860950754156
 20
275.8001106828309
 30
0.0
  0
VERTEX
  5
266
  8
1
  6
CONTINUOUS
 62
     7
 10
-245.9962570883644
 20
276.1261403865447
 30
0.0
  0
VERTEX
  5
267
  8
1
  6
CONTINUOUS
 62
     7
 10
-246.0064191013132
 20
276.4636143596785
 30
0.0
  0
VERTEX
  5
268
  8
1
  6
CONTINUOUS
 62
     7
 10
-246.0165811142619
 20
276.8122356167319
 30
0.0
  0
VERTEX
  5
269
  8
1
  6
CONTINUOUS
 62
     7
 10
-246.0267431272107
 20
277.1716885488924
 30
0.0
  0
VERTEX
  5
26A
  8
1
  6
CONTINUOUS
 62
     7
 10
-246.0369051401594
 20
277.5415770127458
 30
0.0
  0
VERTEX
  5
26B
  8
1
  6
CONTINUOUS
 62
     7
 10
-246.0470671531081
 20
277.921483100382
 30
0.0
  0
VERTEX
  5
26C
  8
1
  6
CONTINUOUS
 62
     7
 10
-246.0572291660569
 20
278.3109889035378
 30
0.0
  0
VERTEX
  5
26D
  8
1
  6
CONTINUOUS
 62
     7
 10
-246.0673911790057
 20
278.7096765139497
 30
0.0
  0
VERTEX
  5
26E
  8
1
  6
CONTINUOUS
 62
     7
 10
-246.0775531919544
 20
279.117128023354
 30
0.0
  0
VERTEX
  5
26F
  8
1
  6
CONTINUOUS
 62
     7
 10
-246.0877152049031
 20
279.5329255234877
 30
0.0
  0
VERTEX
  5
270
  8
1
  6
CONTINUOUS
 62
     7
 10
-246.0978772178518
 20
279.956651106087
 30
0.0
  0
VERTEX
  5
271
  8
1
  6
CONTINUOUS
 62
     7
 10
-246.1080392308006
 20
280.3878868628886
 30
0.0
  0
VERTEX
  5
272
  8
1
  6
CONTINUOUS
 62
     7
 10
-246.1182012437494
 20
280.826214885629
 30
0.0
  0
VERTEX
  5
273
  8
1
  6
CONTINUOUS
 62
     7
 10
-246.1283632566981
 20
281.2712172660449
 30
0.0
  0
VERTEX
  5
274
  8
1
  6
CONTINUOUS
 62
     7
 10
-246.1385252696469
 20
281.7224671724519
 30
0.0
  0
VERTEX
  5
275
  8
1
  6
CONTINUOUS
 62
     7
 10
-246.1486872825956
 20
282.1794919694733
 30
0.0
  0
VERTEX
  5
276
  8
1
  6
CONTINUOUS
 62
     7
 10
-246.1588492955443
 20
282.6418043657824
 30
0.0
  0
VERTEX
  5
277
  8
1
  6
CONTINUOUS
 62
     7
 10
-246.1690113084931
 20
283.1089170634867
 30
0.0
  0
VERTEX
  5
278
  8
1
  6
CONTINUOUS
 62
     7
 10
-246.1791733214419
 20
283.5803427646939
 30
0.0
  0
VERTEX
  5
279
  8
1
  6
CONTINUOUS
 62
     7
 10
-246.1893353343906
 20
284.0555941715115
 30
0.0
  0
VERTEX
  5
27A
  8
1
  6
CONTINUOUS
 62
     7
 10
-246.1994973473394
 20
284.5341839860471
 30
0.0
  0
VERTEX
  5
27B
  8
1
  6
CONTINUOUS
 62
     7
 10
-246.2096593602881
 20
285.0156249104084
 30
0.0
  0
VERTEX
  5
27C
  8
1
  6
CONTINUOUS
 62
     7
 10
-246.2198213732368
 20
285.4994296467028
 30
0.0
  0
VERTEX
  5
27D
  8
1
  6
CONTINUOUS
 62
     7
 10
-246.2299833861856
 20
285.9851108970381
 30
0.0
  0
VERTEX
  5
27E
  8
1
  6
CONTINUOUS
 62
     7
 10
-246.2401453991343
 20
286.4721813635216
 30
0.0
  0
VERTEX
  5
27F
  8
1
  6
CONTINUOUS
 62
     7
 10
-246.2503074120831
 20
286.9601527610866
 30
0.0
  0
VERTEX
  5
280
  8
1
  6
CONTINUOUS
 62
     7
 10
-246.2604694250318
 20
287.4485307733638
 30
0.0
  0
VERTEX
  5
281
  8
1
  6
CONTINUOUS
 62
     7
 10
-246.2706314379806
 20
287.9368188067639
 30
0.0
  0
VERTEX
  5
282
  8
1
  6
CONTINUOUS
 62
     7
 10
-246.2807934509293
 20
288.4245202634789
 30
0.0
  0
VERTEX
  5
283
  8
1
  6
CONTINUOUS
 62
     7
 10
-246.290955463878
 20
288.9111385457006
 30
0.0
  0
VERTEX
  5
284
  8
1
  6
CONTINUOUS
 62
     7
 10
-246.3011174768268
 20
289.396177055621
 30
0.0
  0
VERTEX
  5
285
  8
1
  6
CONTINUOUS
 62
     7
 10
-246.3112794897756
 20
289.8791391954318
 30
0.0
  0
VERTEX
  5
286
  8
1
  6
CONTINUOUS
 62
     7
 10
-246.3214415027243
 20
290.359528367325
 30
0.0
  0
VERTEX
  5
287
  8
1
  6
CONTINUOUS
 62
     7
 10
-246.3316035156731
 20
290.8368479734924
 30
0.0
  0
VERTEX
  5
288
  8
1
  6
CONTINUOUS
 62
     7
 10
-246.3417655286218
 20
291.3106014161258
 30
0.0
  0
VERTEX
  5
289
  8
1
  6
CONTINUOUS
 62
     7
 10
-246.3519275415705
 20
291.7802920974174
 30
0.0
  0
VERTEX
  5
28A
  8
1
  6
CONTINUOUS
 62
     7
 10
-246.3620895545193
 20
292.2454279108542
 30
0.0
  0
VERTEX
  5
28B
  8
1
  6
CONTINUOUS
 62
     7
 10
-246.372251567468
 20
292.7055495669431
 30
0.0
  0
VERTEX
  5
28C
  8
1
  6
CONTINUOUS
 62
     7
 10
-246.3824135804168
 20
293.1602123388457
 30
0.0
  0
VERTEX
  5
28D
  8
1
  6
CONTINUOUS
 62
     7
 10
-246.3925755933655
 20
293.6089715653432
 30
0.0
  0
VERTEX
  5
28E
  8
1
  6
CONTINUOUS
 62
     7
 10
-246.4027376063142
 20
294.051382585217
 30
0.0
  0
VERTEX
  5
28F
  8
1
  6
CONTINUOUS
 62
     7
 10
-246.412899619263
 20
294.4870007372482
 30
0.0
  0
VERTEX
  5
290
  8
1
  6
CONTINUOUS
 62
     7
 10
-246.4230616322118
 20
294.9153813602183
 30
0.0
  0
VERTEX
  5
291
  8
1
  6
CONTINUOUS
 62
     7
 10
-246.4332236451605
 20
295.3360797929087
 30
0.0
  0
VERTEX
  5
292
  8
1
  6
CONTINUOUS
 62
     7
 10
-246.4433856581092
 20
295.7486513741004
 30
0.0
  0
VERTEX
  5
293
  8
1
  6
CONTINUOUS
 62
     7
 10
-246.453547671058
 20
296.1526514425751
 30
0.0
  0
VERTEX
  5
294
  8
1
  6
CONTINUOUS
 62
     7
 10
-246.4637096840068
 20
296.5476353371137
 30
0.0
  0
VERTEX
  5
295
  8
1
  6
CONTINUOUS
 62
     7
 10
-246.4738716969555
 20
296.9331658060943
 30
0.0
  0
VERTEX
  5
296
  8
1
  6
CONTINUOUS
 62
     7
 10
-246.4840337099042
 20
297.3088707958389
 30
0.0
  0
VERTEX
  5
297
  8
1
  6
CONTINUOUS
 62
     7
 10
-246.494195722853
 20
297.6744121247391
 30
0.0
  0
VERTEX
  5
298
  8
1
  6
CONTINUOUS
 62
     7
 10
-246.5043577358017
 20
298.0294519002624
 30
0.0
  0
VERTEX
  5
299
  8
1
  6
CONTINUOUS
 62
     7
 10
-246.5145197487504
 20
298.3736522298763
 30
0.0
  0
VERTEX
  5
29A
  8
1
  6
CONTINUOUS
 62
     7
 10
-246.5246817616992
 20
298.7066752210479
 30
0.0
  0
VERTEX
  5
29B
  8
1
  6
CONTINUOUS
 62
     7
 10
-246.534843774648
 20
299.0281829812449
 30
0.0
  0
VERTEX
  5
29C
  8
1
  6
CONTINUOUS
 62
     7
 10
-246.5450057875967
 20
299.3378376179344
 30
0.0
  0
VERTEX
  5
29D
  8
1
  6
CONTINUOUS
 62
     7
 10
-246.5551678005454
 20
299.6353012385841
 30
0.0
  0
VERTEX
  5
29E
  8
1
  6
CONTINUOUS
 62
     7
 10
-246.5653298134942
 20
299.920235950661
 30
0.0
  0
VERTEX
  5
29F
  8
1
  6
CONTINUOUS
 62
     7
 10
-246.575491826443
 20
300.1923038616328
 30
0.0
  0
VERTEX
  5
2A0
  8
1
  6
CONTINUOUS
 62
     7
 10
-246.5856538393917
 20
300.4511752030376
 30
0.0
  0
VERTEX
  5
2A1
  8
1
  6
CONTINUOUS
 62
     7
 10
-246.5958158523405
 20
300.6966071035155
 30
0.0
  0
VERTEX
  5
2A2
  8
1
  6
CONTINUOUS
 62
     7
 10
-246.6059778652892
 20
300.928409367846
 30
0.0
  0
VERTEX
  5
2A3
  8
1
  6
CONTINUOUS
 62
     7
 10
-246.616139878238
 20
301.1463925384115
 30
0.0
  0
VERTEX
  5
2A4
  8
1
  6
CONTINUOUS
 62
     7
 10
-246.6263018911867
 20
301.3503671575937
 30
0.0
  0
VERTEX
  5
2A5
  8
1
  6
CONTINUOUS
 62
     7
 10
-246.6364639041354
 20
301.540143767775
 30
0.0
  0
VERTEX
  5
2A6
  8
1
  6
CONTINUOUS
 62
     7
 10
-246.6466259170842
 20
301.7155329113373
 30
0.0
  0
VERTEX
  5
2A7
  8
1
  6
CONTINUOUS
 62
     7
 10
-246.6567879300329
 20
301.8763451306627
 30
0.0
  0
VERTEX
  5
2A8
  8
1
  6
CONTINUOUS
 62
     7
 10
-246.6669499429817
 20
302.0223909681334
 30
0.0
  0
VERTEX
  5
2A9
  8
1
  6
CONTINUOUS
 62
     7
 10
-246.6771119559305
 20
302.1534809661314
 30
0.0
  0
VERTEX
  5
2AA
  8
1
  6
CONTINUOUS
 62
     7
 10
-246.6872739688792
 20
302.2694256670387
 30
0.0
  0
VERTEX
  5
2AB
  8
1
  6
CONTINUOUS
 62
     7
 10
-246.697435981828
 20
302.3700428788729
 30
0.0
  0
VERTEX
  5
2AC
  8
1
  6
CONTINUOUS
 62
     7
 10
-246.7075979947766
 20
302.4552460567984
 30
0.0
  0
VERTEX
  5
2AD
  8
1
  6
CONTINUOUS
 62
     7
 10
-246.7177600077254
 20
302.5250161262844
 30
0.0
  0
VERTEX
  5
2AE
  8
1
  6
CONTINUOUS
 62
     7
 10
-246.7279220206742
 20
302.579335427039
 30
0.0
  0
VERTEX
  5
2AF
  8
1
  6
CONTINUOUS
 62
     7
 10
-246.738084033623
 20
302.6181862987707
 30
0.0
  0
VERTEX
  5
2B0
  8
1
  6
CONTINUOUS
 62
     7
 10
-246.7482460465717
 20
302.6415510811879
 30
0.0
  0
VERTEX
  5
2B1
  8
1
  6
CONTINUOUS
 62
     7
 10
-246.7584080595204
 20
302.649412113999
 30
0.0
  0
SEQEND
  5
563
  8
1
  6
CONTINUOUS
 62
     7
  0
POLYLINE
  5
CC
  8
1
  6
CONTINUOUS
 62
     7
 66
     1
 10
0.0
 20
0.0
 30
0.0
  0
VERTEX
  5
2B2
  8
1
  6
CONTINUOUS
 62
     7
 10
-243.7831465595445
 20
272.0962550219733
 30
0.0
  0
VERTEX
  5
2B3
  8
1
  6
CONTINUOUS
 62
     7
 10
-243.7942279995547
 20
272.1470054341443
 30
0.0
  0
VERTEX
  5
2B4
  8
1
  6
CONTINUOUS
 62
     7
 10
-243.8053094395648
 20
272.2161781656511
 30
0.0
  0
VERTEX
  5
2B5
  8
1
  6
CONTINUOUS
 62
     7
 10
-243.816390879575
 20
272.3036368095275
 30
0.0
  0
VERTEX
  5
2B6
  8
1
  6
CONTINUOUS
 62
     7
 10
-243.8274723195851
 20
272.4092449588071
 30
0.0
  0
VERTEX
  5
2B7
  8
1
  6
CONTINUOUS
 62
     7
 10
-243.8385537595953
 20
272.5328662065235
 30
0.0
  0
VERTEX
  5
2B8
  8
1
  6
CONTINUOUS
 62
     7
 10
-243.8496351996054
 20
272.6743641457101
 30
0.0
  0
VERTEX
  5
2B9
  8
1
  6
CONTINUOUS
 62
     7
 10
-243.8607166396155
 20
272.8336023694007
 30
0.0
  0
VERTEX
  5
2BA
  8
1
  6
CONTINUOUS
 62
     7
 10
-243.8717980796257
 20
273.0104444706288
 30
0.0
  0
VERTEX
  5
2BB
  8
1
  6
CONTINUOUS
 62
     7
 10
-243.8828795196359
 20
273.2047540256617
 30
0.0
  0
VERTEX
  5
2BC
  8
1
  6
CONTINUOUS
 62
     7
 10
-243.8939609596461
 20
273.4163506274029
 30
0.0
  0
VERTEX
  5
2BD
  8
1
  6
CONTINUOUS
 62
     7
 10
-243.9050423996561
 20
273.6449145036093
 30
0.0
  0
VERTEX
  5
2BE
  8
1
  6
CONTINUOUS
 62
     7
 10
-243.9161238396663
 20
273.8900983437486
 30
0.0
  0
VERTEX
  5
2BF
  8
1
  6
CONTINUOUS
 62
     7
 10
-243.9272052796764
 20
274.1515548372888
 30
0.0
  0
VERTEX
  5
2C0
  8
1
  6
CONTINUOUS
 62
     7
 10
-243.9382867196866
 20
274.4289366736978
 30
0.0
  0
VERTEX
  5
2C1
  8
1
  6
CONTINUOUS
 62
     7
 10
-243.9493681596967
 20
274.7218965424433
 30
0.0
  0
VERTEX
  5
2C2
  8
1
  6
CONTINUOUS
 62
     7
 10
-243.9604495997069
 20
275.0300871329935
 30
0.0
  0
VERTEX
  5
2C3
  8
1
  6
CONTINUOUS
 62
     7
 10
-243.9715310397171
 20
275.3531611348162
 30
0.0
  0
VERTEX
  5
2C4
  8
1
  6
CONTINUOUS
 62
     7
 10
-243.9826124797272
 20
275.6907712373793
 30
0.0
  0
VERTEX
  5
2C5
  8
1
  6
CONTINUOUS
 62
     7
 10
-243.9936939197374
 20
276.0425701301506
 30
0.0
  0
VERTEX
  5
2C6
  8
1
  6
CONTINUOUS
 62
     7
 10
-244.0047753597475
 20
276.4081873323054
 30
0.0
  0
VERTEX
  5
2C7
  8
1
  6
CONTINUOUS
 62
     7
 10
-244.0158567997576
 20
276.7871409245943
 30
0.0
  0
VERTEX
  5
2C8
  8
1
  6
CONTINUOUS
 62
     7
 10
-244.0269382397678
 20
277.1789155268982
 30
0.0
  0
VERTEX
  5
2C9
  8
1
  6
CONTINUOUS
 62
     7
 10
-244.0380196797779
 20
277.5829957526443
 30
0.0
  0
VERTEX
  5
2CA
  8
1
  6
CONTINUOUS
 62
     7
 10
-244.0491011197881
 20
277.9988662152601
 30
0.0
  0
VERTEX
  5
2CB
  8
1
  6
CONTINUOUS
 62
     7
 10
-244.0601825597982
 20
278.4260115281727
 30
0.0
  0
VERTEX
  5
2CC
  8
1
  6
CONTINUOUS
 62
     7
 10
-244.0712639998083
 20
278.8639163048097
 30
0.0
  0
VERTEX
  5
2CD
  8
1
  6
CONTINUOUS
 62
     7
 10
-244.0823454398185
 20
279.3120651585984
 30
0.0
  0
VERTEX
  5
2CE
  8
1
  6
CONTINUOUS
 62
     7
 10
-244.0934268798287
 20
279.7699427029661
 30
0.0
  0
VERTEX
  5
2CF
  8
1
  6
CONTINUOUS
 62
     7
 10
-244.1045083198388
 20
280.2370335513401
 30
0.0
  0
VERTEX
  5
2D0
  8
1
  6
CONTINUOUS
 62
     7
 10
-244.115589759849
 20
280.7128134225576
 30
0.0
  0
VERTEX
  5
2D1
  8
1
  6
CONTINUOUS
 62
     7
 10
-244.1266711998591
 20
281.1966921427932
 30
0.0
  0
VERTEX
  5
2D2
  8
1
  6
CONTINUOUS
 62
     7
 10
-244.1377526398693
 20
281.6880499437489
 30
0.0
  0
VERTEX
  5
2D3
  8
1
  6
CONTINUOUS
 62
     7
 10
-244.1488340798794
 20
282.1862669162141
 30
0.0
  0
VERTEX
  5
2D4
  8
1
  6
CONTINUOUS
 62
     7
 10
-244.1599155198896
 20
282.6907231509782
 30
0.0
  0
VERTEX
  5
2D5
  8
1
  6
CONTINUOUS
 62
     7
 10
-244.1709969598997
 20
283.2007987388305
 30
0.0
  0
VERTEX
  5
2D6
  8
1
  6
CONTINUOUS
 62
     7
 10
-244.1820783999099
 20
283.7158737705603
 30
0.0
  0
VERTEX
  5
2D7
  8
1
  6
CONTINUOUS
 62
     7
 10
-244.19315983992
 20
284.2353283369571
 30
0.0
  0
VERTEX
  5
2D8
  8
1
  6
CONTINUOUS
 62
     7
 10
-244.2042412799302
 20
284.7585425288103
 30
0.0
  0
VERTEX
  5
2D9
  8
1
  6
CONTINUOUS
 62
     7
 10
-244.2153227199403
 20
285.284896436909
 30
0.0
  0
VERTEX
  5
2DA
  8
1
  6
CONTINUOUS
 62
     7
 10
-244.2264041599504
 20
285.8137688076103
 30
0.0
  0
VERTEX
  5
2DB
  8
1
  6
CONTINUOUS
 62
     7
 10
-244.2374855999606
 20
286.3445223637692
 30
0.0
  0
VERTEX
  5
2DC
  8
1
  6
CONTINUOUS
 62
     7
 10
-244.2485670399707
 20
286.8765093000504
 30
0.0
  0
VERTEX
  5
2DD
  8
1
  6
CONTINUOUS
 62
     7
 10
-244.2596484799809
 20
287.4090816268903
 30
0.0
  0
VERTEX
  5
2DE
  8
1
  6
CONTINUOUS
 62
     7
 10
-244.2707299199911
 20
287.9415913547252
 30
0.0
  0
VERTEX
  5
2DF
  8
1
  6
CONTINUOUS
 62
     7
 10
-244.2818113600012
 20
288.4733904939919
 30
0.0
  0
VERTEX
  5
2E0
  8
1
  6
CONTINUOUS
 62
     7
 10
-244.2928928000113
 20
289.0038310551267
 30
0.0
  0
VERTEX
  5
2E1
  8
1
  6
CONTINUOUS
 62
     7
 10
-244.3039742400215
 20
289.5322650485659
 30
0.0
  0
VERTEX
  5
2E2
  8
1
  6
CONTINUOUS
 62
     7
 10
-244.3150556800317
 20
290.0580444847463
 30
0.0
  0
VERTEX
  5
2E3
  8
1
  6
CONTINUOUS
 62
     7
 10
-244.3261371200418
 20
290.5805213741042
 30
0.0
  0
VERTEX
  5
2E4
  8
1
  6
CONTINUOUS
 62
     7
 10
-244.337218560052
 20
291.0990489443012
 30
0.0
  0
VERTEX
  5
2E5
  8
1
  6
CONTINUOUS
 62
     7
 10
-244.3483000000621
 20
291.6130059104402
 30
0.0
  0
VERTEX
  5
2E6
  8
1
  6
CONTINUOUS
 62
     7
 10
-244.3593814400722
 20
292.1217951546368
 30
0.0
  0
VERTEX
  5
2E7
  8
1
  6
CONTINUOUS
 62
     7
 10
-244.3704628800824
 20
292.6248205119126
 30
0.0
  0
VERTEX
  5
2E8
  8
1
  6
CONTINUOUS
 62
     7
 10
-244.3815443200925
 20
293.1214858172889
 30
0.0
  0
VERTEX
  5
2E9
  8
1
  6
CONTINUOUS
 62
     7
 10
-244.3926257601027
 20
293.6111949057872
 30
0.0
  0
VERTEX
  5
2EA
  8
1
  6
CONTINUOUS
 62
     7
 10
-244.4037072001128
 20
294.0933516124285
 30
0.0
  0
VERTEX
  5
2EB
  8
1
  6
CONTINUOUS
 62
     7
 10
-244.414788640123
 20
294.5673597722345
 30
0.0
  0
VERTEX
  5
2EC
  8
1
  6
CONTINUOUS
 62
     7
 10
-244.4258700801332
 20
295.0326232202264
 30
0.0
  0
VERTEX
  5
2ED
  8
1
  6
CONTINUOUS
 62
     7
 10
-244.4369515201433
 20
295.4885457914254
 30
0.0
  0
VERTEX
  5
2EE
  8
1
  6
CONTINUOUS
 62
     7
 10
-244.4480329601534
 20
295.9345324757734
 30
0.0
  0
VERTEX
  5
2EF
  8
1
  6
CONTINUOUS
 62
     7
 10
-244.4591144001636
 20
296.3700386574104
 30
0.0
  0
VERTEX
  5
2F0
  8
1
  6
CONTINUOUS
 62
     7
 10
-244.4701958401738
 20
296.7945885545971
 30
0.0
  0
VERTEX
  5
2F1
  8
1
  6
CONTINUOUS
 62
     7
 10
-244.4812772801839
 20
297.2077113412783
 30
0.0
  0
VERTEX
  5
2F2
  8
1
  6
CONTINUOUS
 62
     7
 10
-244.4923587201941
 20
297.6089361913995
 30
0.0
  0
VERTEX
  5
2F3
  8
1
  6
CONTINUOUS
 62
     7
 10
-244.5034401602042
 20
297.9977922789057
 30
0.0
  0
VERTEX
  5
2F4
  8
1
  6
CONTINUOUS
 62
     7
 10
-244.5145216002143
 20
298.3738087777419
 30
0.0
  0
VERTEX
  5
2F5
  8
1
  6
CONTINUOUS
 62
     7
 10
-244.5256030402244
 20
298.7365148618535
 30
0.0
  0
VERTEX
  5
2F6
  8
1
  6
CONTINUOUS
 62
     7
 10
-244.5366844802346
 20
299.0854397051855
 30
0.0
  0
VERTEX
  5
2F7
  8
1
  6
CONTINUOUS
 62
     7
 10
-244.5477659202448
 20
299.420112481683
 30
0.0
  0
VERTEX
  5
2F8
  8
1
  6
CONTINUOUS
 62
     7
 10
-244.5588473602549
 20
299.7400627959078
 30
0.0
  0
VERTEX
  5
2F9
  8
1
  6
CONTINUOUS
 62
     7
 10
-244.569928800265
 20
300.0448770225867
 30
0.0
  0
VERTEX
  5
2FA
  8
1
  6
CONTINUOUS
 62
     7
 10
-244.5810102402752
 20
300.334254395521
 30
0.0
  0
VERTEX
  5
2FB
  8
1
  6
CONTINUOUS
 62
     7
 10
-244.5920916802854
 20
300.6079074861162
 30
0.0
  0
VERTEX
  5
2FC
  8
1
  6
CONTINUOUS
 62
     7
 10
-244.6031731202955
 20
300.8655488657784
 30
0.0
  0
VERTEX
  5
2FD
  8
1
  6
CONTINUOUS
 62
     7
 10
-244.6142545603056
 20
301.1068911059133
 30
0.0
  0
VERTEX
  5
2FE
  8
1
  6
CONTINUOUS
 62
     7
 10
-244.6253360003158
 20
301.3316467779269
 30
0.0
  0
VERTEX
  5
2FF
  8
1
  6
CONTINUOUS
 62
     7
 10
-244.6364174403259
 20
301.539528453225
 30
0.0
  0
VERTEX
  5
300
  8
1
  6
CONTINUOUS
 62
     7
 10
-244.6474988803361
 20
301.7302487032135
 30
0.0
  0
VERTEX
  5
301
  8
1
  6
CONTINUOUS
 62
     7
 10
-244.6585803203462
 20
301.9035200992983
 30
0.0
  0
VERTEX
  5
302
  8
1
  6
CONTINUOUS
 62
     7
 10
-244.6696617603563
 20
302.0590552516848
 30
0.0
  0
VERTEX
  5
303
  8
1
  6
CONTINUOUS
 62
     7
 10
-244.6807432003665
 20
302.1966154377761
 30
0.0
  0
VERTEX
  5
304
  8
1
  6
CONTINUOUS
 62
     7
 10
-244.6918246403766
 20
302.3161056648025
 30
0.0
  0
VERTEX
  5
305
  8
1
  6
CONTINUOUS
 62
     7
 10
-244.7029060803868
 20
302.4174573450467
 30
0.0
  0
VERTEX
  5
306
  8
1
  6
CONTINUOUS
 62
     7
 10
-244.7139875203969
 20
302.5006018907906
 30
0.0
  0
VERTEX
  5
307
  8
1
  6
CONTINUOUS
 62
     7
 10
-244.7250689604071
 20
302.565470714317
 30
0.0
  0
VERTEX
  5
308
  8
1
  6
CONTINUOUS
 62
     7
 10
-244.7361504004173
 20
302.6119952279079
 30
0.0
  0
VERTEX
  5
309
  8
1
  6
CONTINUOUS
 62
     7
 10
-244.7472318404274
 20
302.6401068438457
 30
0.0
  0
VERTEX
  5
30A
  8
1
  6
CONTINUOUS
 62
     7
 10
-244.7583132804376
 20
302.6497369744128
 30
0.0
  0
SEQEND
  5
564
  8
1
  6
CONTINUOUS
 62
     7
  0
LINE
  5
CD
  8
1
  6
CONTINUOUS
 62
     7
 10
-243.0263673761318
 20
301.65
 30
0.0
 11
-242.7584181837007
 21
302.65
 31
0.0
  0
LINE
  5
CE
  8
1
  6
CONTINUOUS
 62
     7
 10
-244.1499628797856
 20
274.1145048839959
 30
0.0
 11
-244.052781452185
 21
273.0992069643988
 31
0.0
  0
LINE
  5
CF
  8
1
  6
CONTINUOUS
 62
     7
 10
-244.2623224332177
 20
276.802198227978
 30
0.0
 11
-244.1499628797856
 21
274.1145048839959
 31
0.0
  0
LINE
  5
D0
  8
1
  6
CONTINUOUS
 62
     7
 10
-244.3746819825391
 20
280.7905627752386
 30
0.0
 11
-244.2623224332177
 21
276.802198227978
 31
0.0
  0
LINE
  5
D1
  8
1
  6
CONTINUOUS
 62
     7
 10
-244.4870415335298
 20
285.5877851808399
 30
0.0
 11
-244.3746819825391
 21
280.7905627752386
 31
0.0
  0
LINE
  5
D2
  8
1
  6
CONTINUOUS
 62
     7
 10
-244.5994010839696
 20
290.6023099263221
 30
0.0
 11
-244.4870415335298
 21
285.5877851808399
 31
0.0
  0
LINE
  5
D3
  8
1
  6
CONTINUOUS
 62
     7
 10
-244.7117606345635
 20
295.215785599549
 30
0.0
 11
-244.5994010839696
 21
290.6023099263221
 31
0.0
  0
LINE
  5
D4
  8
1
  6
CONTINUOUS
 62
     7
 10
-244.8241201851183
 20
298.8593149434939
 30
0.0
 11
-244.7117606345635
 21
295.215785599549
 31
0.0
  0
LINE
  5
D5
  8
1
  6
CONTINUOUS
 62
     7
 10
-244.9364797356814
 20
301.0836068037592
 30
0.0
 11
-244.8241201851183
 21
298.8593149434939
 31
0.0
  0
LINE
  5
D6
  8
1
  6
CONTINUOUS
 62
     7
 10
-246.172434791861
 20
274.5293739114396
 30
0.0
 11
-246.0600752412993
 21
273.1301053908574
 31
0.0
  0
LINE
  5
D7
  8
1
  6
CONTINUOUS
 62
     7
 10
-246.2847943424229
 20
277.509580411564
 30
0.0
 11
-246.172434791861
 21
274.5293739114396
 31
0.0
  0
LINE
  5
D8
  8
1
  6
CONTINUOUS
 62
     7
 10
-246.3971538929846
 20
281.7032294498706
 30
0.0
 11
-246.2847943424229
 21
277.509580411564
 31
0.0
  0
LINE
  5
D9
  8
1
  6
CONTINUOUS
 62
     7
 10
-246.5095134435465
 20
286.5931934702086
 30
0.0
 11
-246.3971538929846
 21
281.7032294498706
 31
0.0
  0
LINE
  5
DA
  8
1
  6
CONTINUOUS
 62
     7
 10
-246.6218729941082
 20
291.5764808725569
 30
0.0
 11
-246.5095134435465
 21
286.5931934702086
 31
0.0
  0
LINE
  5
DB
  8
1
  6
CONTINUOUS
 62
     7
 10
-246.73423254467
 20
296.0385921572162
 30
0.0
 11
-246.6218729941082
 21
291.5764808725569
 31
0.0
  0
LINE
  5
DC
  8
1
  6
CONTINUOUS
 62
     7
 10
-246.8465920952318
 20
299.4292951319164
 30
0.0
 11
-246.73423254467
 21
296.0385921572162
 31
0.0
  0
LINE
  5
DD
  8
1
  6
CONTINUOUS
 62
     7
 10
-246.9589516457936
 20
301.3304751840857
 30
0.0
 11
-246.8465920952318
 21
299.4292951319164
 31
0.0
  0
LINE
  5
DE
  8
1
  6
CONTINUOUS
 62
     7
 10
-248.0825471514116
 20
273.2721456118638
 30
0.0
 11
-248.0527881148305
 21
273.0992317770736
 31
0.0
  0
LINE
  5
DF
  8
1
  6
CONTINUOUS
 62
     7
 10
-248.1949067019735
 20
275.0081146197721
 30
0.0
 11
-248.0825471514116
 21
273.2721456118638
 31
0.0
  0
LINE
  5
E0
  8
1
  6
CONTINUOUS
 62
     7
 10
-248.3072662525352
 20
278.2659870980692
 30
0.0
 11
-248.1949067019735
 21
275.0081146197721
 31
0.0
  0
LINE
  5
E1
  8
1
  6
CONTINUOUS
 62
     7
 10
-248.419625803097
 20
282.644028038043
 30
0.0
 11
-248.3072662525352
 21
278.2659870980692
 31
0.0
  0
LINE
  5
E2
  8
1
  6
CONTINUOUS
 62
     7
 10
-248.7567044547825
 20
296.8181125860238
 30
0.0
 11
-248.6443449042206
 21
292.5295957025357
 31
0.0
  0
LINE
  5
E3
  8
1
  6
CONTINUOUS
 62
     7
 10
-248.8690640053441
 20
299.9390968795678
 30
0.0
 11
-248.7567044547825
 21
296.8181125860238
 31
0.0
  0
LINE
  5
E4
  8
1
  6
CONTINUOUS
 62
     7
 10
-248.981423555906
 20
301.5076935402849
 30
0.0
 11
-248.8690640053441
 21
299.9390968795678
 31
0.0
  0
LINE
  5
E5
  8
1
  6
CONTINUOUS
 62
     7
 10
-250.105019061524
 20
273.4843209952954
 30
0.0
 11
-250.052710638597
 21
273.0989436299709
 31
0.0
  0
LINE
  5
E6
  8
1
  6
CONTINUOUS
 62
     7
 10
-250.2173786120858
 20
275.5483419802545
 30
0.0
 11
-250.105019061524
 21
273.4843209952954
 31
0.0
  0
LINE
  5
E7
  8
1
  6
CONTINUOUS
 62
     7
 10
-250.3297381626476
 20
279.0676498799172
 30
0.0
 11
-250.2173786120858
 21
275.5483419802545
 31
0.0
  0
LINE
  5
E8
  8
1
  6
CONTINUOUS
 62
     7
 10
-250.3423927799163
 20
279.5375157505775
 30
0.0
 11
-250.3297381626476
 21
279.0676498799172
 31
0.0
  0
POLYLINE
  5
E9
  8
1
  6
CONTINUOUS
 62
     7
 66
     1
 10
0.0
 20
0.0
 30
0.0
  0
VERTEX
  5
30B
  8
1
  6
CONTINUOUS
 62
     7
 10
-244.1017629407812
 20
302.603714723037
 30
0.0
  0
VERTEX
  5
30C
  8
1
  6
CONTINUOUS
 62
     7
 10
-244.0916016447316
 20
302.5581999978708
 30
0.0
  0
VERTEX
  5
30D
  8
1
  6
CONTINUOUS
 62
     7
 10
-244.0814403486819
 20
302.4972682831005
 30
0.0
  0
VERTEX
  5
30E
  8
1
  6
CONTINUOUS
 62
     7
 10
-244.0712790526322
 20
302.4209724603443
 30
0.0
  0
VERTEX
  5
30F
  8
1
  6
CONTINUOUS
 62
     7
 10
-244.0611177565825
 20
302.3293654112206
 30
0.0
  0
VERTEX
  5
310
  8
1
  6
CONTINUOUS
 62
     7
 10
-244.0509564605328
 20
302.2225000173478
 30
0.0
  0
VERTEX
  5
311
  8
1
  6
CONTINUOUS
 62
     7
 10
-244.0407951644831
 20
302.1004291603444
 30
0.0
  0
VERTEX
  5
312
  8
1
  6
CONTINUOUS
 62
     7
 10
-244.0306338684335
 20
301.9632110765325
 30
0.0
  0
VERTEX
  5
313
  8
1
  6
CONTINUOUS
 62
     7
 10
-244.0204725723838
 20
301.8109925173435
 30
0.0
  0
VERTEX
  5
314
  8
1
  6
CONTINUOUS
 62
     7
 10
-244.0103112763341
 20
301.6439929383273
 30
0.0
  0
VERTEX
  5
315
  8
1
  6
CONTINUOUS
 62
     7
 10
-244.0001499802844
 20
301.4624339491069
 30
0.0
  0
VERTEX
  5
316
  8
1
  6
CONTINUOUS
 62
     7
 10
-243.9899886842347
 20
301.2665371593054
 30
0.0
  0
VERTEX
  5
317
  8
1
  6
CONTINUOUS
 62
     7
 10
-243.979827388185
 20
301.0565241785455
 30
0.0
  0
VERTEX
  5
318
  8
1
  6
CONTINUOUS
 62
     7
 10
-243.9696660921354
 20
300.8326166164506
 30
0.0
  0
VERTEX
  5
319
  8
1
  6
CONTINUOUS
 62
     7
 10
-243.9595047960856
 20
300.5950360826434
 30
0.0
  0
VERTEX
  5
31A
  8
1
  6
CONTINUOUS
 62
     7
 10
-243.949343500036
 20
300.3440041867472
 30
0.0
  0
VERTEX
  5
31B
  8
1
  6
CONTINUOUS
 62
     7
 10
-243.9391822039863
 20
300.0797425383848
 30
0.0
  0
VERTEX
  5
31C
  8
1
  6
CONTINUOUS
 62
     7
 10
-243.9290209079366
 20
299.8024727471793
 30
0.0
  0
VERTEX
  5
31D
  8
1
  6
CONTINUOUS
 62
     7
 10
-243.9188596118869
 20
299.5124196927911
 30
0.0
  0
VERTEX
  5
31E
  8
1
  6
CONTINUOUS
 62
     7
 10
-243.9086983158372
 20
299.2098775628425
 30
0.0
  0
VERTEX
  5
31F
  8
1
  6
CONTINUOUS
 62
     7
 10
-243.8985370197876
 20
298.895206723987
 30
0.0
  0
VERTEX
  5
320
  8
1
  6
CONTINUOUS
 62
     7
 10
-243.8883757237379
 20
298.5687701867103
 30
0.0
  0
VERTEX
  5
321
  8
1
  6
CONTINUOUS
 62
     7
 10
-243.8782144276882
 20
298.230930961498
 30
0.0
  0
VERTEX
  5
322
  8
1
  6
CONTINUOUS
 62
     7
 10
-243.8680531316385
 20
297.8820520588358
 30
0.0
  0
VERTEX
  5
323
  8
1
  6
CONTINUOUS
 62
     7
 10
-243.8578918355888
 20
297.5224964892095
 30
0.0
  0
VERTEX
  5
324
  8
1
  6
CONTINUOUS
 62
     7
 10
-243.8477305395391
 20
297.1526272631047
 30
0.0
  0
VERTEX
  5
325
  8
1
  6
CONTINUOUS
 62
     7
 10
-243.8375692434894
 20
296.772807391007
 30
0.0
  0
VERTEX
  5
326
  8
1
  6
CONTINUOUS
 62
     7
 10
-243.8274079474397
 20
296.3833998834023
 30
0.0
  0
VERTEX
  5
327
  8
1
  6
CONTINUOUS
 62
     7
 10
-243.8172466513901
 20
295.9847677507762
 30
0.0
  0
VERTEX
  5
328
  8
1
  6
CONTINUOUS
 62
     7
 10
-243.8070853553404
 20
295.5772755724188
 30
0.0
  0
VERTEX
  5
329
  8
1
  6
CONTINUOUS
 62
     7
 10
-243.7969240592907
 20
295.161331788111
 30
0.0
  0
VERTEX
  5
32A
  8
1
  6
CONTINUOUS
 62
     7
 10
-243.786762763241
 20
294.737393510978
 30
0.0
  0
VERTEX
  5
32B
  8
1
  6
CONTINUOUS
 62
     7
 10
-243.7766014671913
 20
294.3059203887926
 30
0.0
  0
VERTEX
  5
32C
  8
1
  6
CONTINUOUS
 62
     7
 10
-243.7664401711417
 20
293.8673720693276
 30
0.0
  0
VERTEX
  5
32D
  8
1
  6
CONTINUOUS
 62
     7
 10
-243.7562788750919
 20
293.4222082003557
 30
0.0
  0
VERTEX
  5
32E
  8
1
  6
CONTINUOUS
 62
     7
 10
-243.7461175790422
 20
292.9708884296496
 30
0.0
  0
VERTEX
  5
32F
  8
1
  6
CONTINUOUS
 62
     7
 10
-243.7359562829926
 20
292.5138724049823
 30
0.0
  0
VERTEX
  5
330
  8
1
  6
CONTINUOUS
 62
     7
 10
-243.7257949869428
 20
292.0516197741263
 30
0.0
  0
VERTEX
  5
331
  8
1
  6
CONTINUOUS
 62
     7
 10
-243.7156336908932
 20
291.5845901848546
 30
0.0
  0
VERTEX
  5
332
  8
1
  6
CONTINUOUS
 62
     7
 10
-243.7054723948435
 20
291.1132432849398
 30
0.0
  0
VERTEX
  5
333
  8
1
  6
CONTINUOUS
 62
     7
 10
-243.6953110987938
 20
290.6380391564263
 30
0.0
  0
VERTEX
  5
334
  8
1
  6
CONTINUOUS
 62
     7
 10
-243.6851498027441
 20
290.1594545163326
 30
0.0
  0
VERTEX
  5
335
  8
1
  6
CONTINUOUS
 62
     7
 10
-243.6749885066944
 20
289.6779875490919
 30
0.0
  0
VERTEX
  5
336
  8
1
  6
CONTINUOUS
 62
     7
 10
-243.6648272106447
 20
289.1941378596445
 30
0.0
  0
VERTEX
  5
337
  8
1
  6
CONTINUOUS
 62
     7
 10
-243.654665914595
 20
288.708405052931
 30
0.0
  0
VERTEX
  5
338
  8
1
  6
CONTINUOUS
 62
     7
 10
-243.6445046185453
 20
288.2212887338919
 30
0.0
  0
VERTEX
  5
339
  8
1
  6
CONTINUOUS
 62
     7
 10
-243.6343433224956
 20
287.7332885074677
 30
0.0
  0
VERTEX
  5
33A
  8
1
  6
CONTINUOUS
 62
     7
 10
-243.624182026446
 20
287.2449039785989
 30
0.0
  0
VERTEX
  5
33B
  8
1
  6
CONTINUOUS
 62
     7
 10
-243.6140207303963
 20
286.7566347522258
 30
0.0
  0
VERTEX
  5
33C
  8
1
  6
CONTINUOUS
 62
     7
 10
-243.6038594343466
 20
286.2689804332892
 30
0.0
  0
VERTEX
  5
33D
  8
1
  6
CONTINUOUS
 62
     7
 10
-243.5936981382969
 20
285.7824406267295
 30
0.0
  0
VERTEX
  5
33E
  8
1
  6
CONTINUOUS
 62
     7
 10
-243.5835368422472
 20
285.297514789436
 30
0.0
  0
VERTEX
  5
33F
  8
1
  6
CONTINUOUS
 62
     7
 10
-243.5733755461976
 20
284.814694192707
 30
0.0
  0
VERTEX
  5
340
  8
1
  6
CONTINUOUS
 62
     7
 10
-243.5632142501479
 20
284.3344578057557
 30
0.0
  0
VERTEX
  5
341
  8
1
  6
CONTINUOUS
 62
     7
 10
-243.5530529540981
 20
283.8572835833683
 30
0.0
  0
VERTEX
  5
342
  8
1
  6
CONTINUOUS
 62
     7
 10
-243.5428916580485
 20
283.3836494803312
 30
0.0
  0
VERTEX
  5
343
  8
1
  6
CONTINUOUS
 62
     7
 10
-243.5327303619988
 20
282.9140334514304
 30
0.0
  0
VERTEX
  5
344
  8
1
  6
CONTINUOUS
 62
     7
 10
-243.5225690659491
 20
282.4489134514524
 30
0.0
  0
VERTEX
  5
345
  8
1
  6
CONTINUOUS
 62
     7
 10
-243.5124077698994
 20
281.9887674351833
 30
0.0
  0
VERTEX
  5
346
  8
1
  6
CONTINUOUS
 62
     7
 10
-243.5022464738497
 20
281.5340733574093
 30
0.0
  0
VERTEX
  5
347
  8
1
  6
CONTINUOUS
 62
     7
 10
-243.4920851778
 20
281.0853091729168
 30
0.0
  0
VERTEX
  5
348
  8
1
  6
CONTINUOUS
 62
     7
 10
-243.4819238817503
 20
280.642952836492
 30
0.0
  0
VERTEX
  5
349
  8
1
  6
CONTINUOUS
 62
     7
 10
-243.4717625857006
 20
280.2074819843913
 30
0.0
  0
VERTEX
  5
34A
  8
1
  6
CONTINUOUS
 62
     7
 10
-243.461601289651
 20
279.7793468744768
 30
0.0
  0
VERTEX
  5
34B
  8
1
  6
CONTINUOUS
 62
     7
 10
-243.4514399936012
 20
279.3589497359326
 30
0.0
  0
VERTEX
  5
34C
  8
1
  6
CONTINUOUS
 62
     7
 10
-243.4412786975516
 20
278.9466879357988
 30
0.0
  0
VERTEX
  5
34D
  8
1
  6
CONTINUOUS
 62
     7
 10
-243.4311174015019
 20
278.5429588411155
 30
0.0
  0
VERTEX
  5
34E
  8
1
  6
CONTINUOUS
 62
     7
 10
-243.4209561054522
 20
278.148159818923
 30
0.0
  0
VERTEX
  5
34F
  8
1
  6
CONTINUOUS
 62
     7
 10
-243.4107948094025
 20
277.7626882362613
 30
0.0
  0
VERTEX
  5
350
  8
1
  6
CONTINUOUS
 62
     7
 10
-243.4006335133529
 20
277.3869414601706
 30
0.0
  0
VERTEX
  5
351
  8
1
  6
CONTINUOUS
 62
     7
 10
-243.3904722173032
 20
277.0213168576913
 30
0.0
  0
VERTEX
  5
352
  8
1
  6
CONTINUOUS
 62
     7
 10
-243.3803109212535
 20
276.6662117958631
 30
0.0
  0
VERTEX
  5
353
  8
1
  6
CONTINUOUS
 62
     7
 10
-243.3701496252038
 20
276.3220236417266
 30
0.0
  0
VERTEX
  5
354
  8
1
  6
CONTINUOUS
 62
     7
 10
-243.3599883291541
 20
275.989149500548
 30
0.0
  0
VERTEX
  5
355
  8
1
  6
CONTINUOUS
 62
     7
 10
-243.3498270331044
 20
275.6679473625959
 30
0.0
  0
VERTEX
  5
356
  8
1
  6
CONTINUOUS
 62
     7
 10
-243.3396657370548
 20
275.3586948785189
 30
0.0
  0
VERTEX
  5
357
  8
1
  6
CONTINUOUS
 62
     7
 10
-243.3295044410051
 20
275.0616598274453
 30
0.0
  0
VERTEX
  5
358
  8
1
  6
CONTINUOUS
 62
     7
 10
-243.3193431449554
 20
274.7771099885035
 30
0.0
  0
VERTEX
  5
359
  8
1
  6
CONTINUOUS
 62
     7
 10
-243.3091818489057
 20
274.5053131408217
 30
0.0
  0
VERTEX
  5
35A
  8
1
  6
CONTINUOUS
 62
     7
 10
-243.299020552856
 20
274.2465370635283
 30
0.0
  0
VERTEX
  5
35B
  8
1
  6
CONTINUOUS
 62
     7
 10
-243.2888592568063
 20
274.0010495357517
 30
0.0
  0
VERTEX
  5
35C
  8
1
  6
CONTINUOUS
 62
     7
 10
-243.2786979607566
 20
273.7691183366201
 30
0.0
  0
VERTEX
  5
35D
  8
1
  6
CONTINUOUS
 62
     7
 10
-243.2685366647069
 20
273.5510112452619
 30
0.0
  0
VERTEX
  5
35E
  8
1
  6
CONTINUOUS
 62
     7
 10
-243.2583753686573
 20
273.3469960408054
 30
0.0
  0
VERTEX
  5
35F
  8
1
  6
CONTINUOUS
 62
     7
 10
-243.2482140726075
 20
273.1573403642225
 30
0.0
  0
VERTEX
  5
360
  8
1
  6
CONTINUOUS
 62
     7
 10
-243.2380527765579
 20
272.9822687684972
 30
0.0
  0
VERTEX
  5
361
  8
1
  6
CONTINUOUS
 62
     7
 10
-243.2278914805082
 20
272.8219018031066
 30
0.0
  0
VERTEX
  5
362
  8
1
  6
CONTINUOUS
 62
     7
 10
-243.2177301844585
 20
272.6763446389113
 30
0.0
  0
VERTEX
  5
363
  8
1
  6
CONTINUOUS
 62
     7
 10
-243.2075688884088
 20
272.5457024467722
 30
0.0
  0
VERTEX
  5
364
  8
1
  6
CONTINUOUS
 62
     7
 10
-243.1974075923591
 20
272.4300803975498
 30
0.0
  0
VERTEX
  5
365
  8
1
  6
CONTINUOUS
 62
     7
 10
-243.1872462963094
 20
272.3295836621049
 30
0.0
  0
VERTEX
  5
366
  8
1
  6
CONTINUOUS
 62
     7
 10
-243.1770850002598
 20
272.2443174112985
 30
0.0
  0
VERTEX
  5
367
  8
1
  6
CONTINUOUS
 62
     7
 10
-243.16692370421
 20
272.1743868159908
 30
0.0
  0
VERTEX
  5
368
  8
1
  6
CONTINUOUS
 62
     7
 10
-243.1567624081604
 20
272.1198970470431
 30
0.0
  0
VERTEX
  5
369
  8
1
  6
CONTINUOUS
 62
     7
 10
-243.1466011121107
 20
272.0809532753158
 30
0.0
  0
VERTEX
  5
36A
  8
1
  6
CONTINUOUS
 62
     7
 10
-243.136439816061
 20
272.0576606277372
 30
0.0
  0
VERTEX
  5
36B
  8
1
  6
CONTINUOUS
 62
     7
 10
-243.1262785200113
 20
272.0500838969303
 30
0.0
  0
SEQEND
  5
565
  8
1
  6
CONTINUOUS
 62
     7
  0
POLYLINE
  5
EA
  8
1
  6
CONTINUOUS
 62
     7
 66
     1
 10
0.0
 20
0.0
 30
0.0
  0
VERTEX
  5
36C
  8
1
  6
CONTINUOUS
 62
     7
 10
-246.101603696744
 20
302.6031545499428
 30
0.0
  0
VERTEX
  5
36D
  8
1
  6
CONTINUOUS
 62
     7
 10
-246.0914445622751
 20
302.5575741033784
 30
0.0
  0
VERTEX
  5
36E
  8
1
  6
CONTINUOUS
 62
     7
 10
-246.081285427806
 20
302.496541678151
 30
0.0
  0
VERTEX
  5
36F
  8
1
  6
CONTINUOUS
 62
     7
 10
-246.071126293337
 20
302.420074919509
 30
0.0
  0
VERTEX
  5
370
  8
1
  6
CONTINUOUS
 62
     7
 10
-246.0609671588681
 20
302.3281914727008
 30
0.0
  0
VERTEX
  5
371
  8
1
  6
CONTINUOUS
 62
     7
 10
-246.0508080243991
 20
302.2209237189419
 30
0.0
  0
VERTEX
  5
372
  8
1
  6
CONTINUOUS
 62
     7
 10
-246.0406488899301
 20
302.0984123876609
 30
0.0
  0
VERTEX
  5
373
  8
1
  6
CONTINUOUS
 62
     7
 10
-246.0304897554611
 20
301.9608465520876
 30
0.0
  0
VERTEX
  5
374
  8
1
  6
CONTINUOUS
 62
     7
 10
-246.0203306209921
 20
301.8084155088516
 30
0.0
  0
VERTEX
  5
375
  8
1
  6
CONTINUOUS
 62
     7
 10
-246.0101714865231
 20
301.6413085545827
 30
0.0
  0
VERTEX
  5
376
  8
1
  6
CONTINUOUS
 62
     7
 10
-246.0000123520542
 20
301.4597149859105
 30
0.0
  0
VERTEX
  5
377
  8
1
  6
CONTINUOUS
 62
     7
 10
-245.9898532175852
 20
301.2638240994645
 30
0.0
  0
VERTEX
  5
378
  8
1
  6
CONTINUOUS
 62
     7
 10
-245.9796940831162
 20
301.0538251918745
 30
0.0
  0
VERTEX
  5
379
  8
1
  6
CONTINUOUS
 62
     7
 10
-245.9695349486472
 20
300.8299075597701
 30
0.0
  0
VERTEX
  5
37A
  8
1
  6
CONTINUOUS
 62
     7
 10
-245.9593758141782
 20
300.5922604997812
 30
0.0
  0
VERTEX
  5
37B
  8
1
  6
CONTINUOUS
 62
     7
 10
-245.9492166797093
 20
300.341073308537
 30
0.0
  0
VERTEX
  5
37C
  8
1
  6
CONTINUOUS
 62
     7
 10
-245.9390575452403
 20
300.0765453663129
 30
0.0
  0
VERTEX
  5
37D
  8
1
  6
CONTINUOUS
 62
     7
 10
-245.9288984107713
 20
299.7989663059515
 30
0.0
  0
VERTEX
  5
37E
  8
1
  6
CONTINUOUS
 62
     7
 10
-245.9187392763023
 20
299.5086733066906
 30
0.0
  0
VERTEX
  5
37F
  8
1
  6
CONTINUOUS
 62
     7
 10
-245.9085801418333
 20
299.2060039739812
 30
0.0
  0
VERTEX
  5
380
  8
1
  6
CONTINUOUS
 62
     7
 10
-245.8984210073644
 20
298.8912959132744
 30
0.0
  0
VERTEX
  5
381
  8
1
  6
CONTINUOUS
 62
     7
 10
-245.8882618728954
 20
298.5648867300216
 30
0.0
  0
VERTEX
  5
382
  8
1
  6
CONTINUOUS
 62
     7
 10
-245.8781027384263
 20
298.2271140296735
 30
0.0
  0
VERTEX
  5
383
  8
1
  6
CONTINUOUS
 62
     7
 10
-245.8679436039574
 20
297.8783154176818
 30
0.0
  0
VERTEX
  5
384
  8
1
  6
CONTINUOUS
 62
     7
 10
-245.8577844694884
 20
297.5188284994974
 30
0.0
  0
VERTEX
  5
385
  8
1
  6
CONTINUOUS
 62
     7
 10
-245.8476253350194
 20
297.1489908805714
 30
0.0
  0
VERTEX
  5
386
  8
1
  6
CONTINUOUS
 62
     7
 10
-245.8374662005504
 20
296.7691401663549
 30
0.0
  0
VERTEX
  5
387
  8
1
  6
CONTINUOUS
 62
     7
 10
-245.8273070660815
 20
296.3796195948205
 30
0.0
  0
VERTEX
  5
388
  8
1
  6
CONTINUOUS
 62
     7
 10
-245.8171479316124
 20
295.9808344346205
 30
0.0
  0
VERTEX
  5
389
  8
1
  6
CONTINUOUS
 62
     7
 10
-245.8069887971435
 20
295.5732283958297
 30
0.0
  0
VERTEX
  5
38A
  8
1
  6
CONTINUOUS
 62
     7
 10
-245.7968296626745
 20
295.1572457618928
 30
0.0
  0
VERTEX
  5
38B
  8
1
  6
CONTINUOUS
 62
     7
 10
-245.7866705282055
 20
294.7333308162544
 30
0.0
  0
VERTEX
  5
38C
  8
1
  6
CONTINUOUS
 62
     7
 10
-245.7765113937366
 20
294.3019278423591
 30
0.0
  0
VERTEX
  5
38D
  8
1
  6
CONTINUOUS
 62
     7
 10
-245.7663522592676
 20
293.8634811236515
 30
0.0
  0
VERTEX
  5
38E
  8
1
  6
CONTINUOUS
 62
     7
 10
-245.7561931247986
 20
293.4184349435762
 30
0.0
  0
VERTEX
  5
38F
  8
1
  6
CONTINUOUS
 62
     7
 10
-245.7460339903296
 20
292.967233585578
 30
0.0
  0
VERTEX
  5
390
  8
1
  6
CONTINUOUS
 62
     7
 10
-245.7358748558607
 20
292.5103213331014
 30
0.0
  0
VERTEX
  5
391
  8
1
  6
CONTINUOUS
 62
     7
 10
-245.7257157213916
 20
292.048142469591
 30
0.0
  0
VERTEX
  5
392
  8
1
  6
CONTINUOUS
 62
     7
 10
-245.7155565869227
 20
291.5811433571993
 30
0.0
  0
VERTEX
  5
393
  8
1
  6
CONTINUOUS
 62
     7
 10
-245.7053974524537
 20
291.1097989326961
 30
0.0
  0
VERTEX
  5
394
  8
1
  6
CONTINUOUS
 62
     7
 10
-245.6952383179847
 20
290.6346049039469
 30
0.0
  0
VERTEX
  5
395
  8
1
  6
CONTINUOUS
 62
     7
 10
-245.6850791835157
 20
290.1560574468774
 30
0.0
  0
VERTEX
  5
396
  8
1
  6
CONTINUOUS
 62
     7
 10
-245.6749200490467
 20
289.6746527374129
 30
0.0
  0
VERTEX
  5
397
  8
1
  6
CONTINUOUS
 62
     7
 10
-245.6647609145778
 20
289.1908869514792
 30
0.0
  0
VERTEX
  5
398
  8
1
  6
CONTINUOUS
 62
     7
 10
-245.6546017801088
 20
288.7052562650018
 30
0.0
  0
VERTEX
  5
399
  8
1
  6
CONTINUOUS
 62
     7
 10
-245.6444426456398
 20
288.2182568539062
 30
0.0
  0
VERTEX
  5
39A
  8
1
  6
CONTINUOUS
 62
     7
 10
-245.6342835111708
 20
287.7303848941181
 30
0.0
  0
VERTEX
  5
39B
  8
1
  6
CONTINUOUS
 62
     7
 10
-245.6241243767018
 20
287.2421365615629
 30
0.0
  0
VERTEX
  5
39C
  8
1
  6
CONTINUOUS
 62
     7
 10
-245.6139652422328
 20
286.7540080321662
 30
0.0
  0
VERTEX
  5
39D
  8
1
  6
CONTINUOUS
 62
     7
 10
-245.6038061077639
 20
286.2664952072615
 30
0.0
  0
VERTEX
  5
39E
  8
1
  6
CONTINUOUS
 62
     7
 10
-245.5936469732949
 20
285.7800891868657
 30
0.0
  0
VERTEX
  5
39F
  8
1
  6
CONTINUOUS
 62
     7
 10
-245.5834878388259
 20
285.2952769852182
 30
0.0
  0
VERTEX
  5
3A0
  8
1
  6
CONTINUOUS
 62
     7
 10
-245.5733287043569
 20
284.8125454862438
 30
0.0
  0
VERTEX
  5
3A1
  8
1
  6
CONTINUOUS
 62
     7
 10
-245.5631695698879
 20
284.3323815738669
 30
0.0
  0
VERTEX
  5
3A2
  8
1
  6
CONTINUOUS
 62
     7
 10
-245.553010435419
 20
283.8552721320121
 30
0.0
  0
VERTEX
  5
3A3
  8
1
  6
CONTINUOUS
 62
     7
 10
-245.54285130095
 20
283.3817040446042
 30
0.0
  0
VERTEX
  5
3A4
  8
1
  6
CONTINUOUS
 62
     7
 10
-245.532692166481
 20
282.9121641955675
 30
0.0
  0
VERTEX
  5
3A5
  8
1
  6
CONTINUOUS
 62
     7
 10
-245.5225330320121
 20
282.4471394688268
 30
0.0
  0
VERTEX
  5
3A6
  8
1
  6
CONTINUOUS
 62
     7
 10
-245.5123738975431
 20
281.9871167483064
 30
0.0
  0
VERTEX
  5
3A7
  8
1
  6
CONTINUOUS
 62
     7
 10
-245.5022147630741
 20
281.5325829179311
 30
0.0
  0
VERTEX
  5
3A8
  8
1
  6
CONTINUOUS
 62
     7
 10
-245.4920556286051
 20
281.084023401228
 30
0.0
  0
VERTEX
  5
3A9
  8
1
  6
CONTINUOUS
 62
     7
 10
-245.4818964941361
 20
280.6418903210896
 30
0.0
  0
VERTEX
  5
3AA
  8
1
  6
CONTINUOUS
 62
     7
 10
-245.4717373596672
 20
280.2066026592717
 30
0.0
  0
VERTEX
  5
3AB
  8
1
  6
CONTINUOUS
 62
     7
 10
-245.4615782251981
 20
279.7785779690312
 30
0.0
  0
VERTEX
  5
3AC
  8
1
  6
CONTINUOUS
 62
     7
 10
-245.4514190907292
 20
279.3582338036261
 30
0.0
  0
VERTEX
  5
3AD
  8
1
  6
CONTINUOUS
 62
     7
 10
-245.4412599562602
 20
278.9459877163138
 30
0.0
  0
VERTEX
  5
3AE
  8
1
  6
CONTINUOUS
 62
     7
 10
-245.4311008217913
 20
278.542257260352
 30
0.0
  0
VERTEX
  5
3AF
  8
1
  6
CONTINUOUS
 62
     7
 10
-245.4209416873223
 20
278.1474599889982
 30
0.0
  0
VERTEX
  5
3B0
  8
1
  6
CONTINUOUS
 62
     7
 10
-245.4107825528533
 20
277.7620134555098
 30
0.0
  0
VERTEX
  5
3B1
  8
1
  6
CONTINUOUS
 62
     7
 10
-245.4006234183843
 20
277.3863352131445
 30
0.0
  0
VERTEX
  5
3B2
  8
1
  6
CONTINUOUS
 62
     7
 10
-245.3904642839153
 20
277.0208428151599
 30
0.0
  0
VERTEX
  5
3B3
  8
1
  6
CONTINUOUS
 62
     7
 10
-245.3803051494464
 20
276.6659520773232
 30
0.0
  0
VERTEX
  5
3B4
  8
1
  6
CONTINUOUS
 62
     7
 10
-245.3701460149773
 20
276.3220254008551
 30
0.0
  0
VERTEX
  5
3B5
  8
1
  6
CONTINUOUS
 62
     7
 10
-245.3599868805083
 20
275.9893630196752
 30
0.0
  0
VERTEX
  5
3B6
  8
1
  6
CONTINUOUS
 62
     7
 10
-245.3498277460394
 20
275.6682616670165
 30
0.0
  0
VERTEX
  5
3B7
  8
1
  6
CONTINUOUS
 62
     7
 10
-245.3396686115704
 20
275.3590180761117
 30
0.0
  0
VERTEX
  5
3B8
  8
1
  6
CONTINUOUS
 62
     7
 10
-245.3295094771014
 20
275.0619289801934
 30
0.0
  0
VERTEX
  5
3B9
  8
1
  6
CONTINUOUS
 62
     7
 10
-245.3193503426325
 20
274.7772911124947
 30
0.0
  0
VERTEX
  5
3BA
  8
1
  6
CONTINUOUS
 62
     7
 10
-245.3091912081634
 20
274.5054012062481
 30
0.0
  0
VERTEX
  5
3BB
  8
1
  6
CONTINUOUS
 62
     7
 10
-245.2990320736945
 20
274.2465559946864
 30
0.0
  0
VERTEX
  5
3BC
  8
1
  6
CONTINUOUS
 62
     7
 10
-245.2888729392255
 20
274.0010522110426
 30
0.0
  0
VERTEX
  5
3BD
  8
1
  6
CONTINUOUS
 62
     7
 10
-245.2787138047565
 20
273.7691865885492
 30
0.0
  0
VERTEX
  5
3BE
  8
1
  6
CONTINUOUS
 62
     7
 10
-245.2685546702876
 20
273.5512543987697
 30
0.0
  0
VERTEX
  5
3BF
  8
1
  6
CONTINUOUS
 62
     7
 10
-245.2583955358186
 20
273.3474875217923
 30
0.0
  0
VERTEX
  5
3C0
  8
1
  6
CONTINUOUS
 62
     7
 10
-245.2482364013495
 20
273.1580314742648
 30
0.0
  0
VERTEX
  5
3C1
  8
1
  6
CONTINUOUS
 62
     7
 10
-245.2380772668806
 20
272.9830255786051
 30
0.0
  0
VERTEX
  5
3C2
  8
1
  6
CONTINUOUS
 62
     7
 10
-245.2279181324116
 20
272.8226091572312
 30
0.0
  0
VERTEX
  5
3C3
  8
1
  6
CONTINUOUS
 62
     7
 10
-245.2177589979427
 20
272.6769215325611
 30
0.0
  0
VERTEX
  5
3C4
  8
1
  6
CONTINUOUS
 62
     7
 10
-245.2075998634737
 20
272.5461020270127
 30
0.0
  0
VERTEX
  5
3C5
  8
1
  6
CONTINUOUS
 62
     7
 10
-245.1974407290047
 20
272.4302899630039
 30
0.0
  0
VERTEX
  5
3C6
  8
1
  6
CONTINUOUS
 62
     7
 10
-245.1872815945357
 20
272.3296246629528
 30
0.0
  0
VERTEX
  5
3C7
  8
1
  6
CONTINUOUS
 62
     7
 10
-245.1771224600667
 20
272.2442454492772
 30
0.0
  0
VERTEX
  5
3C8
  8
1
  6
CONTINUOUS
 62
     7
 10
-245.1669633255977
 20
272.1742916443951
 30
0.0
  0
VERTEX
  5
3C9
  8
1
  6
CONTINUOUS
 62
     7
 10
-245.1568041911288
 20
272.1199015994054
 30
0.0
  0
VERTEX
  5
3CA
  8
1
  6
CONTINUOUS
 62
     7
 10
-245.1466450566597
 20
272.081150323285
 30
0.0
  0
VERTEX
  5
3CB
  8
1
  6
CONTINUOUS
 62
     7
 10
-245.1364859221908
 20
272.0580116172596
 30
0.0
  0
VERTEX
  5
3CC
  8
1
  6
CONTINUOUS
 62
     7
 10
-245.1263267877218
 20
272.050450212796
 30
0.0
  0
SEQEND
  5
566
  8
1
  6
CONTINUOUS
 62
     7
  0
POLYLINE
  5
EB
  8
1
  6
CONTINUOUS
 62
     7
 66
     1
 10
0.0
 20
0.0
 30
0.0
  0
VERTEX
  5
3CD
  8
1
  6
CONTINUOUS
 62
     7
 10
-248.1017834229675
 20
302.6041631179745
 30
0.0
  0
VERTEX
  5
3CE
  8
1
  6
CONTINUOUS
 62
     7
 10
-248.0916228392799
 20
302.5588722392681
 30
0.0
  0
VERTEX
  5
3CF
  8
1
  6
CONTINUOUS
 62
     7
 10
-248.0814622555923
 20
302.4980039342392
 30
0.0
  0
VERTEX
  5
3D0
  8
1
  6
CONTINUOUS
 62
     7
 10
-248.0713016719047
 20
302.4215692037374
 30
0.0
  0
VERTEX
  5
3D1
  8
1
  6
CONTINUOUS
 62
     7
 10
-248.0611410882171
 20
302.3296949805315
 30
0.0
  0
VERTEX
  5
3D2
  8
1
  6
CONTINUOUS
 62
     7
 10
-248.0509805045295
 20
302.2225375134355
 30
0.0
  0
VERTEX
  5
3D3
  8
1
  6
CONTINUOUS
 62
     7
 10
-248.0408199208418
 20
302.1002530512644
 30
0.0
  0
VERTEX
  5
3D4
  8
1
  6
CONTINUOUS
 62
     7
 10
-248.0306593371542
 20
301.9629978428338
 30
0.0
  0
VERTEX
  5
3D5
  8
1
  6
CONTINUOUS
 62
     7
 10
-248.0204987534667
 20
301.8109281369589
 30
0.0
  0
VERTEX
  5
3D6
  8
1
  6
CONTINUOUS
 62
     7
 10
-248.0103381697789
 20
301.6442001824549
 30
0.0
  0
VERTEX
  5
3D7
  8
1
  6
CONTINUOUS
 62
     7
 10
-248.0001775860914
 20
301.4629702281374
 30
0.0
  0
VERTEX
  5
3D8
  8
1
  6
CONTINUOUS
 62
     7
 10
-247.9900170024037
 20
301.2673945228215
 30
0.0
  0
VERTEX
  5
3D9
  8
1
  6
CONTINUOUS
 62
     7
 10
-247.9798564187162
 20
301.0576293153227
 30
0.0
  0
VERTEX
  5
3DA
  8
1
  6
CONTINUOUS
 62
     7
 10
-247.9696958350285
 20
300.8338308544561
 30
0.0
  0
VERTEX
  5
3DB
  8
1
  6
CONTINUOUS
 62
     7
 10
-247.9595352513409
 20
300.59617664628
 30
0.0
  0
VERTEX
  5
3DC
  8
1
  6
CONTINUOUS
 62
     7
 10
-247.9493746676532
 20
300.3449467070163
 30
0.0
  0
VERTEX
  5
3DD
  8
1
  6
CONTINUOUS
 62
     7
 10
-247.9392140839657
 20
300.0804519135743
 30
0.0
  0
VERTEX
  5
3DE
  8
1
  6
CONTINUOUS
 62
     7
 10
-247.929053500278
 20
299.8030031490601
 30
0.0
  0
VERTEX
  5
3DF
  8
1
  6
CONTINUOUS
 62
     7
 10
-247.9188929165904
 20
299.5129112965804
 30
0.0
  0
VERTEX
  5
3E0
  8
1
  6
CONTINUOUS
 62
     7
 10
-247.9087323329028
 20
299.2104872392413
 30
0.0
  0
VERTEX
  5
3E1
  8
1
  6
CONTINUOUS
 62
     7
 10
-247.8985717492152
 20
298.8960418601494
 30
0.0
  0
VERTEX
  5
3E2
  8
1
  6
CONTINUOUS
 62
     7
 10
-247.8884111655276
 20
298.5698860424109
 30
0.0
  0
VERTEX
  5
3E3
  8
1
  6
CONTINUOUS
 62
     7
 10
-247.87825058184
 20
298.2323306691322
 30
0.0
  0
VERTEX
  5
3E4
  8
1
  6
CONTINUOUS
 62
     7
 10
-247.8680899981524
 20
297.8836866234197
 30
0.0
  0
VERTEX
  5
3E5
  8
1
  6
CONTINUOUS
 62
     7
 10
-247.8579294144648
 20
297.5242647883798
 30
0.0
  0
VERTEX
  5
3E6
  8
1
  6
CONTINUOUS
 62
     7
 10
-247.8477688307771
 20
297.1543892309646
 30
0.0
  0
VERTEX
  5
3E7
  8
1
  6
CONTINUOUS
 62
     7
 10
-247.8376082470895
 20
296.7744599620884
 30
0.0
  0
VERTEX
  5
3E8
  8
1
  6
CONTINUOUS
 62
     7
 10
-247.8274476634019
 20
296.3849041295436
 30
0.0
  0
VERTEX
  5
3E9
  8
1
  6
CONTINUOUS
 62
     7
 10
-247.8172870797144
 20
295.9861489150869
 30
0.0
  0
VERTEX
  5
3EA
  8
1
  6
CONTINUOUS
 62
     7
 10
-247.8071264960267
 20
295.5786215004757
 30
0.0
  0
VERTEX
  5
3EB
  8
1
  6
CONTINUOUS
 62
     7
 10
-247.7969659123391
 20
295.1627490674669
 30
0.0
  0
VERTEX
  5
3EC
  8
1
  6
CONTINUOUS
 62
     7
 10
-247.7868053286515
 20
294.7389587978179
 30
0.0
  0
VERTEX
  5
3ED
  8
1
  6
CONTINUOUS
 62
     7
 10
-247.7766447449639
 20
294.3076778732856
 30
0.0
  0
VERTEX
  5
3EE
  8
1
  6
CONTINUOUS
 62
     7
 10
-247.7664841612762
 20
293.8693334756272
 30
0.0
  0
VERTEX
  5
3EF
  8
1
  6
CONTINUOUS
 62
     7
 10
-247.7563235775886
 20
293.4243527865998
 30
0.0
  0
VERTEX
  5
3F0
  8
1
  6
CONTINUOUS
 62
     7
 10
-247.746162993901
 20
292.9731629879606
 30
0.0
  0
VERTEX
  5
3F1
  8
1
  6
CONTINUOUS
 62
     7
 10
-247.7360024102134
 20
292.5161971307853
 30
0.0
  0
VERTEX
  5
3F2
  8
1
  6
CONTINUOUS
 62
     7
 10
-247.7258418265258
 20
292.0539288260102
 30
0.0
  0
VERTEX
  5
3F3
  8
1
  6
CONTINUOUS
 62
     7
 10
-247.7156812428382
 20
291.5868488166254
 30
0.0
  0
VERTEX
  5
3F4
  8
1
  6
CONTINUOUS
 62
     7
 10
-247.7055206591506
 20
291.1154479063708
 30
0.0
  0
VERTEX
  5
3F5
  8
1
  6
CONTINUOUS
 62
     7
 10
-247.695360075463
 20
290.6402168989861
 30
0.0
  0
VERTEX
  5
3F6
  8
1
  6
CONTINUOUS
 62
     7
 10
-247.6851994917753
 20
290.1616465982113
 30
0.0
  0
VERTEX
  5
3F7
  8
1
  6
CONTINUOUS
 62
     7
 10
-247.6750389080877
 20
289.6802278077863
 30
0.0
  0
VERTEX
  5
3F8
  8
1
  6
CONTINUOUS
 62
     7
 10
-247.6648783244001
 20
289.1964513314509
 30
0.0
  0
VERTEX
  5
3F9
  8
1
  6
CONTINUOUS
 62
     7
 10
-247.6547177407126
 20
288.710807972945
 30
0.0
  0
VERTEX
  5
3FA
  8
1
  6
CONTINUOUS
 62
     7
 10
-247.6445571570249
 20
288.2237885360084
 30
0.0
  0
VERTEX
  5
3FB
  8
1
  6
CONTINUOUS
 62
     7
 10
-247.6343965733373
 20
287.7358838243812
 30
0.0
  0
VERTEX
  5
3FC
  8
1
  6
CONTINUOUS
 62
     7
 10
-247.6242359896496
 20
287.2475848710197
 30
0.0
  0
VERTEX
  5
3FD
  8
1
  6
CONTINUOUS
 62
     7
 10
-247.614075405962
 20
286.7593846216544
 30
0.0
  0
VERTEX
  5
3FE
  8
1
  6
CONTINUOUS
 62
     7
 10
-247.6039148222744
 20
286.2717769730762
 30
0.0
  0
VERTEX
  5
3FF
  8
1
  6
CONTINUOUS
 62
     7
 10
-247.5937542385868
 20
285.7852558289811
 30
0.0
  0
VERTEX
  5
400
  8
1
  6
CONTINUOUS
 62
     7
 10
-247.5835936548992
 20
285.3003150930651
 30
0.0
  0
VERTEX
  5
401
  8
1
  6
CONTINUOUS
 62
     7
 10
-247.5734330712116
 20
284.8174486690244
 30
0.0
  0
VERTEX
  5
402
  8
1
  6
CONTINUOUS
 62
     7
 10
-247.563272487524
 20
284.3371504605551
 30
0.0
  0
VERTEX
  5
403
  8
1
  6
CONTINUOUS
 62
     7
 10
-247.5531119038364
 20
283.8599143713531
 30
0.0
  0
VERTEX
  5
404
  8
1
  6
CONTINUOUS
 62
     7
 10
-247.5429513201487
 20
283.3862343051144
 30
0.0
  0
VERTEX
  5
405
  8
1
  6
CONTINUOUS
 62
     7
 10
-247.5327907364612
 20
282.9166041655354
 30
0.0
  0
VERTEX
  5
406
  8
1
  6
CONTINUOUS
 62
     7
 10
-247.5226301527735
 20
282.4515178563117
 30
0.0
  0
VERTEX
  5
407
  8
1
  6
CONTINUOUS
 62
     7
 10
-247.5124695690859
 20
281.9914659151965
 30
0.0
  0
VERTEX
  5
408
  8
1
  6
CONTINUOUS
 62
     7
 10
-247.5023089853983
 20
281.5369046504097
 30
0.0
  0
VERTEX
  5
409
  8
1
  6
CONTINUOUS
 62
     7
 10
-247.4921484017107
 20
281.0882704103752
 30
0.0
  0
VERTEX
  5
40A
  8
1
  6
CONTINUOUS
 62
     7
 10
-247.481987818023
 20
280.6459992944566
 30
0.0
  0
VERTEX
  5
40B
  8
1
  6
CONTINUOUS
 62
     7
 10
-247.4718272343354
 20
280.2105274020177
 30
0.0
  0
VERTEX
  5
40C
  8
1
  6
CONTINUOUS
 62
     7
 10
-247.4616666506478
 20
279.7822908324219
 30
0.0
  0
VERTEX
  5
40D
  8
1
  6
CONTINUOUS
 62
     7
 10
-247.4515060669602
 20
279.3617256850331
 30
0.0
  0
VERTEX
  5
40E
  8
1
  6
CONTINUOUS
 62
     7
 10
-247.4413454832726
 20
278.9492680592147
 30
0.0
  0
VERTEX
  5
40F
  8
1
  6
CONTINUOUS
 62
     7
 10
-247.4311848995849
 20
278.5453540543303
 30
0.0
  0
VERTEX
  5
410
  8
1
  6
CONTINUOUS
 62
     7
 10
-247.4210243158973
 20
278.1504197697437
 30
0.0
  0
VERTEX
  5
411
  8
1
  6
CONTINUOUS
 62
     7
 10
-247.4108637322097
 20
277.7649013048184
 30
0.0
  0
VERTEX
  5
412
  8
1
  6
CONTINUOUS
 62
     7
 10
-247.4007031485221
 20
277.3892297469358
 30
0.0
  0
VERTEX
  5
413
  8
1
  6
CONTINUOUS
 62
     7
 10
-247.3905425648345
 20
277.0237733078714
 30
0.0
  0
VERTEX
  5
414
  8
1
  6
CONTINUOUS
 62
     7
 10
-247.3803819811469
 20
276.6688573317628
 30
0.0
  0
VERTEX
  5
415
  8
1
  6
CONTINUOUS
 62
     7
 10
-247.3702213974593
 20
276.324806337325
 30
0.0
  0
VERTEX
  5
416
  8
1
  6
CONTINUOUS
 62
     7
 10
-247.3600608137717
 20
275.9919448432724
 30
0.0
  0
VERTEX
  5
417
  8
1
  6
CONTINUOUS
 62
     7
 10
-247.3499002300841
 20
275.6705973683198
 30
0.0
  0
VERTEX
  5
418
  8
1
  6
CONTINUOUS
 62
     7
 10
-247.3397396463965
 20
275.3610884311817
 30
0.0
  0
VERTEX
  5
419
  8
1
  6
CONTINUOUS
 62
     7
 10
-247.3295790627089
 20
275.063742550573
 30
0.0
  0
VERTEX
  5
41A
  8
1
  6
CONTINUOUS
 62
     7
 10
-247.3194184790213
 20
274.7788842452082
 30
0.0
  0
VERTEX
  5
41B
  8
1
  6
CONTINUOUS
 62
     7
 10
-247.3092578953336
 20
274.506838033802
 30
0.0
  0
VERTEX
  5
41C
  8
1
  6
CONTINUOUS
 62
     7
 10
-247.299097311646
 20
274.247928435069
 30
0.0
  0
VERTEX
  5
41D
  8
1
  6
CONTINUOUS
 62
     7
 10
-247.2889367279584
 20
274.0024748426187
 30
0.0
  0
VERTEX
  5
41E
  8
1
  6
CONTINUOUS
 62
     7
 10
-247.2787761442708
 20
273.7707160545659
 30
0.0
  0
VERTEX
  5
41F
  8
1
  6
CONTINUOUS
 62
     7
 10
-247.2686155605832
 20
273.5528267645268
 30
0.0
  0
VERTEX
  5
420
  8
1
  6
CONTINUOUS
 62
     7
 10
-247.2584549768956
 20
273.3489798934917
 30
0.0
  0
VERTEX
  5
421
  8
1
  6
CONTINUOUS
 62
     7
 10
-247.248294393208
 20
273.1593483624507
 30
0.0
  0
VERTEX
  5
422
  8
1
  6
CONTINUOUS
 62
     7
 10
-247.2381338095203
 20
272.9841050923941
 30
0.0
  0
VERTEX
  5
423
  8
1
  6
CONTINUOUS
 62
     7
 10
-247.2279732258327
 20
272.8234230043123
 30
0.0
  0
VERTEX
  5
424
  8
1
  6
CONTINUOUS
 62
     7
 10
-247.2178126421451
 20
272.6774750191955
 30
0.0
  0
VERTEX
  5
425
  8
1
  6
CONTINUOUS
 62
     7
 10
-247.2076520584575
 20
272.546434058034
 30
0.0
  0
VERTEX
  5
426
  8
1
  6
CONTINUOUS
 62
     7
 10
-247.1974914747698
 20
272.4304730418182
 30
0.0
  0
VERTEX
  5
427
  8
1
  6
CONTINUOUS
 62
     7
 10
-247.1873308910822
 20
272.3297648915382
 30
0.0
  0
VERTEX
  5
428
  8
1
  6
CONTINUOUS
 62
     7
 10
-247.1771703073946
 20
272.2444782572513
 30
0.0
  0
VERTEX
  5
429
  8
1
  6
CONTINUOUS
 62
     7
 10
-247.167009723707
 20
272.1746958156737
 30
0.0
  0
VERTEX
  5
42A
  8
1
  6
CONTINUOUS
 62
     7
 10
-247.1568491400194
 20
272.1204205745845
 30
0.0
  0
VERTEX
  5
42B
  8
1
  6
CONTINUOUS
 62
     7
 10
-247.1466885563318
 20
272.081652534004
 30
0.0
  0
VERTEX
  5
42C
  8
1
  6
CONTINUOUS
 62
     7
 10
-247.1365279726442
 20
272.0583916939521
 30
0.0
  0
VERTEX
  5
42D
  8
1
  6
CONTINUOUS
 62
     7
 10
-247.1263673889566
 20
272.0506380544491
 30
0.0
  0
SEQEND
  5
567
  8
1
  6
CONTINUOUS
 62
     7
  0
POLYLINE
  5
EC
  8
1
  6
CONTINUOUS
 62
     7
 66
     1
 10
0.0
 20
0.0
 30
0.0
  0
VERTEX
  5
42E
  8
1
  6
CONTINUOUS
 62
     7
 10
-250.1018325495259
 20
302.6045706390494
 30
0.0
  0
VERTEX
  5
42F
  8
1
  6
CONTINUOUS
 62
     7
 10
-250.0907481795323
 20
302.5542057716072
 30
0.0
  0
VERTEX
  5
430
  8
1
  6
CONTINUOUS
 62
     7
 10
-250.0796638095387
 20
302.4853296069363
 30
0.0
  0
VERTEX
  5
431
  8
1
  6
CONTINUOUS
 62
     7
 10
-250.0685794395451
 20
302.3981009818142
 30
0.0
  0
VERTEX
  5
432
  8
1
  6
CONTINUOUS
 62
     7
 10
-250.0574950695515
 20
302.2926787330181
 30
0.0
  0
VERTEX
  5
433
  8
1
  6
CONTINUOUS
 62
     7
 10
-250.046410699558
 20
302.1692216973255
 30
0.0
  0
VERTEX
  5
434
  8
1
  6
CONTINUOUS
 62
     7
 10
-250.0353263295643
 20
302.0278887115136
 30
0.0
  0
VERTEX
  5
435
  8
1
  6
CONTINUOUS
 62
     7
 10
-250.0242419595708
 20
301.8688386123602
 30
0.0
  0
VERTEX
  5
436
  8
1
  6
CONTINUOUS
 62
     7
 10
-250.0131575895772
 20
301.6922302366422
 30
0.0
  0
VERTEX
  5
437
  8
1
  6
CONTINUOUS
 62
     7
 10
-250.0020732195836
 20
301.4982224211371
 30
0.0
  0
VERTEX
  5
438
  8
1
  6
CONTINUOUS
 62
     7
 10
-249.99098884959
 20
301.2869740067881
 30
0.0
  0
VERTEX
  5
439
  8
1
  6
CONTINUOUS
 62
     7
 10
-249.9799044795964
 20
301.0586838542146
 30
0.0
  0
VERTEX
  5
43A
  8
1
  6
CONTINUOUS
 62
     7
 10
-249.9688201096029
 20
300.8136889250783
 30
0.0
  0
VERTEX
  5
43B
  8
1
  6
CONTINUOUS
 62
     7
 10
-249.9577357396093
 20
300.5523559485784
 30
0.0
  0
VERTEX
  5
43C
  8
1
  6
CONTINUOUS
 62
     7
 10
-249.9466513696157
 20
300.2750516539141
 30
0.0
  0
VERTEX
  5
43D
  8
1
  6
CONTINUOUS
 62
     7
 10
-249.9355669996221
 20
299.9821427702848
 30
0.0
  0
VERTEX
  5
43E
  8
1
  6
CONTINUOUS
 62
     7
 10
-249.9244826296284
 20
299.6739960268897
 30
0.0
  0
VERTEX
  5
43F
  8
1
  6
CONTINUOUS
 62
     7
 10
-249.9133982596349
 20
299.3509781529281
 30
0.0
  0
VERTEX
  5
440
  8
1
  6
CONTINUOUS
 62
     7
 10
-249.9023138896413
 20
299.013455877599
 30
0.0
  0
VERTEX
  5
441
  8
1
  6
CONTINUOUS
 62
     7
 10
-249.8912295196477
 20
298.6617959301018
 30
0.0
  0
VERTEX
  5
442
  8
1
  6
CONTINUOUS
 62
     7
 10
-249.8801451496541
 20
298.2963650396358
 30
0.0
  0
VERTEX
  5
443
  8
1
  6
CONTINUOUS
 62
     7
 10
-249.8690607796606
 20
297.9175505415558
 30
0.0
  0
VERTEX
  5
444
  8
1
  6
CONTINUOUS
 62
     7
 10
-249.8579764096669
 20
297.5258470297488
 30
0.0
  0
VERTEX
  5
445
  8
1
  6
CONTINUOUS
 62
     7
 10
-249.8468920396733
 20
297.1217838855974
 30
0.0
  0
VERTEX
  5
446
  8
1
  6
CONTINUOUS
 62
     7
 10
-249.8358076696798
 20
296.7058905085848
 30
0.0
  0
VERTEX
  5
447
  8
1
  6
CONTINUOUS
 62
     7
 10
-249.8247232996862
 20
296.2786962981941
 30
0.0
  0
VERTEX
  5
448
  8
1
  6
CONTINUOUS
 62
     7
 10
-249.8136389296926
 20
295.840730653909
 30
0.0
  0
VERTEX
  5
449
  8
1
  6
CONTINUOUS
 62
     7
 10
-249.802554559699
 20
295.3925229752126
 30
0.0
  0
VERTEX
  5
44A
  8
1
  6
CONTINUOUS
 62
     7
 10
-249.7914701897054
 20
294.9346026615882
 30
0.0
  0
VERTEX
  5
44B
  8
1
  6
CONTINUOUS
 62
     7
 10
-249.7803858197119
 20
294.4674991125193
 30
0.0
  0
VERTEX
  5
44C
  8
1
  6
CONTINUOUS
 62
     7
 10
-249.7693014497182
 20
293.9917417274891
 30
0.0
  0
VERTEX
  5
44D
  8
1
  6
CONTINUOUS
 62
     7
 10
-249.7582170797247
 20
293.5078674861778
 30
0.0
  0
VERTEX
  5
44E
  8
1
  6
CONTINUOUS
 62
     7
 10
-249.7471327097311
 20
293.0164739492449
 30
0.0
  0
VERTEX
  5
44F
  8
1
  6
CONTINUOUS
 62
     7
 10
-249.7360483397375
 20
292.5181877222946
 30
0.0
  0
VERTEX
  5
450
  8
1
  6
CONTINUOUS
 62
     7
 10
-249.7249639697439
 20
292.0136355937466
 30
0.0
  0
VERTEX
  5
451
  8
1
  6
CONTINUOUS
 62
     7
 10
-249.7138795997503
 20
291.5034443520205
 30
0.0
  0
VERTEX
  5
452
  8
1
  6
CONTINUOUS
 62
     7
 10
-249.7027952297567
 20
290.9882407855362
 30
0.0
  0
VERTEX
  5
453
  8
1
  6
CONTINUOUS
 62
     7
 10
-249.6917108597631
 20
290.4686516827133
 30
0.0
  0
VERTEX
  5
454
  8
1
  6
CONTINUOUS
 62
     7
 10
-249.6806264897696
 20
289.9453038319716
 30
0.0
  0
VERTEX
  5
455
  8
1
  6
CONTINUOUS
 62
     7
 10
-249.669542119776
 20
289.4188240217308
 30
0.0
  0
VERTEX
  5
456
  8
1
  6
CONTINUOUS
 62
     7
 10
-249.6584577497824
 20
288.8898390404104
 30
0.0
  0
VERTEX
  5
457
  8
1
  6
CONTINUOUS
 62
     7
 10
-249.6473733797888
 20
288.3589765507909
 30
0.0
  0
VERTEX
  5
458
  8
1
  6
CONTINUOUS
 62
     7
 10
-249.6362890097952
 20
287.8268754690193
 30
0.0
  0
VERTEX
  5
459
  8
1
  6
CONTINUOUS
 62
     7
 10
-249.6252046398016
 20
287.2941825243963
 30
0.0
  0
VERTEX
  5
45A
  8
1
  6
CONTINUOUS
 62
     7
 10
-249.614120269808
 20
286.7615446036986
 30
0.0
  0
VERTEX
  5
45B
  8
1
  6
CONTINUOUS
 62
     7
 10
-249.6030358998145
 20
286.2296085937029
 30
0.0
  0
VERTEX
  5
45C
  8
1
  6
CONTINUOUS
 62
     7
 10
-249.5919515298209
 20
285.6990213811861
 30
0.0
  0
VERTEX
  5
45D
  8
1
  6
CONTINUOUS
 62
     7
 10
-249.5808671598273
 20
285.1704298529248
 30
0.0
  0
VERTEX
  5
45E
  8
1
  6
CONTINUOUS
 62
     7
 10
-249.5697827898337
 20
284.6444808956959
 30
0.0
  0
VERTEX
  5
45F
  8
1
  6
CONTINUOUS
 62
     7
 10
-249.5586984198401
 20
284.121821396276
 30
0.0
  0
VERTEX
  5
460
  8
1
  6
CONTINUOUS
 62
     7
 10
-249.5476140498465
 20
283.6030982414421
 30
0.0
  0
VERTEX
  5
461
  8
1
  6
CONTINUOUS
 62
     7
 10
-249.5365296798529
 20
283.0889570573584
 30
0.0
  0
VERTEX
  5
462
  8
1
  6
CONTINUOUS
 62
     7
 10
-249.5254453098594
 20
282.5800147911435
 30
0.0
  0
VERTEX
  5
463
  8
1
  6
CONTINUOUS
 62
     7
 10
-249.5143609398658
 20
282.0768598848065
 30
0.0
  0
VERTEX
  5
464
  8
1
  6
CONTINUOUS
 62
     7
 10
-249.5032765698722
 20
281.5800795545316
 30
0.0
  0
VERTEX
  5
465
  8
1
  6
CONTINUOUS
 62
     7
 10
-249.4921921998786
 20
281.0902610165034
 30
0.0
  0
VERTEX
  5
466
  8
1
  6
CONTINUOUS
 62
     7
 10
-249.481107829885
 20
280.6079914869063
 30
0.0
  0
VERTEX
  5
467
  8
1
  6
CONTINUOUS
 62
     7
 10
-249.4700234598914
 20
280.1338581819246
 30
0.0
  0
VERTEX
  5
468
  8
1
  6
CONTINUOUS
 62
     7
 10
-249.4589390898979
 20
279.6684483177426
 30
0.0
  0
VERTEX
  5
469
  8
1
  6
CONTINUOUS
 62
     7
 10
-249.4478547199043
 20
279.2123491105448
 30
0.0
  0
VERTEX
  5
46A
  8
1
  6
CONTINUOUS
 62
     7
 10
-249.4367703499106
 20
278.7661477765157
 30
0.0
  0
VERTEX
  5
46B
  8
1
  6
CONTINUOUS
 62
     7
 10
-249.4256859799171
 20
278.3304304563044
 30
0.0
  0
VERTEX
  5
46C
  8
1
  6
CONTINUOUS
 62
     7
 10
-249.4146016099235
 20
277.9057315345937
 30
0.0
  0
VERTEX
  5
46D
  8
1
  6
CONTINUOUS
 62
     7
 10
-249.4035172399299
 20
277.492511767327
 30
0.0
  0
VERTEX
  5
46E
  8
1
  6
CONTINUOUS
 62
     7
 10
-249.3924328699363
 20
277.0912262892515
 30
0.0
  0
VERTEX
  5
46F
  8
1
  6
CONTINUOUS
 62
     7
 10
-249.3813484999428
 20
276.7023302351142
 30
0.0
  0
VERTEX
  5
470
  8
1
  6
CONTINUOUS
 62
     7
 10
-249.3702641299491
 20
276.3262787396621
 30
0.0
  0
VERTEX
  5
471
  8
1
  6
CONTINUOUS
 62
     7
 10
-249.3591797599556
 20
275.9635269376424
 30
0.0
  0
VERTEX
  5
472
  8
1
  6
CONTINUOUS
 62
     7
 10
-249.348095389962
 20
275.6145299638022
 30
0.0
  0
VERTEX
  5
473
  8
1
  6
CONTINUOUS
 62
     7
 10
-249.3370110199684
 20
275.2797429528883
 30
0.0
  0
VERTEX
  5
474
  8
1
  6
CONTINUOUS
 62
     7
 10
-249.3259266499748
 20
274.9596210396479
 30
0.0
  0
VERTEX
  5
475
  8
1
  6
CONTINUOUS
 62
     7
 10
-249.3148422799812
 20
274.6546189830207
 30
0.0
  0
VERTEX
  5
476
  8
1
  6
CONTINUOUS
 62
     7
 10
-249.3037579099876
 20
274.3651348421645
 30
0.0
  0
VERTEX
  5
477
  8
1
  6
CONTINUOUS
 62
     7
 10
-249.292673539994
 20
274.0914499329862
 30
0.0
  0
VERTEX
  5
478
  8
1
  6
CONTINUOUS
 62
     7
 10
-249.2815891700004
 20
273.8338311851867
 30
0.0
  0
VERTEX
  5
479
  8
1
  6
CONTINUOUS
 62
     7
 10
-249.2705048000068
 20
273.5925455284663
 30
0.0
  0
VERTEX
  5
47A
  8
1
  6
CONTINUOUS
 62
     7
 10
-249.2594204300133
 20
273.3678598925257
 30
0.0
  0
VERTEX
  5
47B
  8
1
  6
CONTINUOUS
 62
     7
 10
-249.2483360600197
 20
273.1600412070655
 30
0.0
  0
VERTEX
  5
47C
  8
1
  6
CONTINUOUS
 62
     7
 10
-249.2372516900261
 20
272.9693564017862
 30
0.0
  0
VERTEX
  5
47D
  8
1
  6
CONTINUOUS
 62
     7
 10
-249.2261673200325
 20
272.7960724063885
 30
0.0
  0
VERTEX
  5
47E
  8
1
  6
CONTINUOUS
 62
     7
 10
-249.2150829500389
 20
272.6404561505729
 30
0.0
  0
VERTEX
  5
47F
  8
1
  6
CONTINUOUS
 62
     7
 10
-249.2039985800453
 20
272.502774535282
 30
0.0
  0
VERTEX
  5
480
  8
1
  6
CONTINUOUS
 62
     7
 10
-249.1929142100518
 20
272.3832465784503
 30
0.0
  0
VERTEX
  5
481
  8
1
  6
CONTINUOUS
 62
     7
 10
-249.1818298400581
 20
272.2819456721448
 30
0.0
  0
VERTEX
  5
482
  8
1
  6
CONTINUOUS
 62
     7
 10
-249.1707454700646
 20
272.198917625365
 30
0.0
  0
VERTEX
  5
483
  8
1
  6
CONTINUOUS
 62
     7
 10
-249.1596611000709
 20
272.1342082471101
 30
0.0
  0
VERTEX
  5
484
  8
1
  6
CONTINUOUS
 62
     7
 10
-249.1485767300774
 20
272.0878633463797
 30
0.0
  0
VERTEX
  5
485
  8
1
  6
CONTINUOUS
 62
     7
 10
-249.1374923600838
 20
272.0599287321731
 30
0.0
  0
VERTEX
  5
486
  8
1
  6
CONTINUOUS
 62
     7
 10
-249.1264079900902
 20
272.0504502134897
 30
0.0
  0
SEQEND
  5
568
  8
1
  6
CONTINUOUS
 62
     7
  0
LINE
  5
ED
  8
1
  6
CONTINUOUS
 62
     7
 10
-249.7235867230276
 20
300.3861813148886
 30
0.0
 11
-249.8322148188228
 21
301.6015745339778
 31
0.0
  0
LINE
  5
EE
  8
1
  6
CONTINUOUS
 62
     7
 10
-249.6112271724659
 20
297.5504649485505
 30
0.0
 11
-249.7235867230276
 21
300.3861813148886
 31
0.0
  0
LINE
  5
EF
  8
1
  6
CONTINUOUS
 62
     7
 10
-249.4988676219041
 20
293.4569081043163
 30
0.0
 11
-249.6112271724659
 21
297.5504649485505
 31
0.0
  0
LINE
  5
F0
  8
1
  6
CONTINUOUS
 62
     7
 10
-249.3865080713422
 20
288.6102957623995
 30
0.0
 11
-249.4988676219041
 21
293.4569081043163
 31
0.0
  0
LINE
  5
F1
  8
1
  6
CONTINUOUS
 62
     7
 10
-249.2741485207805
 20
283.6082737374884
 30
0.0
 11
-249.3865080713422
 21
288.6102957623995
 31
0.0
  0
LINE
  5
F2
  8
1
  6
CONTINUOUS
 62
     7
 10
-249.1617889702187
 20
279.067651734431
 30
0.0
 11
-249.2741485207805
 21
283.6082737374884
 31
0.0
  0
LINE
  5
F3
  8
1
  6
CONTINUOUS
 62
     7
 10
-249.0494294196568
 20
275.5483432649264
 30
0.0
 11
-249.1617889702187
 21
279.067651734431
 31
0.0
  0
LINE
  5
F4
  8
1
  6
CONTINUOUS
 62
     7
 10
-248.9370698690951
 20
273.4843215517093
 30
0.0
 11
-249.0494294196568
 21
275.5483432649264
 31
0.0
  0
LINE
  5
F5
  8
1
  6
CONTINUOUS
 62
     7
 10
-247.8134743634771
 20
301.5076938604283
 30
0.0
 11
-247.8321938870122
 21
301.6014971801805
 31
0.0
  0
LINE
  5
F6
  8
1
  6
CONTINUOUS
 62
     7
 10
-247.7011148129153
 20
299.9390979585999
 30
0.0
 11
-247.8134743634771
 21
301.5076938604283
 31
0.0
  0
LINE
  5
F7
  8
1
  6
CONTINUOUS
 62
     7
 10
-247.5887552623535
 20
296.8181142908825
 30
0.0
 11
-247.7011148129153
 21
299.9390979585999
 31
0.0
  0
LINE
  5
F8
  8
1
  6
CONTINUOUS
 62
     7
 10
-247.4763957117916
 20
292.5295978229879
 30
0.0
 11
-247.5887552623535
 21
296.8181142908825
 31
0.0
  0
LINE
  5
F9
  8
1
  6
CONTINUOUS
 62
     7
 10
-247.1393170601062
 20
278.2659888550235
 30
0.0
 11
-247.2516766106681
 21
282.6440301862611
 31
0.0
  0
LINE
  5
FA
  8
1
  6
CONTINUOUS
 62
     7
 10
-247.0269575095445
 20
275.0081157688093
 30
0.0
 11
-247.1393170601062
 21
278.2659888550235
 31
0.0
  0
LINE
  5
FB
  8
1
  6
CONTINUOUS
 62
     7
 10
-246.9145979589827
 20
273.2721460112946
 30
0.0
 11
-247.0269575095445
 21
275.0081157688093
 31
0.0
  0
LINE
  5
FC
  8
1
  6
CONTINUOUS
 62
     7
 10
-245.7910024533647
 20
301.3304756623061
 30
0.0
 11
-245.8319844076498
 21
301.6007196518398
 31
0.0
  0
LINE
  5
FD
  8
1
  6
CONTINUOUS
 62
     7
 10
-245.6786429028029
 20
299.4292963495307
 30
0.0
 11
-245.7910024533647
 21
301.3304756623061
 31
0.0
  0
LINE
  5
FE
  8
1
  6
CONTINUOUS
 62
     7
 10
-245.5662833522412
 20
296.0385939640772
 30
0.0
 11
-245.6786429028029
 21
299.4292963495307
 31
0.0
  0
LINE
  5
FF
  8
1
  6
CONTINUOUS
 62
     7
 10
-245.4540484727056
 20
291.5818327195148
 30
0.0
 11
-245.5662833522412
 21
296.0385939640772
 31
0.0
  0
LINE
  5
100
  8
1
  6
CONTINUOUS
 62
     7
 10
-245.2292047005558
 20
281.7032315399301
 30
0.0
 11
-245.3415642511175
 21
286.5931957419533
 31
0.0
  0
LINE
  5
101
  8
1
  6
CONTINUOUS
 62
     7
 10
-245.116845149994
 20
277.5095820622037
 30
0.0
 11
-245.2292047005558
 21
281.7032315399301
 31
0.0
  0
LINE
  5
102
  8
1
  6
CONTINUOUS
 62
     7
 10
-245.0044855994321
 20
274.5293749191165
 30
0.0
 11
-245.116845149994
 21
277.5095820622037
 31
0.0
  0
LINE
  5
103
  8
1
  6
CONTINUOUS
 62
     7
 10
-244.8921260488704
 20
273.1301056313146
 30
0.0
 11
-245.0044855994321
 21
274.5293749191165
 31
0.0
  0
LINE
  5
104
  8
1
  6
CONTINUOUS
 62
     7
 10
-243.7685305432524
 20
301.0836074376742
 30
0.0
 11
-243.8321694004728
 21
301.6014066116181
 31
0.0
  0
LINE
  5
105
  8
1
  6
CONTINUOUS
 62
     7
 10
-243.6561709926895
 20
298.8593162936289
 30
0.0
 11
-243.7685305432524
 21
301.0836074376742
 31
0.0
  0
LINE
  5
106
  8
1
  6
CONTINUOUS
 62
     7
 10
-243.5438114421346
 20
295.2157874994107
 30
0.0
 11
-243.6561709926895
 21
298.8593162936289
 31
0.0
  0
LINE
  5
107
  8
1
  6
CONTINUOUS
 62
     7
 10
-243.4314518915418
 20
290.6023121416868
 30
0.0
 11
-243.5438114421346
 21
295.2157874994107
 31
0.0
  0
LINE
  5
108
  8
1
  6
CONTINUOUS
 62
     7
 10
-243.3190923411009
 20
285.5877874384337
 30
0.0
 11
-243.4314518915418
 21
290.6023121416868
 31
0.0
  0
LINE
  5
109
  8
1
  6
CONTINUOUS
 62
     7
 10
-243.2067327901235
 20
280.7905647972549
 30
0.0
 11
-243.3190923411009
 21
285.5877874384337
 31
0.0
  0
LINE
  5
10A
  8
1
  6
CONTINUOUS
 62
     7
 10
-243.0943732407546
 20
276.8021997630389
 30
0.0
 11
-243.2067327901235
 21
280.7905647972549
 31
0.0
  0
LINE
  5
10B
  8
1
  6
CONTINUOUS
 62
     7
 10
-242.9820136874858
 20
274.1145057474893
 30
0.0
 11
-243.0943732407546
 21
276.8021997630389
 31
0.0
  0
LINE
  5
10C
  8
1
  6
CONTINUOUS
 62
     7
 10
-242.8696541393986
 20
273.0589080508118
 30
0.0
 11
-242.9820136874858
 21
274.1145057474893
 31
0.0
  0
LINE
  5
10D
  8
1
  6
CONTINUOUS
 62
     7
 10
-242.091572834812
 20
302.5201450039685
 30
0.0
 11
-241.8584181837007
 21
301.65
 31
0.0
  0
LINE
  5
10E
  8
1
  6
CONTINUOUS
 62
     7
 10
-241.8341956893137
 20
273.3790180768425
 30
0.0
 11
-241.7907170635818
 21
273.0914538125686
 31
0.0
  0
ARC
  5
10F
  8
1
  6
CONTINUOUS
 62
     7
 10
-2978.277246185285
 20
177.9226686793755
 30
0.0
 40
2738.089726052044
 50
1.999427376945511
 51
2.587987617871447
  0
LINE
  5
110
  8
1
  6
CONTINUOUS
 62
     7
 10
-242.9802116374051
 20
301.5571327471734
 30
0.0
 11
-243.0263673761318
 21
301.65
 31
0.0
  0
POLYLINE
  5
111
  8
1
  6
CONTINUOUS
 62
     7
 66
     1
 10
0.0
 20
0.0
 30
0.0
  0
VERTEX
  5
487
  8
1
  6
CONTINUOUS
 62
     7
 10
-242.7584181837007
 20
302.65
 30
0.0
  0
VERTEX
  5
488
  8
1
  6
CONTINUOUS
 62
     7
 10
-242.7472339825186
 20
302.6292881787229
 30
0.0
  0
VERTEX
  5
489
  8
1
  6
CONTINUOUS
 62
     7
 10
-242.7360410321917
 20
302.5895938866747
 30
0.0
  0
VERTEX
  5
48A
  8
1
  6
CONTINUOUS
 62
     7
 10
-242.7248393113434
 20
302.531037838151
 30
0.0
  0
VERTEX
  5
48B
  8
1
  6
CONTINUOUS
 62
     7
 10
-242.7136287985969
 20
302.4537407474472
 30
0.0
  0
VERTEX
  5
48C
  8
1
  6
CONTINUOUS
 62
     7
 10
-242.7024094725757
 20
302.3578233288592
 30
0.0
  0
VERTEX
  5
48D
  8
1
  6
CONTINUOUS
 62
     7
 10
-242.6911813119029
 20
302.2434062966823
 30
0.0
  0
VERTEX
  5
48E
  8
1
  6
CONTINUOUS
 62
     7
 10
-242.6799442952019
 20
302.1106103652123
 30
0.0
  0
VERTEX
  5
48F
  8
1
  6
CONTINUOUS
 62
     7
 10
-242.6686984010961
 20
301.9595562487447
 30
0.0
  0
VERTEX
  5
490
  8
1
  6
CONTINUOUS
 62
     7
 10
-242.6574436082086
 20
301.7903646615749
 30
0.0
  0
VERTEX
  5
491
  8
1
  6
CONTINUOUS
 62
     7
 10
-242.646179895163
 20
301.6031563179987
 30
0.0
  0
VERTEX
  5
492
  8
1
  6
CONTINUOUS
 62
     7
 10
-242.63490724058
 20
301.3980574989986
 30
0.0
  0
VERTEX
  5
493
  8
1
  6
CONTINUOUS
 62
     7
 10
-242.6236256230328
 20
301.1753110109367
 30
0.0
  0
VERTEX
  5
494
  8
1
  6
CONTINUOUS
 62
     7
 10
-242.6123350210486
 20
300.9352701293846
 30
0.0
  0
VERTEX
  5
495
  8
1
  6
CONTINUOUS
 62
     7
 10
-242.601035413153
 20
300.6782924842852
 30
0.0
  0
VERTEX
  5
496
  8
1
  6
CONTINUOUS
 62
     7
 10
-242.5897267778716
 20
300.4047357055813
 30
0.0
  0
VERTEX
  5
497
  8
1
  6
CONTINUOUS
 62
     7
 10
-242.5784090937298
 20
300.1149574232157
 30
0.0
  0
VERTEX
  5
498
  8
1
  6
CONTINUOUS
 62
     7
 10
-242.5670823392533
 20
299.8093152671314
 30
0.0
  0
VERTEX
  5
499
  8
1
  6
CONTINUOUS
 62
     7
 10
-242.5557464929676
 20
299.4881668672709
 30
0.0
  0
VERTEX
  5
49A
  8
1
  6
CONTINUOUS
 62
     7
 10
-242.5444015333982
 20
299.1518698535775
 30
0.0
  0
VERTEX
  5
49B
  8
1
  6
CONTINUOUS
 62
     7
 10
-242.5330474390709
 20
298.8007818559937
 30
0.0
  0
VERTEX
  5
49C
  8
1
  6
CONTINUOUS
 62
     7
 10
-242.5216841885104
 20
298.4352605721885
 30
0.0
  0
VERTEX
  5
49D
  8
1
  6
CONTINUOUS
 62
     7
 10
-242.5103117599284
 20
298.0557103627572
 30
0.0
  0
VERTEX
  5
49E
  8
1
  6
CONTINUOUS
 62
     7
 10
-242.4989301306753
 20
297.6626636142648
 30
0.0
  0
VERTEX
  5
49F
  8
1
  6
CONTINUOUS
 62
     7
 10
-242.4875392779551
 20
297.2566744752758
 30
0.0
  0
VERTEX
  5
4A0
  8
1
  6
CONTINUOUS
 62
     7
 10
-242.4761391789721
 20
296.8382970943546
 30
0.0
  0
VERTEX
  5
4A1
  8
1
  6
CONTINUOUS
 62
     7
 10
-242.4647298109306
 20
296.4080856200658
 30
0.0
  0
VERTEX
  5
4A2
  8
1
  6
CONTINUOUS
 62
     7
 10
-242.4533111510347
 20
295.966594200974
 30
0.0
  0
VERTEX
  5
4A3
  8
1
  6
CONTINUOUS
 62
     7
 10
-242.4418831764884
 20
295.5143769856434
 30
0.0
  0
VERTEX
  5
4A4
  8
1
  6
CONTINUOUS
 62
     7
 10
-242.4304458644961
 20
295.0519881226387
 30
0.0
  0
VERTEX
  5
4A5
  8
1
  6
CONTINUOUS
 62
     7
 10
-242.4189991922619
 20
294.5799817605243
 30
0.0
  0
VERTEX
  5
4A6
  8
1
  6
CONTINUOUS
 62
     7
 10
-242.40754313699
 20
294.0989120478648
 30
0.0
  0
VERTEX
  5
4A7
  8
1
  6
CONTINUOUS
 62
     7
 10
-242.396077675808
 20
293.6093448370701
 30
0.0
  0
VERTEX
  5
4A8
  8
1
  6
CONTINUOUS
 62
     7
 10
-242.384602785314
 20
293.1119269206656
 30
0.0
  0
VERTEX
  5
4A9
  8
1
  6
CONTINUOUS
 62
     7
 10
-242.3731184418827
 20
292.6073393023761
 30
0.0
  0
VERTEX
  5
4AA
  8
1
  6
CONTINUOUS
 62
     7
 10
-242.3616246218875
 20
292.0962631076539
 30
0.0
  0
VERTEX
  5
4AB
  8
1
  6
CONTINUOUS
 62
     7
 10
-242.3501213017022
 20
291.5793794619518
 30
0.0
  0
VERTEX
  5
4AC
  8
1
  6
CONTINUOUS
 62
     7
 10
-242.3386084577005
 20
291.0573694907221
 30
0.0
  0
VERTEX
  5
4AD
  8
1
  6
CONTINUOUS
 62
     7
 10
-242.3270860662558
 20
290.5309143194173
 30
0.0
  0
VERTEX
  5
4AE
  8
1
  6
CONTINUOUS
 62
     7
 10
-242.3155541037421
 20
290.0006950734901
 30
0.0
  0
VERTEX
  5
4AF
  8
1
  6
CONTINUOUS
 62
     7
 10
-242.3040125465328
 20
289.4673928783929
 30
0.0
  0
VERTEX
  5
4B0
  8
1
  6
CONTINUOUS
 62
     7
 10
-242.2924613710016
 20
288.9316888595783
 30
0.0
  0
VERTEX
  5
4B1
  8
1
  6
CONTINUOUS
 62
     7
 10
-242.2809005534835
 20
288.3942655138637
 30
0.0
  0
VERTEX
  5
4B2
  8
1
  6
CONTINUOUS
 62
     7
 10
-242.2693300697356
 20
287.8558257978069
 30
0.0
  0
VERTEX
  5
4B3
  8
1
  6
CONTINUOUS
 62
     7
 10
-242.2577498950711
 20
287.3170883873149
 30
0.0
  0
VERTEX
  5
4B4
  8
1
  6
CONTINUOUS
 62
     7
 10
-242.2461600047921
 20
286.7787723608869
 30
0.0
  0
VERTEX
  5
4B5
  8
1
  6
CONTINUOUS
 62
     7
 10
-242.2345603742004
 20
286.2415967970224
 30
0.0
  0
VERTEX
  5
4B6
  8
1
  6
CONTINUOUS
 62
     7
 10
-242.222950978598
 20
285.7062807742207
 30
0.0
  0
VERTEX
  5
4B7
  8
1
  6
CONTINUOUS
 62
     7
 10
-242.2113317932868
 20
285.1735433709813
 30
0.0
  0
VERTEX
  5
4B8
  8
1
  6
CONTINUOUS
 62
     7
 10
-242.1997027935686
 20
284.6441036658035
 30
0.0
  0
VERTEX
  5
4B9
  8
1
  6
CONTINUOUS
 62
     7
 10
-242.1880639547454
 20
284.1186807371867
 30
0.0
  0
VERTEX
  5
4BA
  8
1
  6
CONTINUOUS
 62
     7
 10
-242.1764152521191
 20
283.5979936636302
 30
0.0
  0
VERTEX
  5
4BB
  8
1
  6
CONTINUOUS
 62
     7
 10
-242.1647566609735
 20
283.0827605095694
 30
0.0
  0
VERTEX
  5
4BC
  8
1
  6
CONTINUOUS
 62
     7
 10
-242.1530881561029
 20
282.5736719797994
 30
0.0
  0
VERTEX
  5
4BD
  8
1
  6
CONTINUOUS
 62
     7
 10
-242.1414097117682
 20
282.0713889694732
 30
0.0
  0
VERTEX
  5
4BE
  8
1
  6
CONTINUOUS
 62
     7
 10
-242.1297213022038
 20
281.5765708685495
 30
0.0
  0
VERTEX
  5
4BF
  8
1
  6
CONTINUOUS
 62
     7
 10
-242.1180229016435
 20
281.0898770669873
 30
0.0
  0
VERTEX
  5
4C0
  8
1
  6
CONTINUOUS
 62
     7
 10
-242.1063144843216
 20
280.611966954745
 30
0.0
  0
VERTEX
  5
4C1
  8
1
  6
CONTINUOUS
 62
     7
 10
-242.0945960244722
 20
280.1434999217813
 30
0.0
  0
VERTEX
  5
4C2
  8
1
  6
CONTINUOUS
 62
     7
 10
-242.0828674963292
 20
279.685135358055
 30
0.0
  0
VERTEX
  5
4C3
  8
1
  6
CONTINUOUS
 62
     7
 10
-242.0711288741269
 20
279.2375326535248
 30
0.0
  0
VERTEX
  5
4C4
  8
1
  6
CONTINUOUS
 62
     7
 10
-242.0593801320993
 20
278.8013511981492
 30
0.0
  0
VERTEX
  5
4C5
  8
1
  6
CONTINUOUS
 62
     7
 10
-242.0476212444666
 20
278.3772484978677
 30
0.0
  0
VERTEX
  5
4C6
  8
1
  6
CONTINUOUS
 62
     7
 10
-242.0358521849607
 20
277.965816787367
 30
0.0
  0
VERTEX
  5
4C7
  8
1
  6
CONTINUOUS
 62
     7
 10
-242.0240729267122
 20
277.567567854233
 30
0.0
  0
VERTEX
  5
4C8
  8
1
  6
CONTINUOUS
 62
     7
 10
-242.012283442815
 20
277.1830085252219
 30
0.0
  0
VERTEX
  5
4C9
  8
1
  6
CONTINUOUS
 62
     7
 10
-242.0004837063625
 20
276.81264562709
 30
0.0
  0
VERTEX
  5
4CA
  8
1
  6
CONTINUOUS
 62
     7
 10
-241.9886736904484
 20
276.4569859865933
 30
0.0
  0
VERTEX
  5
4CB
  8
1
  6
CONTINUOUS
 62
     7
 10
-241.9768533681662
 20
276.1165364304882
 30
0.0
  0
VERTEX
  5
4CC
  8
1
  6
CONTINUOUS
 62
     7
 10
-241.9650227126096
 20
275.7918037855309
 30
0.0
  0
VERTEX
  5
4CD
  8
1
  6
CONTINUOUS
 62
     7
 10
-241.9531816968722
 20
275.4832948784776
 30
0.0
  0
VERTEX
  5
4CE
  8
1
  6
CONTINUOUS
 62
     7
 10
-241.9413302940475
 20
275.1915165360845
 30
0.0
  0
VERTEX
  5
4CF
  8
1
  6
CONTINUOUS
 62
     7
 10
-241.92946847721
 20
274.9169719028181
 30
0.0
  0
VERTEX
  5
4D0
  8
1
  6
CONTINUOUS
 62
     7
 10
-241.9175962188907
 20
274.6600607872642
 30
0.0
  0
VERTEX
  5
4D1
  8
1
  6
CONTINUOUS
 62
     7
 10
-241.9057134910172
 20
274.4210681028842
 30
0.0
  0
VERTEX
  5
4D2
  8
1
  6
CONTINUOUS
 62
     7
 10
-241.8938202654855
 20
274.2002727608493
 30
0.0
  0
VERTEX
  5
4D3
  8
1
  6
CONTINUOUS
 62
     7
 10
-241.8819165141917
 20
273.9979536723307
 30
0.0
  0
VERTEX
  5
4D4
  8
1
  6
CONTINUOUS
 62
     7
 10
-241.8700022090316
 20
273.8143897484996
 30
0.0
  0
VERTEX
  5
4D5
  8
1
  6
CONTINUOUS
 62
     7
 10
-241.8580773219012
 20
273.649859900527
 30
0.0
  0
VERTEX
  5
4D6
  8
1
  6
CONTINUOUS
 62
     7
 10
-241.8461418246966
 20
273.5046430395842
 30
0.0
  0
VERTEX
  5
4D7
  8
1
  6
CONTINUOUS
 62
     7
 10
-241.8341956893137
 20
273.3790180768425
 30
0.0
  0
SEQEND
  5
569
  8
1
  6
CONTINUOUS
 62
     7
  0
LINE
  5
112
  8
1
  6
CONTINUOUS
 62
     7
 10
-241.7591885559584
 20
273.0500329773657
 30
0.0
 11
-241.7723210486811
 21
273.0585895312651
 31
0.0
  0
LINE
  5
113
  8
1
  6
CONTINUOUS
 62
     7
 10
-241.7723210486811
 20
273.0585895312651
 30
0.0
 11
-241.7891116044097
 21
273.0914502346679
 31
0.0
  0
LINE
  5
114
  8
1
  6
CONTINUOUS
 62
     7
 10
-241.7891116044097
 20
273.0914502346679
 30
0.0
 11
-241.8491933871516
 21
273.4097151765294
 31
0.0
  0
LINE
  5
115
  8
1
  6
CONTINUOUS
 62
     7
 10
-241.8491933871516
 20
273.4097151765293
 30
0.0
 11
-241.8545355290519
 21
273.4532738096199
 31
0.0
  0
POLYLINE
  5
116
  8
1
  6
CONTINUOUS
 62
     7
 66
     1
 10
0.0
 20
0.0
 30
0.0
  0
VERTEX
  5
4D8
  8
1
  6
CONTINUOUS
 62
     7
 10
-241.7757296582565
 20
273.0543071079701
 30
0.0
  0
VERTEX
  5
4D9
  8
1
  6
CONTINUOUS
 62
     7
 10
-241.7750408554169
 20
273.0533610719095
 30
0.0
  0
VERTEX
  5
4DA
  8
1
  6
CONTINUOUS
 62
     7
 10
-241.7743520169871
 20
273.0524818080789
 30
0.0
  0
VERTEX
  5
4DB
  8
1
  6
CONTINUOUS
 62
     7
 10
-241.7736631429615
 20
273.0516693172686
 30
0.0
  0
VERTEX
  5
4DC
  8
1
  6
CONTINUOUS
 62
     7
 10
-241.7729742333344
 20
273.0509236002686
 30
0.0
  0
VERTEX
  5
4DD
  8
1
  6
CONTINUOUS
 62
     7
 10
-241.7722852881004
 20
273.0502446578693
 30
0.0
  0
VERTEX
  5
4DE
  8
1
  6
CONTINUOUS
 62
     7
 10
-241.771596307254
 20
273.0496324908608
 30
0.0
  0
VERTEX
  5
4DF
  8
1
  6
CONTINUOUS
 62
     7
 10
-241.7709072907895
 20
273.0490871000333
 30
0.0
  0
VERTEX
  5
4E0
  8
1
  6
CONTINUOUS
 62
     7
 10
-241.7702182387014
 20
273.0486084861769
 30
0.0
  0
VERTEX
  5
4E1
  8
1
  6
CONTINUOUS
 62
     7
 10
-241.7695291509842
 20
273.048196650082
 30
0.0
  0
VERTEX
  5
4E2
  8
1
  6
CONTINUOUS
 62
     7
 10
-241.7688400276323
 20
273.0478515925388
 30
0.0
  0
VERTEX
  5
4E3
  8
1
  6
CONTINUOUS
 62
     7
 10
-241.7681508686402
 20
273.0475733143373
 30
0.0
  0
VERTEX
  5
4E4
  8
1
  6
CONTINUOUS
 62
     7
 10
-241.7674616740024
 20
273.047361816268
 30
0.0
  0
VERTEX
  5
4E5
  8
1
  6
CONTINUOUS
 62
     7
 10
-241.7667724437132
 20
273.0472170991208
 30
0.0
  0
VERTEX
  5
4E6
  8
1
  6
CONTINUOUS
 62
     7
 10
-241.7660831777671
 20
273.047139163686
 30
0.0
  0
VERTEX
  5
4E7
  8
1
  6
CONTINUOUS
 62
     7
 10
-241.7653938761587
 20
273.0471280107539
 30
0.0
  0
VERTEX
  5
4E8
  8
1
  6
CONTINUOUS
 62
     7
 10
-241.7647045388823
 20
273.0471836411145
 30
0.0
  0
VERTEX
  5
4E9
  8
1
  6
CONTINUOUS
 62
     7
 10
-241.7640151659323
 20
273.0473060555582
 30
0.0
  0
VERTEX
  5
4EA
  8
1
  6
CONTINUOUS
 62
     7
 10
-241.7633257573033
 20
273.0474952548751
 30
0.0
  0
VERTEX
  5
4EB
  8
1
  6
CONTINUOUS
 62
     7
 10
-241.7626363129897
 20
273.0477512398555
 30
0.0
  0
VERTEX
  5
4EC
  8
1
  6
CONTINUOUS
 62
     7
 10
-241.761946832986
 20
273.0480740112895
 30
0.0
  0
VERTEX
  5
4ED
  8
1
  6
CONTINUOUS
 62
     7
 10
-241.7612573172865
 20
273.0484635699673
 30
0.0
  0
VERTEX
  5
4EE
  8
1
  6
CONTINUOUS
 62
     7
 10
-241.7605677658858
 20
273.0489199166792
 30
0.0
  0
VERTEX
  5
4EF
  8
1
  6
CONTINUOUS
 62
     7
 10
-241.7598781787782
 20
273.0494430522152
 30
0.0
  0
VERTEX
  5
4F0
  8
1
  6
CONTINUOUS
 62
     7
 10
-241.7591885559584
 20
273.0500329773657
 30
0.0
  0
SEQEND
  5
56A
  8
1
  6
CONTINUOUS
 62
     7
  0
POLYLINE
  5
117
  8
1
  6
CONTINUOUS
 62
     7
 66
     1
 10
0.0
 20
0.0
 30
0.0
  0
VERTEX
  5
4F1
  8
1
  6
CONTINUOUS
 62
     7
 10
-241.1586689436498
 20
273.0915394274093
 30
0.0
  0
VERTEX
  5
4F2
  8
1
  6
CONTINUOUS
 62
     7
 10
-241.1692315143517
 20
273.1368133899642
 30
0.0
  0
VERTEX
  5
4F3
  8
1
  6
CONTINUOUS
 62
     7
 10
-241.1797857401534
 20
273.1978296081058
 30
0.0
  0
VERTEX
  5
4F4
  8
1
  6
CONTINUOUS
 62
     7
 10
-241.1903316411363
 20
273.2745816253573
 30
0.0
  0
VERTEX
  5
4F5
  8
1
  6
CONTINUOUS
 62
     7
 10
-241.2008692369762
 20
273.3669747637807
 30
0.0
  0
VERTEX
  5
4F6
  8
1
  6
CONTINUOUS
 62
     7
 10
-241.211398546926
 20
273.4748224148912
 30
0.0
  0
VERTEX
  5
4F7
  8
1
  6
CONTINUOUS
 62
     7
 10
-241.2219195902196
 20
273.5979336705291
 30
0.0
  0
VERTEX
  5
4F8
  8
1
  6
CONTINUOUS
 62
     7
 10
-241.2324323860902
 20
273.7361176225339
 30
0.0
  0
VERTEX
  5
4F9
  8
1
  6
CONTINUOUS
 62
     7
 10
-241.2429369537712
 20
273.8891833627458
 30
0.0
  0
VERTEX
  5
4FA
  8
1
  6
CONTINUOUS
 62
     7
 10
-241.2534333124961
 20
274.0569399830046
 30
0.0
  0
VERTEX
  5
4FB
  8
1
  6
CONTINUOUS
 62
     7
 10
-241.2639214814984
 20
274.2391965751502
 30
0.0
  0
VERTEX
  5
4FC
  8
1
  6
CONTINUOUS
 62
     7
 10
-241.2744014800115
 20
274.4357622310225
 30
0.0
  0
VERTEX
  5
4FD
  8
1
  6
CONTINUOUS
 62
     7
 10
-241.2848733272689
 20
274.6464460424613
 30
0.0
  0
VERTEX
  5
4FE
  8
1
  6
CONTINUOUS
 62
     7
 10
-241.2953370425039
 20
274.8710571013067
 30
0.0
  0
VERTEX
  5
4FF
  8
1
  6
CONTINUOUS
 62
     7
 10
-241.3057926449472
 20
275.1094039303039
 30
0.0
  0
VERTEX
  5
500
  8
1
  6
CONTINUOUS
 62
     7
 10
-241.3162401535546
 20
275.3612428454013
 30
0.0
  0
VERTEX
  5
501
  8
1
  6
CONTINUOUS
 62
     7
 10
-241.3266795867913
 20
275.6262366810166
 30
0.0
  0
VERTEX
  5
502
  8
1
  6
CONTINUOUS
 62
     7
 10
-241.3371109630711
 20
275.9040385587154
 30
0.0
  0
VERTEX
  5
503
  8
1
  6
CONTINUOUS
 62
     7
 10
-241.3475343008078
 20
276.1943016000637
 30
0.0
  0
VERTEX
  5
504
  8
1
  6
CONTINUOUS
 62
     7
 10
-241.3579496184155
 20
276.4966789266271
 30
0.0
  0
VERTEX
  5
505
  8
1
  6
CONTINUOUS
 62
     7
 10
-241.3683569343079
 20
276.8108236599716
 30
0.0
  0
VERTEX
  5
506
  8
1
  6
CONTINUOUS
 62
     7
 10
-241.3787562668989
 20
277.1363889216627
 30
0.0
  0
VERTEX
  5
507
  8
1
  6
CONTINUOUS
 62
     7
 10
-241.3891476346024
 20
277.4730278332666
 30
0.0
  0
VERTEX
  5
508
  8
1
  6
CONTINUOUS
 62
     7
 10
-241.3995310558323
 20
277.8203935163488
 30
0.0
  0
VERTEX
  5
509
  8
1
  6
CONTINUOUS
 62
     7
 10
-241.4099065490026
 20
278.1781390924751
 30
0.0
  0
VERTEX
  5
50A
  8
1
  6
CONTINUOUS
 62
     7
 10
-241.4202741325271
 20
278.5459176832115
 30
0.0
  0
VERTEX
  5
50B
  8
1
  6
CONTINUOUS
 62
     7
 10
-241.4306338246982
 20
278.9233661757546
 30
0.0
  0
VERTEX
  5
50C
  8
1
  6
CONTINUOUS
 62
     7
 10
-241.4409856432887
 20
279.3100519100254
 30
0.0
  0
VERTEX
  5
50D
  8
1
  6
CONTINUOUS
 62
     7
 10
-241.451329605932
 20
279.7055236060258
 30
0.0
  0
VERTEX
  5
50E
  8
1
  6
CONTINUOUS
 62
     7
 10
-241.4616657302614
 20
280.1093299835502
 30
0.0
  0
VERTEX
  5
50F
  8
1
  6
CONTINUOUS
 62
     7
 10
-241.4719940339104
 20
280.5210197623927
 30
0.0
  0
VERTEX
  5
510
  8
1
  6
CONTINUOUS
 62
     7
 10
-241.4823145345123
 20
280.9401416623475
 30
0.0
  0
VERTEX
  5
511
  8
1
  6
CONTINUOUS
 62
     7
 10
-241.4926272497008
 20
281.3662444032092
 30
0.0
  0
VERTEX
  5
512
  8
1
  6
CONTINUOUS
 62
     7
 10
-241.5029321971091
 20
281.7988767047717
 30
0.0
  0
VERTEX
  5
513
  8
1
  6
CONTINUOUS
 62
     7
 10
-241.5132293943707
 20
282.2375872868295
 30
0.0
  0
VERTEX
  5
514
  8
1
  6
CONTINUOUS
 62
     7
 10
-241.5235188591189
 20
282.6819248691767
 30
0.0
  0
VERTEX
  5
515
  8
1
  6
CONTINUOUS
 62
     7
 10
-241.5338006089873
 20
283.1314381716077
 30
0.0
  0
VERTEX
  5
516
  8
1
  6
CONTINUOUS
 62
     7
 10
-241.5440746615858
 20
283.5856746102568
 30
0.0
  0
VERTEX
  5
517
  8
1
  6
CONTINUOUS
 62
     7
 10
-241.5543410341408
 20
284.0441601489551
 30
0.0
  0
VERTEX
  5
518
  8
1
  6
CONTINUOUS
 62
     7
 10
-241.5645997435644
 20
284.5064031821427
 30
0.0
  0
VERTEX
  5
519
  8
1
  6
CONTINUOUS
 62
     7
 10
-241.5748508067591
 20
284.9719115869016
 30
0.0
  0
VERTEX
  5
51A
  8
1
  6
CONTINUOUS
 62
     7
 10
-241.5850942406279
 20
285.4401932403135
 30
0.0
  0
VERTEX
  5
51B
  8
1
  6
CONTINUOUS
 62
     7
 10
-241.5953300620734
 20
285.9107560194602
 30
0.0
  0
VERTEX
  5
51C
  8
1
  6
CONTINUOUS
 62
     7
 10
-241.6055582879984
 20
286.3831078014235
 30
0.0
  0
VERTEX
  5
51D
  8
1
  6
CONTINUOUS
 62
     7
 10
-241.6157789353055
 20
286.8567564632852
 30
0.0
  0
VERTEX
  5
51E
  8
1
  6
CONTINUOUS
 62
     7
 10
-241.6259920208977
 20
287.331209882127
 30
0.0
  0
VERTEX
  5
51F
  8
1
  6
CONTINUOUS
 62
     7
 10
-241.6361975616775
 20
287.8059759350308
 30
0.0
  0
VERTEX
  5
520
  8
1
  6
CONTINUOUS
 62
     7
 10
-241.6463955745478
 20
288.2805624990783
 30
0.0
  0
VERTEX
  5
521
  8
1
  6
CONTINUOUS
 62
     7
 10
-241.6565860764111
 20
288.7544774533703
 30
0.0
  0
VERTEX
  5
522
  8
1
  6
CONTINUOUS
 62
     7
 10
-241.6667690840175
 20
289.2272340858549
 30
0.0
  0
VERTEX
  5
523
  8
1
  6
CONTINUOUS
 62
     7
 10
-241.6769446136322
 20
289.6983628526656
 30
0.0
  0
VERTEX
  5
524
  8
1
  6
CONTINUOUS
 62
     7
 10
-241.687112681424
 20
290.16739760839
 30
0.0
  0
VERTEX
  5
525
  8
1
  6
CONTINUOUS
 62
     7
 10
-241.6972733035623
 20
290.6338722076162
 30
0.0
  0
VERTEX
  5
526
  8
1
  6
CONTINUOUS
 62
     7
 10
-241.7074264962162
 20
291.0973205049318
 30
0.0
  0
VERTEX
  5
527
  8
1
  6
CONTINUOUS
 62
     7
 10
-241.7175722755547
 20
291.5572763549247
 30
0.0
  0
VERTEX
  5
528
  8
1
  6
CONTINUOUS
 62
     7
 10
-241.7277106577471
 20
292.013273612183
 30
0.0
  0
VERTEX
  5
529
  8
1
  6
CONTINUOUS
 62
     7
 10
-241.7378416589624
 20
292.4648461312945
 30
0.0
  0
VERTEX
  5
52A
  8
1
  6
CONTINUOUS
 62
     7
 10
-241.7479652953698
 20
292.9115277668469
 30
0.0
  0
VERTEX
  5
52B
  8
1
  6
CONTINUOUS
 62
     7
 10
-241.7580815831384
 20
293.3528523734283
 30
0.0
  0
VERTEX
  5
52C
  8
1
  6
CONTINUOUS
 62
     7
 10
-241.7681905384374
 20
293.7883538056263
 30
0.0
  0
VERTEX
  5
52D
  8
1
  6
CONTINUOUS
 62
     7
 10
-241.7782921774253
 20
294.2175675252418
 30
0.0
  0
VERTEX
  5
52E
  8
1
  6
CONTINUOUS
 62
     7
 10
-241.7883865159957
 20
294.6400695698615
 30
0.0
  0
VERTEX
  5
52F
  8
1
  6
CONTINUOUS
 62
     7
 10
-241.7984735697632
 20
295.0554786658437
 30
0.0
  0
VERTEX
  5
530
  8
1
  6
CONTINUOUS
 62
     7
 10
-241.808553354329
 20
295.463415569698
 30
0.0
  0
VERTEX
  5
531
  8
1
  6
CONTINUOUS
 62
     7
 10
-241.8186258852944
 20
295.8635010379336
 30
0.0
  0
VERTEX
  5
532
  8
1
  6
CONTINUOUS
 62
     7
 10
-241.8286911782608
 20
296.2553558270603
 30
0.0
  0
VERTEX
  5
533
  8
1
  6
CONTINUOUS
 62
     7
 10
-241.8387492488294
 20
296.6386006935871
 30
0.0
  0
VERTEX
  5
534
  8
1
  6
CONTINUOUS
 62
     7
 10
-241.8488001126015
 20
297.0128563940239
 30
0.0
  0
VERTEX
  5
535
  8
1
  6
CONTINUOUS
 62
     7
 10
-241.8588437851786
 20
297.3777436848798
 30
0.0
  0
VERTEX
  5
536
  8
1
  6
CONTINUOUS
 62
     7
 10
-241.8688802821616
 20
297.7328833226643
 30
0.0
  0
VERTEX
  5
537
  8
1
  6
CONTINUOUS
 62
     7
 10
-241.8789096191521
 20
298.077896063887
 30
0.0
  0
VERTEX
  5
538
  8
1
  6
CONTINUOUS
 62
     7
 10
-241.8889318117514
 20
298.4124026650572
 30
0.0
  0
VERTEX
  5
539
  8
1
  6
CONTINUOUS
 62
     7
 10
-241.8989468754876
 20
298.7360347423436
 30
0.0
  0
VERTEX
  5
53A
  8
1
  6
CONTINUOUS
 62
     7
 10
-241.9089548253224
 20
299.0485080427192
 30
0.0
  0
VERTEX
  5
53B
  8
1
  6
CONTINUOUS
 62
     7
 10
-241.9189556759537
 20
299.3495775907502
 30
0.0
  0
VERTEX
  5
53C
  8
1
  6
CONTINUOUS
 62
     7
 10
-241.9289494420771
 20
299.6389986325178
 30
0.0
  0
VERTEX
  5
53D
  8
1
  6
CONTINUOUS
 62
     7
 10
-241.9389361383887
 20
299.9165264141031
 30
0.0
  0
VERTEX
  5
53E
  8
1
  6
CONTINUOUS
 62
     7
 10
-241.9489157795844
 20
300.1819161815877
 30
0.0
  0
VERTEX
  5
53F
  8
1
  6
CONTINUOUS
 62
     7
 10
-241.9588883803603
 20
300.4349231810526
 30
0.0
  0
VERTEX
  5
540
  8
1
  6
CONTINUOUS
 62
     7
 10
-241.9688539554123
 20
300.6753026585793
 30
0.0
  0
VERTEX
  5
541
  8
1
  6
CONTINUOUS
 62
     7
 10
-241.9788125194364
 20
300.9028098602489
 30
0.0
  0
VERTEX
  5
542
  8
1
  6
CONTINUOUS
 62
     7
 10
-241.9887640871285
 20
301.117200032143
 30
0.0
  0
VERTEX
  5
543
  8
1
  6
CONTINUOUS
 62
     7
 10
-241.9987086731847
 20
301.3182284203426
 30
0.0
  0
VERTEX
  5
544
  8
1
  6
CONTINUOUS
 62
     7
 10
-242.0086462923009
 20
301.5056502709292
 30
0.0
  0
VERTEX
  5
545
  8
1
  6
CONTINUOUS
 62
     7
 10
-242.0185769591625
 20
301.6792472204152
 30
0.0
  0
VERTEX
  5
546
  8
1
  6
CONTINUOUS
 62
     7
 10
-242.0285006884116
 20
301.8389089896941
 30
0.0
  0
VERTEX
  5
547
  8
1
  6
CONTINUOUS
 62
     7
 10
-242.0384174946793
 20
301.9845529664165
 30
0.0
  0
VERTEX
  5
548
  8
1
  6
CONTINUOUS
 62
     7
 10
-242.0483273925965
 20
302.1160965382467
 30
0.0
  0
VERTEX
  5
549
  8
1
  6
CONTINUOUS
 62
     7
 10
-242.0582303967945
 20
302.2334570928485
 30
0.0
  0
SEQEND
  5
56B
  8
1
  6
CONTINUOUS
 62
     7
  0
LINE
  5
118
  8
1
  6
CONTINUOUS
 62
     7
 10
-241.1271133851422
 20
273.0500328109501
 30
0.0
 11
-241.1586689436497
 21
273.0915394274093
 31
0.0
  0
LINE
  5
119
  8
1
  6
CONTINUOUS
 62
     7
 10
-242.0582303967944
 20
302.2334570928485
 30
0.0
 11
-242.1263673761318
 21
302.6499999999999
 31
0.0
  0
ARC
  5
11A
  8
1
  6
CONTINUOUS
 62
     7
 10
9050.817738140373
 20
506.1224347213158
 30
0.0
 40
9294.88268401335
 50
181.2625581969258
 51
181.4366370880513
  0
LINE
  5
11B
  8
1
  6
CONTINUOUS
 62
     7
 10
-241.1432160991766
 20
273.0865266323059
 30
0.0
 11
-241.1271133851422
 21
273.0500328109502
 31
0.0
  0
LINE
  5
11C
  8
1
  6
CONTINUOUS
 62
     7
 10
-241.8584181837006
 20
301.65
 30
0.0
 11
-241.8083494772111
 21
301.3188573591436
 31
0.0
  0
LINE
  5
11D
  8
1
  6
CONTINUOUS
 62
     7
 10
-242.8584178726462
 20
273.0500000000058
 30
0.0
 11
-242.8696541393986
 21
273.0589080508118
 31
0.0
  0
LINE
  5
11E
  8
1
  6
CONTINUOUS
 62
     7
 10
-244.858418403297
 20
273.0500000000042
 30
0.0
 11
-244.8921260488704
 21
273.1301056313146
 31
0.0
  0
LINE
  5
11F
  8
1
  6
CONTINUOUS
 62
     7
 10
-246.8584181583797
 20
273.05
 30
0.0
 11
-246.9145979589827
 21
273.2721460112946
 31
0.0
  0
LINE
  5
120
  8
1
  6
CONTINUOUS
 62
     7
 10
-248.8584179134728
 20
273.0500000000042
 30
0.0
 11
-248.9370698690951
 21
273.4843215517093
 31
0.0
  0
LINE
  5
121
  8
1
  6
CONTINUOUS
 62
     7
 10
-249.0263677280023
 20
301.6499999999925
 30
0.0
 11
-248.981423555906
 21
301.5076935402849
 31
0.0
  0
LINE
  5
122
  8
1
  6
CONTINUOUS
 62
     7
 10
-247.0263670748975
 20
301.6499999999925
 30
0.0
 11
-246.9589516457936
 21
301.3304751840857
 31
0.0
  0
LINE
  5
123
  8
1
  6
CONTINUOUS
 62
     7
 10
-245.0263675647303
 20
301.6499999999982
 30
0.0
 11
-244.9364797356814
 21
301.0836068037592
 31
0.0
  0
LINE
  5
124
  8
1
  6
CONTINUOUS
 62
     9
 10
-270.2922984758649
 20
298.9540824315105
 30
0.0
 11
-270.2922984758649
 21
275.7459175684895
 31
0.0
  0
ARC
  5
125
  8
1
  6
CONTINUOUS
 62
     7
 10
-266.9148224603174
 20
287.35
 30
0.0
 40
4.300135491771847
 50
324.4525460253795
 51
35.54745397462209
  0
ARC
  5
126
  8
1
  6
CONTINUOUS
 62
     7
 10
-253.6758653466013
 20
278.35
 30
0.0
 40
11.70990499157166
 50
146.2833869731009
 51
213.7166130268987
  0
POLYLINE
  5
127
  8
1
  6
CONTINUOUS
 62
     7
 66
     1
 10
0.0
 20
0.0
 30
0.0
  0
VERTEX
  5
54A
  8
1
  6
CONTINUOUS
 62
     7
 10
-263.4160847954466
 20
269.35
 30
0.0
  0
VERTEX
  5
54B
  8
1
  6
CONTINUOUS
 62
     7
 10
-263.2599092184772
 20
269.3580344893932
 30
0.0
  0
VERTEX
  5
54C
  8
1
  6
CONTINUOUS
 62
     7
 10
-263.0681444164356
 20
269.3955968735388
 30
0.0
  0
VERTEX
  5
54D
  8
1
  6
CONTINUOUS
 62
     7
 10
-262.9210983676695
 20
269.4558424366444
 30
0.0
  0
VERTEX
  5
54E
  8
1
  6
CONTINUOUS
 62
     7
 10
-262.814777558134
 20
269.5286402972374
 30
0.0
  0
VERTEX
  5
54F
  8
1
  6
CONTINUOUS
 62
     7
 10
-262.7293375265016
 20
269.6211680492846
 30
0.0
  0
VERTEX
  5
550
  8
1
  6
CONTINUOUS
 62
     7
 10
-262.6653298452229
 20
269.7365817985381
 30
0.0
  0
VERTEX
  5
551
  8
1
  6
CONTINUOUS
 62
     7
 10
-262.6261579610626
 20
269.8761238985946
 30
0.0
  0
VERTEX
  5
552
  8
1
  6
CONTINUOUS
 62
     7
 10
-262.6146997751824
 20
270.0234203387049
 30
0.0
  0
VERTEX
  5
553
  8
1
  6
CONTINUOUS
 62
     7
 10
-262.6250722036098
 20
270.171476157792
 30
0.0
  0
SEQEND
  5
56C
  8
1
  6
CONTINUOUS
 62
     7
  0
ARC
  5
128
  8
1
  6
CONTINUOUS
 62
     7
 10
-267.2416580016952
 20
269.0215336640451
 30
0.0
 40
4.757649857861453
 50
13.9871273675624
 51
36.47764786725796
  0
ARC
  5
129
  8
1
  6
CONTINUOUS
 62
     7
 10
-266.5864623599347
 20
305.3275367670204
 30
0.0
 40
4.023615579719102
 50
321.9936449409746
 51
350.7916075417891
  0
POLYLINE
  5
12A
  8
1
  6
CONTINUOUS
 62
     7
 66
     1
 10
0.0
 20
0.0
 30
0.0
  0
VERTEX
  5
554
  8
1
  6
CONTINUOUS
 62
     7
 10
-262.6146997751825
 20
304.6836545544062
 30
0.0
  0
VERTEX
  5
555
  8
1
  6
CONTINUOUS
 62
     7
 10
-262.6250722036099
 20
304.8172766130423
 30
0.0
  0
VERTEX
  5
556
  8
1
  6
CONTINUOUS
 62
     7
 10
-262.6556488963878
 20
304.9381592378708
 30
0.0
  0
VERTEX
  5
557
  8
1
  6
CONTINUOUS
 62
     7
 10
-262.7066241878533
 20
305.0448745673601
 30
0.0
  0
VERTEX
  5
558
  8
1
  6
CONTINUOUS
 62
     7
 10
-262.7809093873585
 20
305.13972010575
 30
0.0
  0
VERTEX
  5
559
  8
1
  6
CONTINUOUS
 62
     7
 10
-262.8804266153918
 20
305.220133647399
 30
0.0
  0
VERTEX
  5
55A
  8
1
  6
CONTINUOUS
 62
     7
 10
-263.0005687276521
 20
305.2810952678543
 30
0.0
  0
VERTEX
  5
55B
  8
1
  6
CONTINUOUS
 62
     7
 10
-263.1393595951673
 20
305.3226847117439
 30
0.0
  0
VERTEX
  5
55C
  8
1
  6
CONTINUOUS
 62
     7
 10
-263.3130174232126
 20
305.3466078850462
 30
0.0
  0
VERTEX
  5
55D
  8
1
  6
CONTINUOUS
 62
     7
 10
-263.4160847954451
 20
305.35
 30
0.0
  0
SEQEND
  5
56D
  8
1
  6
CONTINUOUS
 62
     7
  0
ARC
  5
12B
  8
1
  6
CONTINUOUS
 62
     7
 10
-253.6755460657112
 20
296.35
 30
0.0
 40
11.71017056858893
 50
146.2842541193093
 51
213.7157458807048
  0
LINE
  5
12C
  8
1
  6
CONTINUOUS
 62
     9
 10
-263.4160847954451
 20
289.85
 30
0.0
 11
-250.3423927799163
 21
289.85
 31
0.0
  0
LINE
  5
12D
  8
1
  6
CONTINUOUS
 62
     9
 10
-250.3423927799163
 20
302.85
 30
0.0
 11
-263.4160847954467
 21
302.8499999999976
 31
0.0
  0
LINE
  5
12E
  8
1
  6
CONTINUOUS
 62
     9
 10
-263.4160847954451
 20
271.85
 30
0.0
 11
-250.3423927799163
 21
271.85
 31
0.0
  0
LINE
  5
12F
  8
1
  6
CONTINUOUS
 62
     9
 10
-250.3423927799163
 20
284.85
 30
0.0
 11
-263.4160847954451
 21
284.8500000000001
 31
0.0
  0
ARC
  5
130
  8
1
  6
CONTINUOUS
 62
     7
 10
-218.8923927799163
 20
268.95
 30
0.0
 40
1.250000000000029
 50
180.0000000000003
 51
270.0000000000007
  0
ARC
  5
131
  8
1
  6
CONTINUOUS
 62
     7
 10
-201.3923927799163
 20
305.7499999999999
 30
0.0
 40
1.250000000000001
 50
0.0
 51
90.0
  0
ARC
  5
132
  8
1
  6
CONTINUOUS
 62
     7
 10
-201.3923927799163
 20
268.95
 30
0.0
 40
1.250000000000029
 50
270.0
 51
0.0
  0
LINE
  5
133
  8
1
  6
CONTINUOUS
 62
     7
 10
-218.8923927799163
 20
267.7
 30
0.0
 11
-201.3923927799163
 21
267.7
 31
0.0
  0
ARC
  5
134
  8
1
  6
CONTINUOUS
 62
     7
 10
-218.8923927799163
 20
305.7499999999999
 30
0.0
 40
1.250000000000029
 50
89.99999999999936
 51
179.9999999999996
  0
LINE
  5
135
  8
1
  6
CONTINUOUS
 62
     7
 10
-201.3923927799163
 20
307.0
 30
0.0
 11
-218.8923927799163
 21
307.0
 31
0.0
  0
ARC
  5
136
  8
1
  6
CONTINUOUS
 62
     7
 10
-239.0807147335532
 20
304.8
 30
0.0
 40
0.5000000000000004
 50
90.0
 51
164.9999999999997
  0
ARC
  5
137
  8
1
  6
CONTINUOUS
 62
     7
 10
-239.0807147335532
 20
269.9
 30
0.0
 40
0.4999999999999986
 50
195.0000000000003
 51
270.0
  0
LINE
  5
138
  8
1
  6
CONTINUOUS
 62
     7
 10
-239.0807147335532
 20
269.4
 30
0.0
 11
-220.1423927799163
 21
269.4
 31
0.0
  0
LINE
  5
139
  8
1
  6
CONTINUOUS
 62
     7
 10
-220.1423927799163
 20
305.3
 30
0.0
 11
-239.0807147335532
 21
305.3
 31
0.0
  0
LINE
  5
13A
  8
1
  6
CONTINUOUS
 62
     7
 10
-239.5636776466978
 20
304.9294095225513
 30
0.0
 11
-240.4423927799163
 21
301.65
 31
0.0
  0
LINE
  5
13B
  8
1
  6
CONTINUOUS
 62
     7
 10
-240.4423927799163
 20
273.05
 30
0.0
 11
-239.5636776466978
 21
269.7705904774487
 31
0.0
  0
LINE
  5
13C
  8
1
  6
CONTINUOUS
 62
     7
 10
-249.758458796036
 20
272.0504502133035
 30
0.0
 11
-249.1264079629202
 21
272.0504502129133
 31
0.0
  0
LINE
  5
13D
  8
1
  6
CONTINUOUS
 62
     7
 10
-247.7584181965201
 20
272.0506380544491
 30
0.0
 11
-247.1263673633124
 21
272.0506380544491
 31
0.0
  0
LINE
  5
13E
  8
1
  6
CONTINUOUS
 62
     7
 10
-245.7583775969123
 20
272.0504502129133
 30
0.0
 11
-245.1263267637965
 21
272.0504502133035
 31
0.0
  0
LINE
  5
13F
  8
1
  6
CONTINUOUS
 62
     7
 10
-243.758329327579
 20
272.0500838972705
 30
0.0
 11
-243.1262784943481
 21
272.050083897607
 31
0.0
  0
LINE
  5
140
  8
1
  6
CONTINUOUS
 62
     7
 10
-244.1262624744942
 20
302.6497369748669
 30
0.0
 11
-244.7583133075943
 21
302.649736975311
 31
0.0
  0
LINE
  5
141
  8
1
  6
CONTINUOUS
 62
     7
 10
-246.1263572519518
 20
302.649412114035
 30
0.0
 11
-246.7584080851364
 21
302.6494121142593
 31
0.0
  0
LINE
  5
142
  8
1
  6
CONTINUOUS
 62
     7
 10
-248.1263774746961
 20
302.6494121142593
 30
0.0
 11
-248.7584283078807
 21
302.649412114035
 31
0.0
  0
LINE
  5
143
  8
1
  6
CONTINUOUS
 62
     7
 10
-250.1264722522382
 20
302.649736975311
 30
0.0
 11
-250.3423927799163
 21
302.6497369751593
 31
0.0
  0
LINE
  5
144
  8
1
  6
CONTINUOUS
 62
     7
 10
-250.0527532106432
 20
273.0996914868746
 30
0.0
 11
-249.7830733616265
 21
272.0965081213772
 31
0.0
  0
LINE
  5
145
  8
1
  6
CONTINUOUS
 62
     7
 10
-248.0528478190205
 20
273.0998184761497
 30
0.0
 11
-247.7831885515436
 21
272.0967199732995
 31
0.0
  0
LINE
  5
146
  8
1
  6
CONTINUOUS
 62
     7
 10
-244.0528209873515
 20
273.0994797234883
 30
0.0
 11
-243.7831385675626
 21
272.0962251013059
 31
0.0
  0
LINE
  5
147
  8
1
  6
CONTINUOUS
 62
     7
 10
-242.8176747267549
 20
302.4288459098888
 30
0.0
 11
-243.0283648804647
 21
301.6499804324641
 31
0.0
  0
LINE
  5
148
  8
1
  6
CONTINUOUS
 62
     7
 10
-244.7829458092288
 20
302.6045973077502
 30
0.0
 11
-245.0395500604916
 21
301.6499950066985
 31
0.0
  0
LINE
  5
149
  8
1
  6
CONTINUOUS
 62
     7
 10
-246.7829950112759
 20
302.6041894184392
 30
0.0
 11
-247.039501630225
 21
301.6499950178136
 31
0.0
  0
LINE
  5
14A
  8
1
  6
CONTINUOUS
 62
     7
 10
-248.7831738273652
 20
302.6031844827602
 30
0.0
 11
-249.0394136458076
 21
301.6499947800243
 31
0.0
  0
LINE
  5
14B
  8
1
  6
CONTINUOUS
 62
     7
 10
-249.1019382094472
 20
272.0950973455635
 30
0.0
 11
-248.8452448826541
 21
273.0500048872415
 31
0.0
  0
LINE
  5
14C
  8
1
  6
CONTINUOUS
 62
     7
 10
-247.1015970082888
 20
272.0967199732995
 30
0.0
 11
-246.8453317117287
 21
273.0500051761504
 31
0.0
  0
LINE
  5
14D
  8
1
  6
CONTINUOUS
 62
     7
 10
-245.1017121982061
 20
272.0965081213772
 30
0.0
 11
-244.8453920710688
 21
273.0500051824492
 31
0.0
  0
LINE
  5
14E
  8
1
  6
CONTINUOUS
 62
     7
 10
-243.1016612252703
 20
272.0965394284493
 30
0.0
 11
-242.845358597014
 21
273.0500052031129
 31
0.0
  0
LINE
  5
14F
  8
1
  6
CONTINUOUS
 62
     7
 10
-243.8321024026216
 20
301.6005866145391
 30
0.0
 11
-244.101770302201
 21
302.6037420951869
 31
0.0
  0
LINE
  5
150
  8
1
  6
CONTINUOUS
 62
     7
 10
-245.8319348335744
 20
301.6000212474499
 30
0.0
 11
-246.1016117324673
 21
302.6031844827602
 31
0.0
  0
LINE
  5
151
  8
1
  6
CONTINUOUS
 62
     7
 10
-247.8321559394659
 20
301.6011701166516
 30
0.0
 11
-248.1017905485566
 21
302.6041894184392
 31
0.0
  0
LINE
  5
152
  8
1
  6
CONTINUOUS
 62
     7
 10
-249.8321565033982
 20
301.6013500791821
 30
0.0
 11
-250.1018397506037
 21
302.6045973077502
 31
0.0
  0
LINE
  5
153
  8
1
  6
CONTINUOUS
 62
     7
 10
-241.8551131880594
 20
273.4553997865348
 30
0.0
 11
-241.8341927360519
 21
273.3789894785424
 31
0.0
  0
LINE
  5
154
  8
1
  6
CONTINUOUS
 62
     7
 10
-241.8079683612482
 20
301.3174526510081
 30
0.0
 11
-242.0582349311864
 21
302.2335075863414
 31
0.0
  0
LINE
  5
155
  8
1
  6
CONTINUOUS
 62
     7
 10
-244.858418403297
 20
273.05
 30
0.0
 11
-244.0395190093695
 21
273.05
 31
0.0
  0
LINE
  5
156
  8
1
  6
CONTINUOUS
 62
     7
 10
-246.8584181583797
 20
273.05
 30
0.0
 11
-246.0395406771785
 21
273.05
 31
0.0
  0
LINE
  5
157
  8
1
  6
CONTINUOUS
 62
     7
 10
-248.8584179134728
 20
273.05
 30
0.0
 11
-248.0394538481038
 21
273.05
 31
0.0
  0
LINE
  5
158
  8
1
  6
CONTINUOUS
 62
     7
 10
-250.3423927799163
 20
273.05
 30
0.0
 11
-250.0393934887637
 21
273.05
 31
0.0
  0
LINE
  5
159
  8
1
  6
CONTINUOUS
 62
     7
 10
-249.0263677280023
 20
301.65
 30
0.0
 11
-249.845235499341
 21
301.65
 31
0.0
  0
LINE
  5
15A
  8
1
  6
CONTINUOUS
 62
     7
 10
-247.0263670748975
 20
301.65
 30
0.0
 11
-247.8452839296075
 21
301.65
 31
0.0
  0
LINE
  5
15B
  8
1
  6
CONTINUOUS
 62
     7
 10
-245.0263675647303
 20
301.65
 30
0.0
 11
-245.845371914025
 21
301.65
 31
0.0
  0
LINE
  5
15C
  8
1
  6
CONTINUOUS
 62
     7
 10
-243.0263673761318
 20
301.65
 30
0.0
 11
-243.8453871354602
 21
301.65
 31
0.0
  0
LINE
  5
15D
  8
1
  6
CONTINUOUS
 62
     7
 10
-240.4423927799163
 20
301.65
 30
0.0
 11
-241.8584181837007
 21
301.65
 31
0.0
  0
ARC
  5
15E
  8
1
  6
CONTINUOUS
 62
     7
 10
-252.2960706379221
 20
284.4714997040753
 30
0.0
 40
19.99999999999998
 50
205.8667133919065
 51
229.1193520989769
  0
ARC
  5
15F
  8
1
  6
CONTINUOUS
 62
     7
 10
-252.2960706379221
 20
290.2285002959247
 30
0.0
 40
19.99999999999996
 50
130.8806479010229
 51
154.1332866080935
  0
ARC
  5
160
  8
1
  6
CONTINUOUS
 62
     7
 10
-269.8423927799163
 20
275.9640571218791
 30
0.0
 40
0.4999999999999449
 50
180.0
 51
205.8667133919064
  0
ARC
  5
161
  8
1
  6
CONTINUOUS
 62
     7
 10
-269.8423927799163
 20
298.7359428781209
 30
0.0
 40
0.4999999999999704
 50
154.1332866080936
 51
180.0
  0
ENDBLK
  8
0
  0
ENDSEC
  0
SECTION
  2
ENTITIES
  0
INSERT
  5
92
  8
1
  6
CONTINUOUS
 62
     7
  2
D_FRAME_VIEW_3106
 10
0.0
 20
0.0
 30
0.0
  0
LINE
  5
93
  8
1
  6
CONTINUOUS
 62
     7
 10
-270.3423927799162
 20
275.9640571218791
 30
0.0
 11
-270.3423927799162
 21
298.7359428781209
 31
0.0
  0
LINE
  5
94
  8
1
  6
CONTINUOUS
 62
     7
 10
-286.9060652020983
 20
289.1
 30
0.0
 11
-285.8013877326003
 21
289.1
 31
0.0
  0
ARC
  5
95
  8
1
  6
CONTINUOUS
 62
     7
 10
-306.6009069578132
 20
287.35
 30
0.0
 40
21.15000000000001
 50
356.012182549828
 51
6.788421799986907
  0
ARC
  5
96
  8
1
  6
CONTINUOUS
 62
     7
 10
-327.4004261830261
 20
288.8
 30
0.0
 40
0.3000000000000001
 50
90.0
 51
176.0121825498263
  0
LINE
  5
97
  8
1
  6
CONTINUOUS
 62
     7
 10
-246.061008354805
 20
273.1298545534745
 30
0.0
 11
-245.7828473503852
 21
272.0950973455635
 31
0.0
  0
LINE
  5
98
  8
1
  6
CONTINUOUS
 62
     7
 10
-265.3857706612095
 20
305.35
 30
0.0
 11
-250.3423927799163
 21
305.35
 31
0.0
  0
ARC
  5
99
  8
1
  6
CONTINUOUS
 62
     7
 10
-306.6009069578132
 20
287.35
 30
0.0
 40
21.15000000000001
 50
176.0121825498279
 51
186.7884217999869
  0
LINE
  5
9A
  8
1
  6
CONTINUOUS
 62
     7
 10
-220.1423927799163
 20
286.35
 30
0.0
 11
-201.8613515004863
 21
286.35
 31
0.0
  0
LINE
  5
9B
  8
1
  6
CONTINUOUS
 62
     7
 10
-285.8013877326003
 20
285.6
 30
0.0
 11
-286.9065921569293
 21
285.6
 31
0.0
  0
LINE
  5
9C
  8
1
  6
CONTINUOUS
 62
     7
 10
-240.4423927799163
 20
273.05
 30
0.0
 11
-240.4423927799163
 21
301.65
 31
0.0
  0
ARC
  5
9D
  8
1
  6
CONTINUOUS
 62
     7
 10
-285.8013877326003
 20
285.9
 30
0.0
 40
0.3
 50
270.0
 51
356.0121825498262
  0
LINE
  5
9E
  8
1
  6
CONTINUOUS
 62
     7
 10
-326.2948970096183
 20
285.6
 30
0.0
 11
-327.400426183026
 21
285.6
 31
0.0
  0
LINE
  5
9F
  8
1
  6
CONTINUOUS
 62
     7
 10
-220.8423927799163
 20
285.6
 30
0.0
 11
-233.0558377567662
 21
285.6
 31
0.0
  0
LINE
  5
A0
  8
1
  6
CONTINUOUS
 62
     7
 10
-220.1423927799163
 20
305.75
 30
0.0
 11
-220.1423927799163
 21
268.95
 31
0.0
  0
LINE
  5
A1
  8
1
  6
CONTINUOUS
 62
     7
 10
-245.3415642511175
 20
286.5931957419533
 30
0.0
 11
-245.4540444243019
 21
291.5818328107952
 31
0.0
  0
ARC
  5
A2
  8
1
  6
CONTINUOUS
 62
     7
 10
-306.6009069578132
 20
287.35
 30
0.0
 40
18.15
 50
262.7767604399057
 51
277.2232395600915
  0
LINE
  5
A3
  8
1
  6
CONTINUOUS
 62
     7
 10
-248.6443449042206
 20
292.5295957025357
 30
0.0
 11
-248.4189165047525
 21
282.6440442127592
 31
0.0
  0
LINE
  5
A4
  8
1
  6
CONTINUOUS
 62
     7
 10
-247.2516766106681
 20
282.6440301862611
 30
0.0
 11
-247.4756908543655
 21
292.5296137955505
 31
0.0
  0
LINE
  5
A5
  8
1
  6
CONTINUOUS
 62
     7
 10
-250.3423927799163
 20
269.35
 30
0.0
 11
-265.3857706609444
 21
269.35
 31
0.0
  0
LINE
  5
A6
  8
1
  6
CONTINUOUS
 62
     7
 10
-233.0558377567662
 20
289.1
 30
0.0
 11
-220.8423927799163
 21
289.1
 31
0.0
  0
LINE
  5
A7
  8
1
  6
CONTINUOUS
 62
     7
 10
-327.400426183026
 20
289.1
 30
0.0
 11
-326.2948709577375
 21
289.1
 31
0.0
  0
LINE
  5
A8
  8
1
  6
CONTINUOUS
 62
     7
 10
-201.8240386288003
 20
289.85
 30
0.0
 11
-220.1423927799163
 21
289.85
 31
0.0
  0
LINE
  5
A9
  8
1
  6
CONTINUOUS
 62
     7
 10
-250.3423927799163
 20
305.35
 30
0.0
 11
-250.3423927799163
 21
269.35
 31
0.0
  0
LINE
  5
AA
  8
1
  6
CONTINUOUS
 62
     7
 10
-220.8423927799163
 20
289.1
 30
0.0
 11
-220.8423927799163
 21
285.6
 31
0.0
  0
LINE
  5
AB
  8
1
  6
CONTINUOUS
 62
     7
 10
-242.8584178726462
 20
273.05
 30
0.0
 11
-240.4423927799163
 21
273.05
 31
0.0
  0
TEXT
  5
AC
  8
1
  6
CONTINUOUS
 62
     7
 10
-278.6985119419783
 20
249.5284200325122
 30
0.0
 40
3.0
  1
GLMFS-22F2
  0
INSERT
  5
162
  8
1
  6
CONTINUOUS
 62
     7
  2
D_FRAME_VIEW_3450
 10
0.0
 20
0.0
 30
0.0
  0
ENDSEC
  0
EOF
