  0
SECTION
  2
HEADER
  9
$ACADVER
  1
AC1006
  9
$DWGCODEPAGE
  3
ansi_932
  9
$INSBASE
 10
0.0
 20
0.0
 30
0.0
  9
$EXTMIN
 10
-322.1509069578132
 20
249.8704545454545
  9
$EXTMAX
 10
-197.6923927799162
 20
304.9
  9
$LIMMIN
 10
0.0
 20
0.0
  9
$LIMMAX
 10
12.0
 20
9.0
  9
$ORTHOMODE
 70
     0
  9
$REGENMODE
 70
     1
  9
$FILLMODE
 70
     1
  9
$QTEXTMODE
 70
     0
  9
$MIRRTEXT
 70
     1
  9
$DRAGMODE
 70
     2
  9
$LTSCALE
 40
1.0
  9
$OSMODE
 70
    37
  9
$ATTMODE
 70
     1
  9
$TEXTSIZE
 40
0.2
  9
$TRACEWID
 40
0.05
  9
$TEXTSTYLE
  7
STANDARD
  9
$CLAYER
  8
0
  9
$CELTYPE
  6
BYLAYER
  9
$CECOLOR
 62
   256
  9
$DIMSCALE
 40
1.0
  9
$DIMASZ
 40
3.0
  9
$DIMEXO
 40
0.0625
  9
$DIMDLI
 40
0.38
  9
$DIMRND
 40
0.0
  9
$DIMDLE
 40
0.0
  9
$DIMEXE
 40
1.5
  9
$DIMTP
 40
0.0
  9
$DIMTM
 40
0.0
  9
$DIMTXT
 40
3.0
  9
$DIMCEN
 40
0.09
  9
$DIMTSZ
 40
0.0
  9
$DIMTOL
 70
     0
  9
$DIMLIM
 70
     0
  9
$DIMTIH
 70
     1
  9
$DIMTOH
 70
     1
  9
$DIMSE1
 70
     0
  9
$DIMSE2
 70
     0
  9
$DIMTAD
 70
     1
  9
$DIMZIN
 70
     0
  9
$DIMBLK
  1

  9
$DIMASO
 70
     1
  9
$DIMSHO
 70
     1
  9
$DIMPOST
  1

  9
$DIMAPOST
  1

  9
$DIMALT
 70
     0
  9
$DIMALTD
 70
     2
  9
$DIMALTF
 40
25.4
  9
$DIMLFAC
 40
1.0
  9
$DIMTOFL
 70
     0
  9
$DIMTVP
 40
0.0
  9
$DIMTIX
 70
     0
  9
$DIMSOXD
 70
     0
  9
$DIMSAH
 70
     0
  9
$DIMBLK1
  1

  9
$DIMBLK2
  1

  9
$LUNITS
 70
     2
  9
$LUPREC
 70
     4
  9
$SKETCHINC
 40
0.1
  9
$FILLETRAD
 40
0.5
  9
$AUNITS
 70
     0
  9
$AUPREC
 70
     0
  9
$MENU
  1
.
  9
$ELEVATION
 40
0.0
  9
$THICKNESS
 40
0.0
  9
$LIMCHECK
 70
     0
  9
$CHAMFERA
 40
0.0
  9
$CHAMFERB
 40
0.0
  9
$SKPOLY
 70
     0
  9
$TDCREATE
 40
2459289.456559109
  9
$TDUPDATE
 40
2459289.456559282
  9
$TDINDWG
 40
0.0000000116
  9
$TDUSRTIMER
 40
0.0000000116
  9
$USRTIMER
 70
     1
  9
$ANGBASE
 50
0.0
  9
$ANGDIR
 70
     0
  9
$PDMODE
 70
     0
  9
$PDSIZE
 40
0.0
  9
$PLINEWID
 40
0.0
  9
$COORDS
 70
     1
  9
$SPLFRAME
 70
     0
  9
$SPLINETYPE
 70
     6
  9
$SPLINESEGS
 70
     8
  9
$ATTDIA
 70
     0
  9
$ATTREQ
 70
     1
  9
$HANDLING
 70
     1
  9
$HANDSEED
  5
5C6
  9
$SURFTAB1
 70
     6
  9
$SURFTAB2
 70
     6
  9
$SURFTYPE
 70
     6
  9
$SURFU
 70
     6
  9
$SURFV
 70
     6
  9
$UCSNAME
  2

  9
$UCSORG
 10
0.0
 20
0.0
 30
0.0
  9
$UCSXDIR
 10
1.0
 20
0.0
 30
0.0
  9
$UCSYDIR
 10
0.0
 20
1.0
 30
0.0
  9
$USERI1
 70
     0
  9
$USERI2
 70
     0
  9
$USERI3
 70
     0
  9
$USERI4
 70
     0
  9
$USERI5
 70
     0
  9
$USERR1
 40
0.0
  9
$USERR2
 40
0.0
  9
$USERR3
 40
0.0
  9
$USERR4
 40
0.0
  9
$USERR5
 40
0.0
  9
$WORLDVIEW
 70
     1
  0
ENDSEC
  0
SECTION
  2
TABLES
  0
TABLE
  2
VPORT
 70
     1
  0
VPORT
  2
*ACTIVE
 70
     0
 10
0.0
 20
0.0
 11
1.0
 21
1.0
 12
-259.9216498688647
 22
277.3852272727273
 13
0.0
 23
0.0
 14
0.5
 24
0.5
 15
0.5
 25
0.5
 16
0.0
 26
0.0
 36
1.0
 17
0.0
 27
0.0
 37
0.0
 40
55.02954545454546
 41
1.6
 42
50.0
 43
0.0
 44
0.0
 50
0.0
 51
0.0
 71
     0
 72
   100
 73
     1
 74
     3
 75
     0
 76
     0
 77
     0
 78
     0
  0
ENDTAB
  0
TABLE
  2
LTYPE
 70
     1
  0
LTYPE
  2
CONTINUOUS
 70
     0
  3
Solid line
 72
    65
 73
     0
 40
0.0
  0
ENDTAB
  0
TABLE
  2
LAYER
 70
     2
  0
LAYER
  2
0
 70
     0
 62
     7
  6
CONTINUOUS
  0
LAYER
  2
1
 70
     0
 62
     7
  6
CONTINUOUS
  0
ENDTAB
  0
TABLE
  2
STYLE
 70
     2
  0
STYLE
  2
STANDARD
 70
     0
 40
0.0
 41
1.0
 50
0.0
 71
     0
 42
0.2
  3
txt
  4

  0
STYLE
  2
ＭＳ_ゴシック
 70
     0
 40
0.0
 41
1.0
 50
0.0
 71
     0
 42
0.2
  3
ＭＳ ゴシック.shx
  4

  0
ENDTAB
  0
TABLE
  2
VIEW
 70
     0
  0
ENDTAB
  0
TABLE
  2
UCS
 70
     0
  0
ENDTAB
  0
ENDSEC
  0
SECTION
  2
BLOCKS
  0
BLOCK
  8
0
  2
D_FRAME_VIEW_3477
 70
     0
 10
0.0
 20
0.0
 30
0.0
  0
ARC
  5
71
  8
1
  6
CONTINUOUS
 62
     7
 10
-301.0009069578132
 20
281.55
 30
0.0
 40
4.599999999999996
 50
180.0
 51
0.0
  0
LINE
  5
72
  8
1
  6
CONTINUOUS
 62
     7
 10
-296.4009069578132
 20
288.95
 30
0.0
 11
-296.4009069578132
 21
281.55
 31
0.0
  0
ARC
  5
73
  8
1
  6
CONTINUOUS
 62
     7
 10
-301.0009069578132
 20
288.95
 30
0.0
 40
4.599999999999994
 50
359.9999999999998
 51
180.0
  0
LINE
  5
74
  8
1
  6
CONTINUOUS
 62
     7
 10
-305.6009069578132
 20
281.55
 30
0.0
 11
-305.6009069578132
 21
288.95
 31
0.0
  0
LINE
  5
75
  8
1
  6
CONTINUOUS
 62
     7
 10
-304.8009069578131
 20
288.95
 30
0.0
 11
-304.8009069578131
 21
281.55
 31
0.0
  0
ARC
  5
76
  8
1
  6
CONTINUOUS
 62
     7
 10
-301.0009069578132
 20
288.95
 30
0.0
 40
3.799999999999995
 50
359.9999999999998
 51
180.0000000000004
  0
ARC
  5
77
  8
1
  6
CONTINUOUS
 62
     7
 10
-301.0009069578132
 20
281.55
 30
0.0
 40
3.799999999999996
 50
180.0
 51
359.9999999999993
  0
LINE
  5
78
  8
1
  6
CONTINUOUS
 62
     7
 10
-297.2009069578132
 20
281.55
 30
0.0
 11
-297.2009069578132
 21
288.95
 31
0.0
  0
ARC
  5
79
  8
1
  6
CONTINUOUS
 62
     7
 10
-320.9263304162995
 20
282.25
 30
0.0
 40
0.4999999999999989
 50
8.562222040722265
 51
90.00000000000085
  0
ARC
  5
7A
  8
1
  6
CONTINUOUS
 62
     7
 10
-301.0009069578132
 20
285.25
 30
0.0
 40
19.65
 50
126.2808024599163
 51
173.7260073442547
  0
ARC
  5
7B
  8
1
  6
CONTINUOUS
 62
     7
 10
-301.0009069578132
 20
285.25
 30
0.0
 40
19.64999999999999
 50
66.28080245991617
 51
113.7307376672057
  0
ARC
  5
7C
  8
1
  6
CONTINUOUS
 62
     7
 10
-301.0009069578132
 20
285.25
 30
0.0
 40
19.65
 50
8.56222204072219
 51
53.73073766720574
  0
ARC
  5
7D
  8
1
  6
CONTINUOUS
 62
     7
 10
-301.0009069578132
 20
285.25
 30
0.0
 40
19.65
 50
306.2808024599165
 51
353.7256889703058
  0
ARC
  5
7E
  8
1
  6
CONTINUOUS
 62
     7
 10
-301.0009069578132
 20
285.25
 30
0.0
 40
19.65
 50
246.2808024599161
 51
293.7307376672052
  0
ARC
  5
7F
  8
1
  6
CONTINUOUS
 62
     7
 10
-301.0009069578132
 20
285.25
 30
0.0
 40
19.65
 50
188.5622220407222
 51
233.7307376672047
  0
ARC
  5
80
  8
1
  6
CONTINUOUS
 62
     7
 10
-281.0754834993268
 20
288.25
 30
0.0
 40
0.4999999999999989
 50
188.5622220407222
 51
270.0000000000009
  0
ARC
  5
81
  8
1
  6
CONTINUOUS
 62
     7
 10
-301.0009069578132
 20
285.25
 30
0.0
 40
18.15
 50
262.7767604399057
 51
270.0
  0
ARC
  5
82
  8
1
  6
CONTINUOUS
 62
     7
 10
-301.0009069578132
 20
285.25
 30
0.0
 40
18.15
 50
270.0
 51
277.2232395600917
  0
LINE
  5
83
  8
1
  6
CONTINUOUS
 62
     7
 10
-322.0026330773491
 20
282.75
 30
0.0
 11
-320.3949939759538
 21
282.75
 31
0.0
  0
ARC
  5
84
  8
1
  6
CONTINUOUS
 62
     7
 10
-301.0009069578132
 20
285.25
 30
0.0
 40
21.14999999999999
 50
183.9878174501721
 51
186.7884217999868
  0
LINE
  5
85
  8
1
  6
CONTINUOUS
 62
     7
 10
-279.9991808382772
 20
287.75
 30
0.0
 11
-281.6068199396725
 21
287.75
 31
0.0
  0
ARC
  5
86
  8
1
  6
CONTINUOUS
 62
     7
 10
-301.0009069578132
 20
285.25
 30
0.0
 40
21.14999999999998
 50
3.987817450171861
 51
6.788421799986907
  0
LINE
  5
87
  8
1
  6
CONTINUOUS
 62
     7
 10
-280.9997314719614
 20
283.5
 30
0.0
 11
-281.3065921569293
 21
283.5
 31
0.0
  0
LINE
  5
88
  8
1
  6
CONTINUOUS
 62
     7
 10
-321.002082443665
 20
286.9999999999999
 30
0.0
 11
-320.6948709577376
 21
286.9999999999999
 31
0.0
  0
LINE
  5
89
  8
1
  6
CONTINUOUS
 62
     7
 10
-281.3060652020984
 20
286.9999999999999
 30
0.0
 11
-280.9997314719614
 21
286.9999999999999
 31
0.0
  0
LINE
  5
8A
  8
1
  6
CONTINUOUS
 62
     7
 10
-320.6948970096183
 20
283.5
 30
0.0
 11
-321.002082443665
 21
283.5
 31
0.0
  0
ARC
  5
8B
  8
1
  6
CONTINUOUS
 62
     7
 10
-280.2013877326003
 20
286.7
 30
0.0
 40
0.2999999999999999
 50
3.98781745017152
 51
90.0
  0
LINE
  5
8C
  8
1
  6
CONTINUOUS
 62
     7
 10
-280.9997314719614
 20
286.9999999999999
 30
0.0
 11
-280.8172556096762
 21
286.9999999999999
 31
0.0
  0
LINE
  5
8D
  8
1
  6
CONTINUOUS
 62
     7
 10
-280.8172556096762
 20
286.9999999999999
 30
0.0
 11
-280.2013877326003
 21
286.9999999999999
 31
0.0
  0
ARC
  5
8E
  8
1
  6
CONTINUOUS
 62
     7
 10
-321.800426183026
 20
283.8
 30
0.0
 40
0.2999999999999999
 50
183.9878174501722
 51
270.0
  0
LINE
  5
8F
  8
1
  6
CONTINUOUS
 62
     7
 10
-321.002082443665
 20
283.5
 30
0.0
 11
-321.1844777021129
 21
283.5
 31
0.0
  0
LINE
  5
90
  8
1
  6
CONTINUOUS
 62
     7
 10
-321.1844777021129
 20
283.5
 30
0.0
 11
-321.800426183026
 21
283.5
 31
0.0
  0
ARC
  5
91
  8
1
  6
CONTINUOUS
 62
     7
 10
-280.2013877326003
 20
283.8
 30
0.0
 40
0.2999999999999988
 50
273.5121825498273
 51
356.0121825498276
  0
ARC
  5
92
  8
1
  6
CONTINUOUS
 62
     7
 10
-280.2013877326003
 20
283.8
 30
0.0
 40
0.2999999999999999
 50
269.9999999999994
 51
273.5121825498275
  0
LINE
  5
93
  8
1
  6
CONTINUOUS
 62
     7
 10
-280.2013877326003
 20
283.5
 30
0.0
 11
-280.8113058225918
 21
283.5
 31
0.0
  0
LINE
  5
94
  8
1
  6
CONTINUOUS
 62
     7
 10
-280.8113058225918
 20
283.5
 30
0.0
 11
-280.9997314719614
 21
283.5
 31
0.0
  0
ARC
  5
95
  8
1
  6
CONTINUOUS
 62
     7
 10
-301.0009069578132
 20
285.25
 30
0.0
 40
21.15000000000001
 50
356.012182549828
 51
3.987817450172088
  0
ARC
  5
96
  8
1
  6
CONTINUOUS
 62
     7
 10
-321.800426183026
 20
286.7
 30
0.0
 40
0.2999999999999985
 50
96.51218254982871
 51
176.0121825498284
  0
ARC
  5
97
  8
1
  6
CONTINUOUS
 62
     7
 10
-321.800426183026
 20
286.7
 30
0.0
 40
0.3000000000000001
 50
89.99999999999936
 51
96.51218254982871
  0
LINE
  5
98
  8
1
  6
CONTINUOUS
 62
     7
 10
-321.800426183026
 20
286.9999999999999
 30
0.0
 11
-321.1893417234946
 21
286.9999999999999
 31
0.0
  0
LINE
  5
99
  8
1
  6
CONTINUOUS
 62
     7
 10
-321.1893417234946
 20
286.9999999999999
 30
0.0
 11
-321.002082443665
 21
286.9999999999999
 31
0.0
  0
ARC
  5
9A
  8
1
  6
CONTINUOUS
 62
     7
 10
-301.0009069578132
 20
285.25
 30
0.0
 40
21.15000000000001
 50
176.0121825498279
 51
183.9878174501721
  0
CIRCLE
  5
9B
  8
1
  6
CONTINUOUS
 62
     7
 10
-301.0009069578132
 20
285.25
 30
0.0
 40
10.5
  0
ARC
  5
9C
  8
1
  6
CONTINUOUS
 62
     7
 10
-285.9898119307544
 20
285.25
 30
0.0
 40
5.000010367948433
 50
330.0000685936303
 51
29.99993140637099
  0
LINE
  5
9D
  8
1
  6
CONTINUOUS
 62
     7
 10
-289.1652264394257
 20
269.7500000000001
 30
0.0
 11
-281.6596729399606
 21
282.7500000000002
 31
0.0
  0
ARC
  5
9E
  8
1
  6
CONTINUOUS
 62
     7
 10
-293.4953774890427
 20
272.2500416223841
 30
0.0
 40
5.000041622441845
 50
270.0002753691545
 51
329.9997246308162
  0
LINE
  5
9F
  8
1
  6
CONTINUOUS
 62
     7
 10
-308.5064604572783
 20
267.25
 30
0.0
 11
-293.4953534583506
 21
267.25
 31
0.0
  0
ARC
  5
A0
  8
1
  6
CONTINUOUS
 62
     7
 10
-308.5064364265837
 20
272.2500416223841
 30
0.0
 40
5.000041622441832
 50
210.0002753692151
 51
269.9997246308156
  0
LINE
  5
A1
  8
1
  6
CONTINUOUS
 62
     7
 10
-320.3421409756656
 20
282.75
 30
0.0
 11
-312.8365874761992
 21
269.7499999999977
 31
0.0
  0
ARC
  5
A2
  8
1
  6
CONTINUOUS
 62
     7
 10
-316.0119063746224
 20
285.25
 30
0.0
 40
5.000093169139149
 50
150.0006163886666
 51
209.9993836113374
  0
LINE
  5
A3
  8
1
  6
CONTINUOUS
 62
     7
 10
-312.8365874762005
 20
300.75
 30
0.0
 11
-320.3421409756658
 21
287.7499999999997
 31
0.0
  0
ARC
  5
A4
  8
1
  6
CONTINUOUS
 62
     7
 10
-308.5064364265836
 20
298.2499583776159
 30
0.0
 40
5.000041622441874
 50
90.00027536915462
 51
149.9997246308155
  0
LINE
  5
A5
  8
1
  6
CONTINUOUS
 62
     7
 10
-293.495353458348
 20
303.25
 30
0.0
 11
-308.5064604572756
 21
303.25
 31
0.0
  0
ARC
  5
A6
  8
1
  6
CONTINUOUS
 62
     7
 10
-293.4953774890428
 20
298.2499583776159
 30
0.0
 40
5.000041622441911
 50
30.00027536915309
 51
89.99972463081457
  0
LINE
  5
A7
  8
1
  6
CONTINUOUS
 62
     7
 10
-281.6596729399607
 20
287.75
 30
0.0
 11
-289.1652264394245
 21
300.7499999999976
 31
0.0
  0
ENDBLK
  8
0
  0
BLOCK
  8
0
  2
D_FRAME_VIEW_3829
 70
     0
 10
0.0
 20
0.0
 30
0.0
  0
LINE
  5
AD
  8
1
  6
CONTINUOUS
 62
     7
 10
-199.563713123476
 20
287.75
 30
0.0
 11
-201.6850334670356
 21
287.75
 31
0.0
  0
LINE
  5
AE
  8
1
  6
CONTINUOUS
 62
     7
 10
-201.6850334670356
 20
284.25
 30
0.0
 11
-199.5637131234758
 21
284.25
 31
0.0
  0
LINE
  5
AF
  8
1
  6
CONTINUOUS
 62
     7
 10
-217.6923927799162
 20
287.75
 30
0.0
 11
-217.6923927799162
 21
284.25
 31
0.0
  0
LINE
  5
B0
  8
1
  6
CONTINUOUS
 62
     7
 10
-201.6850334670356
 20
287.75
 30
0.0
 11
-217.6923927799162
 21
287.75
 31
0.0
  0
LINE
  5
B1
  8
1
  6
CONTINUOUS
 62
     7
 10
-217.6923927799162
 20
284.25
 30
0.0
 11
-201.6850334670356
 21
284.25
 31
0.0
  0
POLYLINE
  5
B2
  8
1
  6
CONTINUOUS
 62
     7
 66
     1
 10
0.0
 20
0.0
 30
0.0
  0
VERTEX
  5
197
  8
1
  6
CONTINUOUS
 62
     7
 10
-198.9423927799163
 20
288.1755583126551
 30
0.0
  0
VERTEX
  5
198
  8
1
  6
CONTINUOUS
 62
     7
 10
-198.9426643957819
 20
288.1595128080396
 30
0.0
  0
VERTEX
  5
199
  8
1
  6
CONTINUOUS
 62
     7
 10
-198.9434768428872
 20
288.1435805989658
 30
0.0
  0
VERTEX
  5
19A
  8
1
  6
CONTINUOUS
 62
     7
 10
-198.9448405921916
 20
288.1276589360703
 30
0.0
  0
VERTEX
  5
19B
  8
1
  6
CONTINUOUS
 62
     7
 10
-198.9467425406114
 20
288.1119196958566
 30
0.0
  0
VERTEX
  5
19C
  8
1
  6
CONTINUOUS
 62
     7
 10
-198.9492448057312
 20
288.0959856862289
 30
0.0
  0
VERTEX
  5
19D
  8
1
  6
CONTINUOUS
 62
     7
 10
-198.9522896163832
 20
288.0803075633793
 30
0.0
  0
VERTEX
  5
19E
  8
1
  6
CONTINUOUS
 62
     7
 10
-198.9558939393397
 20
288.064785353709
 30
0.0
  0
VERTEX
  5
19F
  8
1
  6
CONTINUOUS
 62
     7
 10
-198.9600151397356
 20
288.0495775845117
 30
0.0
  0
VERTEX
  5
1A0
  8
1
  6
CONTINUOUS
 62
     7
 10
-198.9644406675334
 20
288.0352952715206
 30
0.0
  0
VERTEX
  5
1A1
  8
1
  6
CONTINUOUS
 62
     7
 10
-198.969309481418
 20
288.0213293444093
 30
0.0
  0
VERTEX
  5
1A2
  8
1
  6
CONTINUOUS
 62
     7
 10
-198.9745979888625
 20
288.0077037981798
 30
0.0
  0
VERTEX
  5
1A3
  8
1
  6
CONTINUOUS
 62
     7
 10
-198.9802825973399
 20
287.9944426278342
 30
0.0
  0
VERTEX
  5
1A4
  8
1
  6
CONTINUOUS
 62
     7
 10
-198.9886619561928
 20
287.9769147499842
 30
0.0
  0
VERTEX
  5
1A5
  8
1
  6
CONTINUOUS
 62
     7
 10
-198.9977069078939
 20
287.9600697060558
 30
0.0
  0
VERTEX
  5
1A6
  8
1
  6
CONTINUOUS
 62
     7
 10
-199.007358316424
 20
287.9439379345028
 30
0.0
  0
VERTEX
  5
1A7
  8
1
  6
CONTINUOUS
 62
     7
 10
-199.0179770878481
 20
287.9279409822014
 30
0.0
  0
VERTEX
  5
1A8
  8
1
  6
CONTINUOUS
 62
     7
 10
-199.0291559187101
 20
287.9127086302803
 30
0.0
  0
VERTEX
  5
1A9
  8
1
  6
CONTINUOUS
 62
     7
 10
-199.0409412723004
 20
287.8981284530983
 30
0.0
  0
VERTEX
  5
1AA
  8
1
  6
CONTINUOUS
 62
     7
 10
-199.0532044002668
 20
287.8843138089702
 30
0.0
  0
VERTEX
  5
1AB
  8
1
  6
CONTINUOUS
 62
     7
 10
-199.0661763475712
 20
287.8709885400559
 30
0.0
  0
VERTEX
  5
1AC
  8
1
  6
CONTINUOUS
 62
     7
 10
-199.0795638875277
 20
287.8584391887819
 30
0.0
  0
VERTEX
  5
1AD
  8
1
  6
CONTINUOUS
 62
     7
 10
-199.0934111000513
 20
287.8465864448521
 30
0.0
  0
VERTEX
  5
1AE
  8
1
  6
CONTINUOUS
 62
     7
 10
-199.1076073485535
 20
287.8354906992659
 30
0.0
  0
VERTEX
  5
1AF
  8
1
  6
CONTINUOUS
 62
     7
 10
-199.1272913324531
 20
287.8216727398392
 30
0.0
  0
VERTEX
  5
1B0
  8
1
  6
CONTINUOUS
 62
     7
 10
-199.1474862800118
 20
287.8091739386126
 30
0.0
  0
VERTEX
  5
1B1
  8
1
  6
CONTINUOUS
 62
     7
 10
-199.1682887156121
 20
287.7978786434902
 30
0.0
  0
VERTEX
  5
1B2
  8
1
  6
CONTINUOUS
 62
     7
 10
-199.1894903893878
 20
287.7878525970925
 30
0.0
  0
VERTEX
  5
1B3
  8
1
  6
CONTINUOUS
 62
     7
 10
-199.2114947480729
 20
287.7788928551708
 30
0.0
  0
VERTEX
  5
1B4
  8
1
  6
CONTINUOUS
 62
     7
 10
-199.2338141990501
 20
287.7711911087337
 30
0.0
  0
VERTEX
  5
1B5
  8
1
  6
CONTINUOUS
 62
     7
 10
-199.2565393510342
 20
287.7646840696266
 30
0.0
  0
VERTEX
  5
1B6
  8
1
  6
CONTINUOUS
 62
     7
 10
-199.2794988397449
 20
287.7593949682152
 30
0.0
  0
VERTEX
  5
1B7
  8
1
  6
CONTINUOUS
 62
     7
 10
-199.3028577396582
 20
287.7552702976296
 30
0.0
  0
VERTEX
  5
1B8
  8
1
  6
CONTINUOUS
 62
     7
 10
-199.3263824101409
 20
287.752340814643
 30
0.0
  0
VERTEX
  5
1B9
  8
1
  6
CONTINUOUS
 62
     7
 10
-199.350158954595
 20
287.7505830924017
 30
0.0
  0
VERTEX
  5
1BA
  8
1
  6
CONTINUOUS
 62
     7
 10
-199.3740386288003
 20
287.75
 30
0.0
  0
SEQEND
  5
5B5
  8
1
  6
CONTINUOUS
 62
     7
  0
LINE
  5
B3
  8
1
  6
CONTINUOUS
 62
     7
 10
-198.9423927799163
 20
288.1755583126551
 30
0.0
 11
-198.9423927799163
 21
283.7872208436725
 31
0.0
  0
POLYLINE
  5
B4
  8
1
  6
CONTINUOUS
 62
     7
 66
     1
 10
0.0
 20
0.0
 30
0.0
  0
VERTEX
  5
1BB
  8
1
  6
CONTINUOUS
 62
     7
 10
-199.4113515004863
 20
284.25
 30
0.0
  0
VERTEX
  5
1BC
  8
1
  6
CONTINUOUS
 62
     7
 10
-199.3834919316759
 20
284.2492191419456
 30
0.0
  0
VERTEX
  5
1BD
  8
1
  6
CONTINUOUS
 62
     7
 10
-199.3557159220921
 20
284.246869741221
 30
0.0
  0
VERTEX
  5
1BE
  8
1
  6
CONTINUOUS
 62
     7
 10
-199.3278890287869
 20
284.2429068134563
 30
0.0
  0
VERTEX
  5
1BF
  8
1
  6
CONTINUOUS
 62
     7
 10
-199.3002433399926
 20
284.2373209998373
 30
0.0
  0
VERTEX
  5
1C0
  8
1
  6
CONTINUOUS
 62
     7
 10
-199.2722319810222
 20
284.2299095582048
 30
0.0
  0
VERTEX
  5
1C1
  8
1
  6
CONTINUOUS
 62
     7
 10
-199.2445273446053
 20
284.2207444472609
 30
0.0
  0
VERTEX
  5
1C2
  8
1
  6
CONTINUOUS
 62
     7
 10
-199.2169701845753
 20
284.2096876148905
 30
0.0
  0
VERTEX
  5
1C3
  8
1
  6
CONTINUOUS
 62
     7
 10
-199.1898726504843
 20
284.1967626274945
 30
0.0
  0
VERTEX
  5
1C4
  8
1
  6
CONTINUOUS
 62
     7
 10
-199.1667278785794
 20
284.1839509304803
 30
0.0
  0
VERTEX
  5
1C5
  8
1
  6
CONTINUOUS
 62
     7
 10
-199.1440527971855
 20
284.1696395719949
 30
0.0
  0
VERTEX
  5
1C6
  8
1
  6
CONTINUOUS
 62
     7
 10
-199.1219466640523
 20
284.1538040106652
 30
0.0
  0
VERTEX
  5
1C7
  8
1
  6
CONTINUOUS
 62
     7
 10
-199.1054185934605
 20
284.1405919847708
 30
0.0
  0
VERTEX
  5
1C8
  8
1
  6
CONTINUOUS
 62
     7
 10
-199.0892960852127
 20
284.1264223842803
 30
0.0
  0
VERTEX
  5
1C9
  8
1
  6
CONTINUOUS
 62
     7
 10
-199.0736431299656
 20
284.1112901705291
 30
0.0
  0
VERTEX
  5
1CA
  8
1
  6
CONTINUOUS
 62
     7
 10
-199.0585237183762
 20
284.0951903048524
 30
0.0
  0
VERTEX
  5
1CB
  8
1
  6
CONTINUOUS
 62
     7
 10
-199.0478523048213
 20
284.0828144232885
 30
0.0
  0
VERTEX
  5
1CC
  8
1
  6
CONTINUOUS
 62
     7
 10
-199.0375126424917
 20
284.069903294805
 30
0.0
  0
VERTEX
  5
1CD
  8
1
  6
CONTINUOUS
 62
     7
 10
-199.027480049369
 20
284.0563815959158
 30
0.0
  0
VERTEX
  5
1CE
  8
1
  6
CONTINUOUS
 62
     7
 10
-199.0178375491147
 20
284.042313205505
 30
0.0
  0
VERTEX
  5
1CF
  8
1
  6
CONTINUOUS
 62
     7
 10
-199.0084500354254
 20
284.0274237817445
 30
0.0
  0
VERTEX
  5
1D0
  8
1
  6
CONTINUOUS
 62
     7
 10
-198.9995321160281
 20
284.0119698588679
 30
0.0
  0
VERTEX
  5
1D1
  8
1
  6
CONTINUOUS
 62
     7
 10
-198.9910588219718
 20
283.9958353229095
 30
0.0
  0
VERTEX
  5
1D2
  8
1
  6
CONTINUOUS
 62
     7
 10
-198.9831357928105
 20
283.9791437754259
 30
0.0
  0
VERTEX
  5
1D3
  8
1
  6
CONTINUOUS
 62
     7
 10
-198.9773827632285
 20
283.9657941608658
 30
0.0
  0
VERTEX
  5
1D4
  8
1
  6
CONTINUOUS
 62
     7
 10
-198.9720041776533
 20
283.952125729037
 30
0.0
  0
VERTEX
  5
1D5
  8
1
  6
CONTINUOUS
 62
     7
 10
-198.9669903694617
 20
283.9380650233172
 30
0.0
  0
VERTEX
  5
1D6
  8
1
  6
CONTINUOUS
 62
     7
 10
-198.9623930158409
 20
283.9237068045851
 30
0.0
  0
VERTEX
  5
1D7
  8
1
  6
CONTINUOUS
 62
     7
 10
-198.9581511090086
 20
283.9087674499126
 30
0.0
  0
VERTEX
  5
1D8
  8
1
  6
CONTINUOUS
 62
     7
 10
-198.9543803667441
 20
283.8935553258351
 30
0.0
  0
VERTEX
  5
1D9
  8
1
  6
CONTINUOUS
 62
     7
 10
-198.9510756633719
 20
283.8779733542206
 30
0.0
  0
VERTEX
  5
1DA
  8
1
  6
CONTINUOUS
 62
     7
 10
-198.9482834782521
 20
283.8621637198449
 30
0.0
  0
VERTEX
  5
1DB
  8
1
  6
CONTINUOUS
 62
     7
 10
-198.946505911758
 20
283.8499537018179
 30
0.0
  0
VERTEX
  5
1DC
  8
1
  6
CONTINUOUS
 62
     7
 10
-198.9450408204358
 20
283.837637630802
 30
0.0
  0
VERTEX
  5
1DD
  8
1
  6
CONTINUOUS
 62
     7
 10
-198.9438937984621
 20
283.8252377904212
 30
0.0
  0
VERTEX
  5
1DE
  8
1
  6
CONTINUOUS
 62
     7
 10
-198.9430612606915
 20
283.8126191664288
 30
0.0
  0
VERTEX
  5
1DF
  8
1
  6
CONTINUOUS
 62
     7
 10
-198.9425602404649
 20
283.7999384779901
 30
0.0
  0
VERTEX
  5
1E0
  8
1
  6
CONTINUOUS
 62
     7
 10
-198.9423927799163
 20
283.7872208436725
 30
0.0
  0
SEQEND
  5
5B6
  8
1
  6
CONTINUOUS
 62
     7
  0
LINE
  5
B5
  8
1
  6
CONTINUOUS
 62
     7
 10
-199.3740386288003
 20
287.75
 30
0.0
 11
-199.563713123476
 21
287.75
 31
0.0
  0
LINE
  5
B6
  8
1
  6
CONTINUOUS
 62
     7
 10
-199.5637131234758
 20
284.25
 30
0.0
 11
-199.4113515004863
 21
284.25
 31
0.0
  0
LINE
  5
B7
  8
1
  6
CONTINUOUS
 62
     7
 10
-217.6923927799163
 20
283.75
 30
0.0
 11
-217.6923927799163
 21
284.2424968056241
 31
0.0
  0
LINE
  5
B8
  8
1
  6
CONTINUOUS
 62
     7
 10
-217.6923927799163
 20
284.2424968056241
 30
0.0
 11
-217.6923927799163
 21
284.25
 31
0.0
  0
LINE
  5
B9
  8
1
  6
CONTINUOUS
 62
     7
 10
-217.6923927799163
 20
287.75
 30
0.0
 11
-217.6923927799163
 21
287.7572158519317
 31
0.0
  0
LINE
  5
BA
  8
1
  6
CONTINUOUS
 62
     7
 10
-217.6923927799163
 20
287.7572158519317
 30
0.0
 11
-217.6923927799163
 21
288.25
 31
0.0
  0
LINE
  5
BB
  8
1
  6
CONTINUOUS
 62
     7
 10
-217.6923927799163
 20
283.75
 30
0.0
 11
-217.6923927799163
 21
266.85
 31
0.0
  0
LINE
  5
BC
  8
1
  6
CONTINUOUS
 62
     7
 10
-197.6923927799162
 20
303.65
 30
0.0
 11
-197.6923927799162
 21
266.85
 31
0.0
  0
LINE
  5
BD
  8
1
  6
CONTINUOUS
 62
     7
 10
-217.6923927799163
 20
303.65
 30
0.0
 11
-217.6923927799163
 21
288.25
 31
0.0
  0
LINE
  5
BE
  8
1
  6
CONTINUOUS
 62
     7
 10
-226.9936957888347
 20
283.5
 30
0.0
 11
-228.9169532253526
 21
283.5
 31
0.0
  0
LINE
  5
BF
  8
1
  6
CONTINUOUS
 62
     7
 10
-228.9169532253526
 20
286.9999999999999
 30
0.0
 11
-226.9936957888347
 21
286.9999999999999
 31
0.0
  0
LINE
  5
C0
  8
1
  6
CONTINUOUS
 62
     7
 10
-218.3923927799163
 20
283.7791366906475
 30
0.0
 11
-218.3923927799163
 21
286.7208633093525
 31
0.0
  0
LINE
  5
C1
  8
1
  6
CONTINUOUS
 62
     7
 10
-226.9936957888347
 20
286.9999999999999
 30
0.0
 11
-218.3923927799163
 21
286.9999999999999
 31
0.0
  0
LINE
  5
C2
  8
1
  6
CONTINUOUS
 62
     7
 10
-218.3923927799163
 20
286.9999999999999
 30
0.0
 11
-218.3923927799163
 21
286.7208633093525
 31
0.0
  0
LINE
  5
C3
  8
1
  6
CONTINUOUS
 62
     7
 10
-218.3923927799163
 20
283.5
 30
0.0
 11
-226.9936957888347
 21
283.5
 31
0.0
  0
LINE
  5
C4
  8
1
  6
CONTINUOUS
 62
     7
 10
-218.3923927799163
 20
283.7791366906475
 30
0.0
 11
-218.3923927799163
 21
283.5
 31
0.0
  0
ARC
  5
C5
  8
1
  6
CONTINUOUS
 62
     9
 10
-249.6959461705096
 20
285.25
 30
0.0
 40
18.45
 50
355.4924313375777
 51
4.507568662422386
  0
POLYLINE
  5
C6
  8
1
  6
CONTINUOUS
 62
     9
 66
     1
 10
0.0
 20
0.0
 30
0.0
  0
VERTEX
  5
1E1
  8
1
  6
CONTINUOUS
 62
     9
 10
-230.6058377567662
 20
286.9999999999999
 30
0.0
  0
VERTEX
  5
1E2
  8
1
  6
CONTINUOUS
 62
     9
 10
-230.6738673680292
 20
286.9988374257659
 30
0.0
  0
VERTEX
  5
1E3
  8
1
  6
CONTINUOUS
 62
     9
 10
-230.7420796305923
 20
286.9952550372541
 30
0.0
  0
VERTEX
  5
1E4
  8
1
  6
CONTINUOUS
 62
     9
 10
-230.8103879323947
 20
286.9890626414275
 30
0.0
  0
VERTEX
  5
1E5
  8
1
  6
CONTINUOUS
 62
     9
 10
-230.8788114217872
 20
286.9799683970731
 30
0.0
  0
VERTEX
  5
1E6
  8
1
  6
CONTINUOUS
 62
     9
 10
-230.9287666987931
 20
286.9712658423099
 30
0.0
  0
VERTEX
  5
1E7
  8
1
  6
CONTINUOUS
 62
     9
 10
-230.9739936597993
 20
286.9616694012541
 30
0.0
  0
VERTEX
  5
1E8
  8
1
  6
CONTINUOUS
 62
     9
 10
-231.0190255757499
 20
286.9502430949763
 30
0.0
  0
VERTEX
  5
1E9
  8
1
  6
CONTINUOUS
 62
     9
 10
-231.0567472375759
 20
286.9389884779717
 30
0.0
  0
VERTEX
  5
1EA
  8
1
  6
CONTINUOUS
 62
     9
 10
-231.0941545711011
 20
286.9260142463474
 30
0.0
  0
VERTEX
  5
1EB
  8
1
  6
CONTINUOUS
 62
     9
 10
-231.123771035629
 20
286.914195220496
 30
0.0
  0
VERTEX
  5
1EC
  8
1
  6
CONTINUOUS
 62
     9
 10
-231.1497010711387
 20
286.9024754569173
 30
0.0
  0
VERTEX
  5
1ED
  8
1
  6
CONTINUOUS
 62
     9
 10
-231.1625219567996
 20
286.8961184432783
 30
0.0
  0
VERTEX
  5
1EE
  8
1
  6
CONTINUOUS
 62
     9
 10
-231.1752017030194
 20
286.8894059478295
 30
0.0
  0
VERTEX
  5
1EF
  8
1
  6
CONTINUOUS
 62
     9
 10
-231.192824760676
 20
286.8792650166755
 30
0.0
  0
VERTEX
  5
1F0
  8
1
  6
CONTINUOUS
 62
     9
 10
-231.2100701902237
 20
286.8682437088398
 30
0.0
  0
VERTEX
  5
1F1
  8
1
  6
CONTINUOUS
 62
     9
 10
-231.2228843116795
 20
286.8591862255923
 30
0.0
  0
VERTEX
  5
1F2
  8
1
  6
CONTINUOUS
 62
     9
 10
-231.2323520586014
 20
286.8519114884444
 30
0.0
  0
VERTEX
  5
1F3
  8
1
  6
CONTINUOUS
 62
     9
 10
-231.2409473897141
 20
286.8447912969094
 30
0.0
  0
VERTEX
  5
1F4
  8
1
  6
CONTINUOUS
 62
     9
 10
-231.2493021067631
 20
286.8373057497316
 30
0.0
  0
VERTEX
  5
1F5
  8
1
  6
CONTINUOUS
 62
     9
 10
-231.2564078429432
 20
286.830409438534
 30
0.0
  0
VERTEX
  5
1F6
  8
1
  6
CONTINUOUS
 62
     9
 10
-231.2632617183417
 20
286.8231921332123
 30
0.0
  0
VERTEX
  5
1F7
  8
1
  6
CONTINUOUS
 62
     9
 10
-231.2676507227553
 20
286.8182173525145
 30
0.0
  0
VERTEX
  5
1F8
  8
1
  6
CONTINUOUS
 62
     9
 10
-231.2718962151392
 20
286.8130899525551
 30
0.0
  0
VERTEX
  5
1F9
  8
1
  6
CONTINUOUS
 62
     9
 10
-231.2763409845443
 20
286.8073245388758
 30
0.0
  0
VERTEX
  5
1FA
  8
1
  6
CONTINUOUS
 62
     9
 10
-231.2805772753154
 20
286.8013664822865
 30
0.0
  0
VERTEX
  5
1FB
  8
1
  6
CONTINUOUS
 62
     9
 10
-231.2846778090424
 20
286.7950564676265
 30
0.0
  0
VERTEX
  5
1FC
  8
1
  6
CONTINUOUS
 62
     9
 10
-231.288507187807
 20
286.7885370360902
 30
0.0
  0
VERTEX
  5
1FD
  8
1
  6
CONTINUOUS
 62
     9
 10
-231.2915738661694
 20
286.7827365230634
 30
0.0
  0
VERTEX
  5
1FE
  8
1
  6
CONTINUOUS
 62
     9
 10
-231.2943941226333
 20
286.7767840875831
 30
0.0
  0
VERTEX
  5
1FF
  8
1
  6
CONTINUOUS
 62
     9
 10
-231.2968400683799
 20
286.7709567163603
 30
0.0
  0
VERTEX
  5
200
  8
1
  6
CONTINUOUS
 62
     9
 10
-231.2990224698949
 20
286.7650024530805
 30
0.0
  0
VERTEX
  5
201
  8
1
  6
CONTINUOUS
 62
     9
 10
-231.3005536326073
 20
286.7601965751977
 30
0.0
  0
VERTEX
  5
202
  8
1
  6
CONTINUOUS
 62
     9
 10
-231.3018982374425
 20
286.7553249898804
 30
0.0
  0
VERTEX
  5
203
  8
1
  6
CONTINUOUS
 62
     9
 10
-231.3028496217797
 20
286.7513157033369
 30
0.0
  0
VERTEX
  5
204
  8
1
  6
CONTINUOUS
 62
     9
 10
-231.3039762743961
 20
286.7455388948272
 30
0.0
  0
VERTEX
  5
205
  8
1
  6
CONTINUOUS
 62
     9
 10
-231.3044358871649
 20
286.7426257327524
 30
0.0
  0
VERTEX
  5
206
  8
1
  6
CONTINUOUS
 62
     9
 10
-231.3048242336808
 20
286.7397040413
 30
0.0
  0
VERTEX
  5
207
  8
1
  6
CONTINUOUS
 62
     9
 10
-231.3051458292164
 20
286.7367226073119
 30
0.0
  0
VERTEX
  5
208
  8
1
  6
CONTINUOUS
 62
     9
 10
-231.3053926474309
 20
286.7337366362528
 30
0.0
  0
VERTEX
  5
209
  8
1
  6
CONTINUOUS
 62
     9
 10
-231.3055648725827
 20
286.7307394626159
 30
0.0
  0
VERTEX
  5
20A
  8
1
  6
CONTINUOUS
 62
     9
 10
-231.3056617481473
 20
286.7277421653374
 30
0.0
  0
VERTEX
  5
20B
  8
1
  6
CONTINUOUS
 62
     9
 10
-231.3056835404938
 20
286.7247629281829
 30
0.0
  0
VERTEX
  5
20C
  8
1
  6
CONTINUOUS
 62
     9
 10
-231.3056314366357
 20
286.7217878768278
 30
0.0
  0
VERTEX
  5
20D
  8
1
  6
CONTINUOUS
 62
     9
 10
-231.3055055320141
 20
286.7188106540934
 30
0.0
  0
VERTEX
  5
20E
  8
1
  6
CONTINUOUS
 62
     9
 10
-231.3053066994874
 20
286.7158417524063
 30
0.0
  0
VERTEX
  5
20F
  8
1
  6
CONTINUOUS
 62
     9
 10
-231.3049241938835
 20
286.7118499017711
 30
0.0
  0
VERTEX
  5
210
  8
1
  6
CONTINUOUS
 62
     9
 10
-231.3044124386938
 20
286.7078759050405
 30
0.0
  0
VERTEX
  5
211
  8
1
  6
CONTINUOUS
 62
     9
 10
-231.3037742628451
 20
286.7039247710154
 30
0.0
  0
VERTEX
  5
212
  8
1
  6
CONTINUOUS
 62
     9
 10
-231.3030127448703
 20
286.7
 30
0.0
  0
SEQEND
  5
5B7
  8
1
  6
CONTINUOUS
 62
     9
  0
LINE
  5
C7
  8
1
  6
CONTINUOUS
 62
     7
 10
-230.6058377567662
 20
286.9999999999999
 30
0.0
 11
-228.9169532253526
 21
286.9999999999999
 31
0.0
  0
POLYLINE
  5
C8
  8
1
  6
CONTINUOUS
 62
     9
 66
     1
 10
0.0
 20
0.0
 30
0.0
  0
VERTEX
  5
213
  8
1
  6
CONTINUOUS
 62
     9
 10
-231.3030127448702
 20
283.8
 30
0.0
  0
VERTEX
  5
214
  8
1
  6
CONTINUOUS
 62
     9
 10
-231.3038898460283
 20
283.7954151514127
 30
0.0
  0
VERTEX
  5
215
  8
1
  6
CONTINUOUS
 62
     9
 10
-231.3045999521516
 20
283.7907813759963
 30
0.0
  0
VERTEX
  5
216
  8
1
  6
CONTINUOUS
 62
     9
 10
-231.3050439098947
 20
283.7870387652923
 30
0.0
  0
VERTEX
  5
217
  8
1
  6
CONTINUOUS
 62
     9
 10
-231.3053733742879
 20
283.7832766963753
 30
0.0
  0
VERTEX
  5
218
  8
1
  6
CONTINUOUS
 62
     9
 10
-231.3055867130276
 20
283.7794821880067
 30
0.0
  0
VERTEX
  5
219
  8
1
  6
CONTINUOUS
 62
     9
 10
-231.3056805021449
 20
283.7756760125688
 30
0.0
  0
VERTEX
  5
21A
  8
1
  6
CONTINUOUS
 62
     9
 10
-231.3056258163279
 20
283.7708560781186
 30
0.0
  0
VERTEX
  5
21B
  8
1
  6
CONTINUOUS
 62
     9
 10
-231.3053756496855
 20
283.7660242161276
 30
0.0
  0
VERTEX
  5
21C
  8
1
  6
CONTINUOUS
 62
     9
 10
-231.3050264977903
 20
283.7620873641866
 30
0.0
  0
VERTEX
  5
21D
  8
1
  6
CONTINUOUS
 62
     9
 10
-231.3045409905739
 20
283.7581133241737
 30
0.0
  0
VERTEX
  5
21E
  8
1
  6
CONTINUOUS
 62
     9
 10
-231.3037589246258
 20
283.7532228435791
 30
0.0
  0
VERTEX
  5
21F
  8
1
  6
CONTINUOUS
 62
     9
 10
-231.3027766987719
 20
283.7483548401544
 30
0.0
  0
VERTEX
  5
220
  8
1
  6
CONTINUOUS
 62
     9
 10
-231.3020489622857
 20
283.7452729117578
 30
0.0
  0
VERTEX
  5
221
  8
1
  6
CONTINUOUS
 62
     9
 10
-231.3012437971672
 20
283.7422098292174
 30
0.0
  0
VERTEX
  5
222
  8
1
  6
CONTINUOUS
 62
     9
 10
-231.3003600295565
 20
283.7391585836369
 30
0.0
  0
VERTEX
  5
223
  8
1
  6
CONTINUOUS
 62
     9
 10
-231.2994017775892
 20
283.7361302456691
 30
0.0
  0
VERTEX
  5
224
  8
1
  6
CONTINUOUS
 62
     9
 10
-231.2983104465468
 20
283.7329573932442
 30
0.0
  0
VERTEX
  5
225
  8
1
  6
CONTINUOUS
 62
     9
 10
-231.2971404737026
 20
283.7298139430009
 30
0.0
  0
VERTEX
  5
226
  8
1
  6
CONTINUOUS
 62
     9
 10
-231.2958905584081
 20
283.726692563643
 30
0.0
  0
VERTEX
  5
227
  8
1
  6
CONTINUOUS
 62
     9
 10
-231.2945666161206
 20
283.7236039322671
 30
0.0
  0
VERTEX
  5
228
  8
1
  6
CONTINUOUS
 62
     9
 10
-231.2927584828163
 20
283.7196802079261
 30
0.0
  0
VERTEX
  5
229
  8
1
  6
CONTINUOUS
 62
     9
 10
-231.2908357626511
 20
283.7158111630981
 30
0.0
  0
VERTEX
  5
22A
  8
1
  6
CONTINUOUS
 62
     9
 10
-231.2889916652135
 20
283.7123407433359
 30
0.0
  0
VERTEX
  5
22B
  8
1
  6
CONTINUOUS
 62
     9
 10
-231.2870630167774
 20
283.7089215267532
 30
0.0
  0
VERTEX
  5
22C
  8
1
  6
CONTINUOUS
 62
     9
 10
-231.2829565243146
 20
283.7022207562195
 30
0.0
  0
VERTEX
  5
22D
  8
1
  6
CONTINUOUS
 62
     9
 10
-231.2792609434223
 20
283.6967274294437
 30
0.0
  0
VERTEX
  5
22E
  8
1
  6
CONTINUOUS
 62
     9
 10
-231.2753696090527
 20
283.691376608832
 30
0.0
  0
VERTEX
  5
22F
  8
1
  6
CONTINUOUS
 62
     9
 10
-231.2695695016988
 20
283.6840584080953
 30
0.0
  0
VERTEX
  5
230
  8
1
  6
CONTINUOUS
 62
     9
 10
-231.2634507478275
 20
283.6770159884636
 30
0.0
  0
VERTEX
  5
231
  8
1
  6
CONTINUOUS
 62
     9
 10
-231.2561250610828
 20
283.6693055077378
 30
0.0
  0
VERTEX
  5
232
  8
1
  6
CONTINUOUS
 62
     9
 10
-231.2484820839443
 20
283.6619317328372
 30
0.0
  0
VERTEX
  5
233
  8
1
  6
CONTINUOUS
 62
     9
 10
-231.2399488579347
 20
283.6543533635656
 30
0.0
  0
VERTEX
  5
234
  8
1
  6
CONTINUOUS
 62
     9
 10
-231.2282793501647
 20
283.6448919534354
 30
0.0
  0
VERTEX
  5
235
  8
1
  6
CONTINUOUS
 62
     9
 10
-231.2142013038577
 20
283.6345868293156
 30
0.0
  0
VERTEX
  5
236
  8
1
  6
CONTINUOUS
 62
     9
 10
-231.1996840975856
 20
283.6249751020219
 30
0.0
  0
VERTEX
  5
237
  8
1
  6
CONTINUOUS
 62
     9
 10
-231.1814783631333
 20
283.6140901852366
 30
0.0
  0
VERTEX
  5
238
  8
1
  6
CONTINUOUS
 62
     9
 10
-231.1628476747973
 20
283.6040486655865
 30
0.0
  0
VERTEX
  5
239
  8
1
  6
CONTINUOUS
 62
     9
 10
-231.1425986816244
 20
283.5941713042228
 30
0.0
  0
VERTEX
  5
23A
  8
1
  6
CONTINUOUS
 62
     9
 10
-231.1220419936495
 20
283.5850718626126
 30
0.0
  0
VERTEX
  5
23B
  8
1
  6
CONTINUOUS
 62
     9
 10
-231.0892720900304
 20
283.5721769689806
 30
0.0
  0
VERTEX
  5
23C
  8
1
  6
CONTINUOUS
 62
     9
 10
-231.0560334717338
 20
283.5607825856334
 30
0.0
  0
VERTEX
  5
23D
  8
1
  6
CONTINUOUS
 62
     9
 10
-231.0109481443085
 20
283.54755627888
 30
0.0
  0
VERTEX
  5
23E
  8
1
  6
CONTINUOUS
 62
     9
 10
-230.9654151518867
 20
283.5363742071937
 30
0.0
  0
VERTEX
  5
23F
  8
1
  6
CONTINUOUS
 62
     9
 10
-230.914126698967
 20
283.5259886245562
 30
0.0
  0
VERTEX
  5
240
  8
1
  6
CONTINUOUS
 62
     9
 10
-230.8374301868829
 20
283.5141661522265
 30
0.0
  0
VERTEX
  5
241
  8
1
  6
CONTINUOUS
 62
     9
 10
-230.7603836132838
 20
283.5061391479702
 30
0.0
  0
VERTEX
  5
242
  8
1
  6
CONTINUOUS
 62
     9
 10
-230.6831148501011
 20
283.5015032824472
 30
0.0
  0
VERTEX
  5
243
  8
1
  6
CONTINUOUS
 62
     9
 10
-230.6058377567662
 20
283.5
 30
0.0
  0
SEQEND
  5
5B8
  8
1
  6
CONTINUOUS
 62
     9
  0
LINE
  5
C9
  8
1
  6
CONTINUOUS
 62
     7
 10
-228.9169532253526
 20
283.5
 30
0.0
 11
-230.6058377567662
 21
283.5
 31
0.0
  0
LINE
  5
CA
  8
1
  6
CONTINUOUS
 62
     7
 10
-237.9923927799163
 20
270.95
 30
0.0
 11
-237.9923927799163
 21
285.25
 31
0.0
  0
LINE
  5
CB
  8
1
  6
CONTINUOUS
 62
     7
 10
-237.9923927799163
 20
285.25
 30
0.0
 11
-237.9923927799163
 21
299.55
 31
0.0
  0
LINE
  5
CC
  8
1
  6
CONTINUOUS
 62
     7
 10
-247.3084587976579
 20
269.9504502133379
 30
0.0
 11
-247.3330805403183
 21
269.9965348135871
 31
0.0
  0
LINE
  5
CD
  8
1
  6
CONTINUOUS
 62
     7
 10
-246.308428282263
 20
300.5494121142953
 30
0.0
 11
-246.3331818630885
 21
300.5031545499428
 31
0.0
  0
LINE
  5
CE
  8
1
  6
CONTINUOUS
 62
     7
 10
-245.3084181965158
 20
269.9506380544491
 30
0.0
 11
-245.333196857155
 21
269.9967508814296
 31
0.0
  0
LINE
  5
CF
  8
1
  6
CONTINUOUS
 62
     7
 10
-244.3084080595204
 20
300.549412113999
 30
0.0
 11
-244.333002136865
 21
300.5041631179745
 31
0.0
  0
LINE
  5
D0
  8
1
  6
CONTINUOUS
 62
     7
 10
-243.3083775952895
 20
269.9504502129477
 30
0.0
 11
-243.3328548164407
 21
269.9951247781368
 31
0.0
  0
LINE
  5
D1
  8
1
  6
CONTINUOUS
 62
     7
 10
-242.3083132804376
 20
300.5497369744128
 30
0.0
 11
-242.3329530103066
 21
300.5045706390494
 31
0.0
  0
LINE
  5
D2
  8
1
  6
CONTINUOUS
 62
     7
 10
-241.308329327579
 20
269.9500838972705
 30
0.0
 11
-241.3331465595445
 21
269.9962550219733
 31
0.0
  0
LINE
  5
D3
  8
1
  6
CONTINUOUS
 62
     7
 10
-240.6762785200112
 20
269.9500838969303
 30
0.0
 11
-240.6516542404503
 21
269.9965655628429
 31
0.0
  0
LINE
  5
D4
  8
1
  6
CONTINUOUS
 62
     7
 10
-241.6762624728699
 20
300.5497369748131
 30
0.0
 11
-241.6517629407813
 21
300.503714723037
 31
0.0
  0
LINE
  5
D5
  8
1
  6
CONTINUOUS
 62
     7
 10
-242.6763267877218
 20
269.9504502127959
 30
0.0
 11
-242.6517050195141
 21
269.9965348135871
 31
0.0
  0
LINE
  5
D6
  8
1
  6
CONTINUOUS
 62
     7
 10
-243.6763572519527
 20
300.5494121140351
 30
0.0
 11
-243.651603696744
 21
300.5031545499428
 31
0.0
  0
LINE
  5
D7
  8
1
  6
CONTINUOUS
 62
     7
 10
-244.6763673889565
 20
269.9506380544491
 30
0.0
 11
-244.6515887026775
 21
269.9967508814296
 31
0.0
  0
LINE
  5
D8
  8
1
  6
CONTINUOUS
 62
     7
 10
-245.6763774746952
 20
300.5494121142593
 30
0.0
 11
-245.6517834229675
 21
300.5041631179745
 31
0.0
  0
LINE
  5
D9
  8
1
  6
CONTINUOUS
 62
     7
 10
-246.6764079900902
 20
269.9504502134897
 30
0.0
 11
-246.6519307433918
 21
269.9951247781368
 31
0.0
  0
LINE
  5
DA
  8
1
  6
CONTINUOUS
 62
     7
 10
-247.676472255488
 20
300.5497369752035
 30
0.0
 11
-247.6518325495259
 21
300.5045706390494
 31
0.0
  0
LINE
  5
DB
  8
1
  6
CONTINUOUS
 62
     7
 10
-240.3084181837007
 20
300.55
 30
0.0
 11
-239.6763673761318
 21
300.55
 31
0.0
  0
ARC
  5
DC
  8
1
  6
CONTINUOUS
 62
     7
 10
160.2385860054356
 20
290.9699934724766
 30
0.0
 40
408.1109522409309
 50
180.4628214597424
 51
182.9458171820652
  0
LINE
  5
DD
  8
1
  6
CONTINUOUS
 62
     7
 10
-247.8590516514492
 20
287.673407682705
 30
0.0
 11
-247.8923927799163
 21
289.2395282199412
 31
0.0
  0
POLYLINE
  5
DE
  8
1
  6
CONTINUOUS
 62
     7
 66
     1
 10
0.0
 20
0.0
 30
0.0
  0
VERTEX
  5
244
  8
1
  6
CONTINUOUS
 62
     7
 10
-245.333196857155
 20
269.9967508814296
 30
0.0
  0
VERTEX
  5
245
  8
1
  6
CONTINUOUS
 62
     7
 10
-245.3433555178332
 20
270.0423118686824
 30
0.0
  0
VERTEX
  5
246
  8
1
  6
CONTINUOUS
 62
     7
 10
-245.3535141785114
 20
270.1033741872902
 30
0.0
  0
VERTEX
  5
247
  8
1
  6
CONTINUOUS
 62
     7
 10
-245.3636728391897
 20
270.1799378372735
 30
0.0
  0
VERTEX
  5
248
  8
1
  6
CONTINUOUS
 62
     7
 10
-245.3738314998679
 20
270.2719811892119
 30
0.0
  0
VERTEX
  5
249
  8
1
  6
CONTINUOUS
 62
     7
 10
-245.3839901605461
 20
270.3793687664752
 30
0.0
  0
VERTEX
  5
24A
  8
1
  6
CONTINUOUS
 62
     7
 10
-245.3941488212243
 20
270.501927768028
 30
0.0
  0
VERTEX
  5
24B
  8
1
  6
CONTINUOUS
 62
     7
 10
-245.4043074819025
 20
270.6394853710813
 30
0.0
  0
VERTEX
  5
24C
  8
1
  6
CONTINUOUS
 62
     7
 10
-245.4144661425807
 20
270.7918687528456
 30
0.0
  0
VERTEX
  5
24D
  8
1
  6
CONTINUOUS
 62
     7
 10
-245.424624803259
 20
270.9589050905322
 30
0.0
  0
VERTEX
  5
24E
  8
1
  6
CONTINUOUS
 62
     7
 10
-245.4347834639372
 20
271.1404215613516
 30
0.0
  0
VERTEX
  5
24F
  8
1
  6
CONTINUOUS
 62
     7
 10
-245.4449421246153
 20
271.3362453425148
 30
0.0
  0
VERTEX
  5
250
  8
1
  6
CONTINUOUS
 62
     7
 10
-245.4551007852935
 20
271.5462036112326
 30
0.0
  0
VERTEX
  5
251
  8
1
  6
CONTINUOUS
 62
     7
 10
-245.4652594459718
 20
271.7701235447159
 30
0.0
  0
VERTEX
  5
252
  8
1
  6
CONTINUOUS
 62
     7
 10
-245.4754181066499
 20
272.0078323201756
 30
0.0
  0
VERTEX
  5
253
  8
1
  6
CONTINUOUS
 62
     7
 10
-245.4855767673282
 20
272.2591416908909
 30
0.0
  0
VERTEX
  5
254
  8
1
  6
CONTINUOUS
 62
     7
 10
-245.4957354280064
 20
272.5237656179352
 30
0.0
  0
VERTEX
  5
255
  8
1
  6
CONTINUOUS
 62
     7
 10
-245.5058940886845
 20
272.8013798547167
 30
0.0
  0
VERTEX
  5
256
  8
1
  6
CONTINUOUS
 62
     7
 10
-245.5160527493628
 20
273.0916600667737
 30
0.0
  0
VERTEX
  5
257
  8
1
  6
CONTINUOUS
 62
     7
 10
-245.526211410041
 20
273.3942819196438
 30
0.0
  0
VERTEX
  5
258
  8
1
  6
CONTINUOUS
 62
     7
 10
-245.5363700707192
 20
273.7089210788653
 30
0.0
  0
VERTEX
  5
259
  8
1
  6
CONTINUOUS
 62
     7
 10
-245.5465287313974
 20
274.035253209976
 30
0.0
  0
VERTEX
  5
25A
  8
1
  6
CONTINUOUS
 62
     7
 10
-245.5566873920756
 20
274.3729539785139
 30
0.0
  0
VERTEX
  5
25B
  8
1
  6
CONTINUOUS
 62
     7
 10
-245.5668460527538
 20
274.7216990500169
 30
0.0
  0
VERTEX
  5
25C
  8
1
  6
CONTINUOUS
 62
     7
 10
-245.577004713432
 20
275.0811640900233
 30
0.0
  0
VERTEX
  5
25D
  8
1
  6
CONTINUOUS
 62
     7
 10
-245.5871633741102
 20
275.4510247640707
 30
0.0
  0
VERTEX
  5
25E
  8
1
  6
CONTINUOUS
 62
     7
 10
-245.5973220347884
 20
275.8309476435581
 30
0.0
  0
VERTEX
  5
25F
  8
1
  6
CONTINUOUS
 62
     7
 10
-245.6074806954666
 20
276.22052943596
 30
0.0
  0
VERTEX
  5
260
  8
1
  6
CONTINUOUS
 62
     7
 10
-245.6176393561448
 20
276.6193344666004
 30
0.0
  0
VERTEX
  5
261
  8
1
  6
CONTINUOUS
 62
     7
 10
-245.627798016823
 20
277.0269268836993
 30
0.0
  0
VERTEX
  5
262
  8
1
  6
CONTINUOUS
 62
     7
 10
-245.6379566775013
 20
277.4428708354766
 30
0.0
  0
VERTEX
  5
263
  8
1
  6
CONTINUOUS
 62
     7
 10
-245.6481153381795
 20
277.8667304701524
 30
0.0
  0
VERTEX
  5
264
  8
1
  6
CONTINUOUS
 62
     7
 10
-245.6582739988577
 20
278.2980699359464
 30
0.0
  0
VERTEX
  5
265
  8
1
  6
CONTINUOUS
 62
     7
 10
-245.6684326595359
 20
278.7364533810787
 30
0.0
  0
VERTEX
  5
266
  8
1
  6
CONTINUOUS
 62
     7
 10
-245.6785913202141
 20
279.1814449537692
 30
0.0
  0
VERTEX
  5
267
  8
1
  6
CONTINUOUS
 62
     7
 10
-245.6887499808923
 20
279.6326088022379
 30
0.0
  0
VERTEX
  5
268
  8
1
  6
CONTINUOUS
 62
     7
 10
-245.6989086415705
 20
280.0895090747047
 30
0.0
  0
VERTEX
  5
269
  8
1
  6
CONTINUOUS
 62
     7
 10
-245.7090673022487
 20
280.5517062116562
 30
0.0
  0
VERTEX
  5
26A
  8
1
  6
CONTINUOUS
 62
     7
 10
-245.7192259629269
 20
281.0187258439672
 30
0.0
  0
VERTEX
  5
26B
  8
1
  6
CONTINUOUS
 62
     7
 10
-245.7293846236052
 20
281.4900745431032
 30
0.0
  0
VERTEX
  5
26C
  8
1
  6
CONTINUOUS
 62
     7
 10
-245.7395432842833
 20
281.9652586857524
 30
0.0
  0
VERTEX
  5
26D
  8
1
  6
CONTINUOUS
 62
     7
 10
-245.7497019449615
 20
282.4437846486031
 30
0.0
  0
VERTEX
  5
26E
  8
1
  6
CONTINUOUS
 62
     7
 10
-245.7598606056398
 20
282.925158808344
 30
0.0
  0
VERTEX
  5
26F
  8
1
  6
CONTINUOUS
 62
     7
 10
-245.770019266318
 20
283.4088875416633
 30
0.0
  0
VERTEX
  5
270
  8
1
  6
CONTINUOUS
 62
     7
 10
-245.7801779269961
 20
283.8944772252495
 30
0.0
  0
VERTEX
  5
271
  8
1
  6
CONTINUOUS
 62
     7
 10
-245.7903365876744
 20
284.381434235791
 30
0.0
  0
VERTEX
  5
272
  8
1
  6
CONTINUOUS
 62
     7
 10
-245.8004952483526
 20
284.8692649499762
 30
0.0
  0
VERTEX
  5
273
  8
1
  6
CONTINUOUS
 62
     7
 10
-245.8106539090307
 20
285.3574757444935
 30
0.0
  0
VERTEX
  5
274
  8
1
  6
CONTINUOUS
 62
     7
 10
-245.820812569709
 20
285.845573149297
 30
0.0
  0
VERTEX
  5
275
  8
1
  6
CONTINUOUS
 62
     7
 10
-245.8309712303872
 20
286.3330654735319
 30
0.0
  0
VERTEX
  5
276
  8
1
  6
CONTINUOUS
 62
     7
 10
-245.8411298910654
 20
286.8194621730114
 30
0.0
  0
VERTEX
  5
277
  8
1
  6
CONTINUOUS
 62
     7
 10
-245.8512885517437
 20
287.3042727226062
 30
0.0
  0
VERTEX
  5
278
  8
1
  6
CONTINUOUS
 62
     7
 10
-245.8614472124219
 20
287.787006597187
 30
0.0
  0
VERTEX
  5
279
  8
1
  6
CONTINUOUS
 62
     7
 10
-245.8716058731
 20
288.2671732716245
 30
0.0
  0
VERTEX
  5
27A
  8
1
  6
CONTINUOUS
 62
     7
 10
-245.8817645337783
 20
288.7442822207893
 30
0.0
  0
VERTEX
  5
27B
  8
1
  6
CONTINUOUS
 62
     7
 10
-245.8919231944565
 20
289.2178429195523
 30
0.0
  0
VERTEX
  5
27C
  8
1
  6
CONTINUOUS
 62
     7
 10
-245.9020818551347
 20
289.6873648427839
 30
0.0
  0
VERTEX
  5
27D
  8
1
  6
CONTINUOUS
 62
     7
 10
-245.9122405158129
 20
290.152357465355
 30
0.0
  0
VERTEX
  5
27E
  8
1
  6
CONTINUOUS
 62
     7
 10
-245.9223991764911
 20
290.6123302621361
 30
0.0
  0
VERTEX
  5
27F
  8
1
  6
CONTINUOUS
 62
     7
 10
-245.9325578371693
 20
291.0667950733267
 30
0.0
  0
VERTEX
  5
280
  8
1
  6
CONTINUOUS
 62
     7
 10
-245.9427164978475
 20
291.5152982241912
 30
0.0
  0
VERTEX
  5
281
  8
1
  6
CONTINUOUS
 62
     7
 10
-245.9528751585257
 20
291.9574121301691
 30
0.0
  0
VERTEX
  5
282
  8
1
  6
CONTINUOUS
 62
     7
 10
-245.9630338192039
 20
292.3927098519841
 30
0.0
  0
VERTEX
  5
283
  8
1
  6
CONTINUOUS
 62
     7
 10
-245.9731924798822
 20
292.8207644503596
 30
0.0
  0
VERTEX
  5
284
  8
1
  6
CONTINUOUS
 62
     7
 10
-245.9833511405604
 20
293.241148986019
 30
0.0
  0
VERTEX
  5
285
  8
1
  6
CONTINUOUS
 62
     7
 10
-245.9935098012385
 20
293.6534365196858
 30
0.0
  0
VERTEX
  5
286
  8
1
  6
CONTINUOUS
 62
     7
 10
-246.0036684619168
 20
294.0572001120838
 30
0.0
  0
VERTEX
  5
287
  8
1
  6
CONTINUOUS
 62
     7
 10
-246.013827122595
 20
294.4520128239361
 30
0.0
  0
VERTEX
  5
288
  8
1
  6
CONTINUOUS
 62
     7
 10
-246.0239857832732
 20
294.8374477159664
 30
0.0
  0
VERTEX
  5
289
  8
1
  6
CONTINUOUS
 62
     7
 10
-246.0341444439514
 20
295.2130778488981
 30
0.0
  0
VERTEX
  5
28A
  8
1
  6
CONTINUOUS
 62
     7
 10
-246.0443031046296
 20
295.578479438748
 30
0.0
  0
VERTEX
  5
28B
  8
1
  6
CONTINUOUS
 62
     7
 10
-246.0544617653078
 20
295.9332876791883
 30
0.0
  0
VERTEX
  5
28C
  8
1
  6
CONTINUOUS
 62
     7
 10
-246.064620425986
 20
296.2771900522159
 30
0.0
  0
VERTEX
  5
28D
  8
1
  6
CONTINUOUS
 62
     7
 10
-246.0747790866642
 20
296.6098758511748
 30
0.0
  0
VERTEX
  5
28E
  8
1
  6
CONTINUOUS
 62
     7
 10
-246.0849377473424
 20
296.9310343694081
 30
0.0
  0
VERTEX
  5
28F
  8
1
  6
CONTINUOUS
 62
     7
 10
-246.0950964080207
 20
297.2403549002596
 30
0.0
  0
VERTEX
  5
290
  8
1
  6
CONTINUOUS
 62
     7
 10
-246.1052550686988
 20
297.5375267370725
 30
0.0
  0
VERTEX
  5
291
  8
1
  6
CONTINUOUS
 62
     7
 10
-246.1154137293771
 20
297.8222391731907
 30
0.0
  0
VERTEX
  5
292
  8
1
  6
CONTINUOUS
 62
     7
 10
-246.1255723900553
 20
298.0941815019575
 30
0.0
  0
VERTEX
  5
293
  8
1
  6
CONTINUOUS
 62
     7
 10
-246.1357310507335
 20
298.3530430167164
 30
0.0
  0
VERTEX
  5
294
  8
1
  6
CONTINUOUS
 62
     7
 10
-246.1458897114117
 20
298.5985130108109
 30
0.0
  0
VERTEX
  5
295
  8
1
  6
CONTINUOUS
 62
     7
 10
-246.1560483720899
 20
298.8302837279757
 30
0.0
  0
VERTEX
  5
296
  8
1
  6
CONTINUOUS
 62
     7
 10
-246.1662070327681
 20
299.0481200717148
 30
0.0
  0
VERTEX
  5
297
  8
1
  6
CONTINUOUS
 62
     7
 10
-246.1763656934463
 20
299.2518623769161
 30
0.0
  0
VERTEX
  5
298
  8
1
  6
CONTINUOUS
 62
     7
 10
-246.1865243541245
 20
299.4413544834251
 30
0.0
  0
VERTEX
  5
299
  8
1
  6
CONTINUOUS
 62
     7
 10
-246.1966830148027
 20
299.6164402310871
 30
0.0
  0
VERTEX
  5
29A
  8
1
  6
CONTINUOUS
 62
     7
 10
-246.2068416754809
 20
299.7769634597475
 30
0.0
  0
VERTEX
  5
29B
  8
1
  6
CONTINUOUS
 62
     7
 10
-246.2170003361591
 20
299.922768009252
 30
0.0
  0
VERTEX
  5
29C
  8
1
  6
CONTINUOUS
 62
     7
 10
-246.2271589968373
 20
300.0536977194456
 30
0.0
  0
VERTEX
  5
29D
  8
1
  6
CONTINUOUS
 62
     7
 10
-246.2373176575155
 20
300.169596430174
 30
0.0
  0
VERTEX
  5
29E
  8
1
  6
CONTINUOUS
 62
     7
 10
-246.2474763181937
 20
300.2703079812826
 30
0.0
  0
VERTEX
  5
29F
  8
1
  6
CONTINUOUS
 62
     7
 10
-246.257634978872
 20
300.3556762126168
 30
0.0
  0
VERTEX
  5
2A0
  8
1
  6
CONTINUOUS
 62
     7
 10
-246.2677936395501
 20
300.4255471905562
 30
0.0
  0
VERTEX
  5
2A1
  8
1
  6
CONTINUOUS
 62
     7
 10
-246.2779523002284
 20
300.4798419279405
 30
0.0
  0
VERTEX
  5
2A2
  8
1
  6
CONTINUOUS
 62
     7
 10
-246.2881109609066
 20
300.5185725658385
 30
0.0
  0
VERTEX
  5
2A3
  8
1
  6
CONTINUOUS
 62
     7
 10
-246.2982696215848
 20
300.5417567470303
 30
0.0
  0
VERTEX
  5
2A4
  8
1
  6
CONTINUOUS
 62
     7
 10
-246.308428282263
 20
300.5494121142953
 30
0.0
  0
SEQEND
  5
5B9
  8
1
  6
CONTINUOUS
 62
     7
  0
POLYLINE
  5
DF
  8
1
  6
CONTINUOUS
 62
     7
 66
     1
 10
0.0
 20
0.0
 30
0.0
  0
VERTEX
  5
2A5
  8
1
  6
CONTINUOUS
 62
     7
 10
-243.3328548164407
 20
269.9951247781368
 30
0.0
  0
VERTEX
  5
2A6
  8
1
  6
CONTINUOUS
 62
     7
 10
-243.3430168293895
 20
270.0402926642016
 30
0.0
  0
VERTEX
  5
2A7
  8
1
  6
CONTINUOUS
 62
     7
 10
-243.3531788423383
 20
270.1010942804095
 30
0.0
  0
VERTEX
  5
2A8
  8
1
  6
CONTINUOUS
 62
     7
 10
-243.363340855287
 20
270.1774123022361
 30
0.0
  0
VERTEX
  5
2A9
  8
1
  6
CONTINUOUS
 62
     7
 10
-243.3735028682358
 20
270.2691072888421
 30
0.0
  0
VERTEX
  5
2AA
  8
1
  6
CONTINUOUS
 62
     7
 10
-243.3836648811845
 20
270.3760397993881
 30
0.0
  0
VERTEX
  5
2AB
  8
1
  6
CONTINUOUS
 62
     7
 10
-243.3938268941332
 20
270.4980703930349
 30
0.0
  0
VERTEX
  5
2AC
  8
1
  6
CONTINUOUS
 62
     7
 10
-243.403988907082
 20
270.6350596289432
 30
0.0
  0
VERTEX
  5
2AD
  8
1
  6
CONTINUOUS
 62
     7
 10
-243.4141509200307
 20
270.7868680662738
 30
0.0
  0
VERTEX
  5
2AE
  8
1
  6
CONTINUOUS
 62
     7
 10
-243.4243129329794
 20
270.9533562641871
 30
0.0
  0
VERTEX
  5
2AF
  8
1
  6
CONTINUOUS
 62
     7
 10
-243.4344749459282
 20
271.1343847818441
 30
0.0
  0
VERTEX
  5
2B0
  8
1
  6
CONTINUOUS
 62
     7
 10
-243.4446369588769
 20
271.3298141784053
 30
0.0
  0
VERTEX
  5
2B1
  8
1
  6
CONTINUOUS
 62
     7
 10
-243.4547989718257
 20
271.5395050122616
 30
0.0
  0
VERTEX
  5
2B2
  8
1
  6
CONTINUOUS
 62
     7
 10
-243.4649609847745
 20
271.7632890826088
 30
0.0
  0
VERTEX
  5
2B3
  8
1
  6
CONTINUOUS
 62
     7
 10
-243.4751229977232
 20
272.0008933063775
 30
0.0
  0
VERTEX
  5
2B4
  8
1
  6
CONTINUOUS
 62
     7
 10
-243.4852850106719
 20
272.2520206980676
 30
0.0
  0
VERTEX
  5
2B5
  8
1
  6
CONTINUOUS
 62
     7
 10
-243.4954470236206
 20
272.5163742721787
 30
0.0
  0
VERTEX
  5
2B6
  8
1
  6
CONTINUOUS
 62
     7
 10
-243.5056090365694
 20
272.7936570432109
 30
0.0
  0
VERTEX
  5
2B7
  8
1
  6
CONTINUOUS
 62
     7
 10
-243.5157710495182
 20
273.0835720256638
 30
0.0
  0
VERTEX
  5
2B8
  8
1
  6
CONTINUOUS
 62
     7
 10
-243.5259330624669
 20
273.3858222340372
 30
0.0
  0
VERTEX
  5
2B9
  8
1
  6
CONTINUOUS
 62
     7
 10
-243.5360950754156
 20
273.7001106828309
 30
0.0
  0
VERTEX
  5
2BA
  8
1
  6
CONTINUOUS
 62
     7
 10
-243.5462570883644
 20
274.0261403865447
 30
0.0
  0
VERTEX
  5
2BB
  8
1
  6
CONTINUOUS
 62
     7
 10
-243.5564191013132
 20
274.3636143596785
 30
0.0
  0
VERTEX
  5
2BC
  8
1
  6
CONTINUOUS
 62
     7
 10
-243.5665811142619
 20
274.7122356167319
 30
0.0
  0
VERTEX
  5
2BD
  8
1
  6
CONTINUOUS
 62
     7
 10
-243.5767431272106
 20
275.0716885488924
 30
0.0
  0
VERTEX
  5
2BE
  8
1
  6
CONTINUOUS
 62
     7
 10
-243.5869051401594
 20
275.4415770127458
 30
0.0
  0
VERTEX
  5
2BF
  8
1
  6
CONTINUOUS
 62
     7
 10
-243.5970671531081
 20
275.821483100382
 30
0.0
  0
VERTEX
  5
2C0
  8
1
  6
CONTINUOUS
 62
     7
 10
-243.6072291660569
 20
276.2109889035378
 30
0.0
  0
VERTEX
  5
2C1
  8
1
  6
CONTINUOUS
 62
     7
 10
-243.6173911790056
 20
276.6096765139497
 30
0.0
  0
VERTEX
  5
2C2
  8
1
  6
CONTINUOUS
 62
     7
 10
-243.6275531919543
 20
277.0171280233541
 30
0.0
  0
VERTEX
  5
2C3
  8
1
  6
CONTINUOUS
 62
     7
 10
-243.6377152049031
 20
277.4329255234877
 30
0.0
  0
VERTEX
  5
2C4
  8
1
  6
CONTINUOUS
 62
     7
 10
-243.6478772178518
 20
277.856651106087
 30
0.0
  0
VERTEX
  5
2C5
  8
1
  6
CONTINUOUS
 62
     7
 10
-243.6580392308006
 20
278.2878868628886
 30
0.0
  0
VERTEX
  5
2C6
  8
1
  6
CONTINUOUS
 62
     7
 10
-243.6682012437493
 20
278.7262148856291
 30
0.0
  0
VERTEX
  5
2C7
  8
1
  6
CONTINUOUS
 62
     7
 10
-243.6783632566981
 20
279.1712172660449
 30
0.0
  0
VERTEX
  5
2C8
  8
1
  6
CONTINUOUS
 62
     7
 10
-243.6885252696468
 20
279.6224671724519
 30
0.0
  0
VERTEX
  5
2C9
  8
1
  6
CONTINUOUS
 62
     7
 10
-243.6986872825956
 20
280.0794919694733
 30
0.0
  0
VERTEX
  5
2CA
  8
1
  6
CONTINUOUS
 62
     7
 10
-243.7088492955444
 20
280.5418043657824
 30
0.0
  0
VERTEX
  5
2CB
  8
1
  6
CONTINUOUS
 62
     7
 10
-243.7190113084931
 20
281.0089170634867
 30
0.0
  0
VERTEX
  5
2CC
  8
1
  6
CONTINUOUS
 62
     7
 10
-243.7291733214418
 20
281.4803427646939
 30
0.0
  0
VERTEX
  5
2CD
  8
1
  6
CONTINUOUS
 62
     7
 10
-243.7393353343906
 20
281.9555941715115
 30
0.0
  0
VERTEX
  5
2CE
  8
1
  6
CONTINUOUS
 62
     7
 10
-243.7494973473393
 20
282.4341839860471
 30
0.0
  0
VERTEX
  5
2CF
  8
1
  6
CONTINUOUS
 62
     7
 10
-243.7596593602881
 20
282.9156249104084
 30
0.0
  0
VERTEX
  5
2D0
  8
1
  6
CONTINUOUS
 62
     7
 10
-243.7698213732368
 20
283.3994296467028
 30
0.0
  0
VERTEX
  5
2D1
  8
1
  6
CONTINUOUS
 62
     7
 10
-243.7799833861856
 20
283.885110897038
 30
0.0
  0
VERTEX
  5
2D2
  8
1
  6
CONTINUOUS
 62
     7
 10
-243.7901453991343
 20
284.3721813635216
 30
0.0
  0
VERTEX
  5
2D3
  8
1
  6
CONTINUOUS
 62
     7
 10
-243.8003074120831
 20
284.8601527610866
 30
0.0
  0
VERTEX
  5
2D4
  8
1
  6
CONTINUOUS
 62
     7
 10
-243.8104694250318
 20
285.3485307733638
 30
0.0
  0
VERTEX
  5
2D5
  8
1
  6
CONTINUOUS
 62
     7
 10
-243.8206314379806
 20
285.8368188067639
 30
0.0
  0
VERTEX
  5
2D6
  8
1
  6
CONTINUOUS
 62
     7
 10
-243.8307934509293
 20
286.3245202634789
 30
0.0
  0
VERTEX
  5
2D7
  8
1
  6
CONTINUOUS
 62
     7
 10
-243.840955463878
 20
286.8111385457007
 30
0.0
  0
VERTEX
  5
2D8
  8
1
  6
CONTINUOUS
 62
     7
 10
-243.8511174768268
 20
287.296177055621
 30
0.0
  0
VERTEX
  5
2D9
  8
1
  6
CONTINUOUS
 62
     7
 10
-243.8612794897755
 20
287.7791391954318
 30
0.0
  0
VERTEX
  5
2DA
  8
1
  6
CONTINUOUS
 62
     7
 10
-243.8714415027243
 20
288.259528367325
 30
0.0
  0
VERTEX
  5
2DB
  8
1
  6
CONTINUOUS
 62
     7
 10
-243.881603515673
 20
288.7368479734923
 30
0.0
  0
VERTEX
  5
2DC
  8
1
  6
CONTINUOUS
 62
     7
 10
-243.8917655286218
 20
289.2106014161259
 30
0.0
  0
VERTEX
  5
2DD
  8
1
  6
CONTINUOUS
 62
     7
 10
-243.9019275415705
 20
289.6802920974174
 30
0.0
  0
VERTEX
  5
2DE
  8
1
  6
CONTINUOUS
 62
     7
 10
-243.9120895545192
 20
290.1454279108542
 30
0.0
  0
VERTEX
  5
2DF
  8
1
  6
CONTINUOUS
 62
     7
 10
-243.922251567468
 20
290.6055495669431
 30
0.0
  0
VERTEX
  5
2E0
  8
1
  6
CONTINUOUS
 62
     7
 10
-243.9324135804168
 20
291.0602123388456
 30
0.0
  0
VERTEX
  5
2E1
  8
1
  6
CONTINUOUS
 62
     7
 10
-243.9425755933655
 20
291.5089715653432
 30
0.0
  0
VERTEX
  5
2E2
  8
1
  6
CONTINUOUS
 62
     7
 10
-243.9527376063143
 20
291.9513825852169
 30
0.0
  0
VERTEX
  5
2E3
  8
1
  6
CONTINUOUS
 62
     7
 10
-243.962899619263
 20
292.3870007372482
 30
0.0
  0
VERTEX
  5
2E4
  8
1
  6
CONTINUOUS
 62
     7
 10
-243.9730616322117
 20
292.8153813602183
 30
0.0
  0
VERTEX
  5
2E5
  8
1
  6
CONTINUOUS
 62
     7
 10
-243.9832236451606
 20
293.2360797929087
 30
0.0
  0
VERTEX
  5
2E6
  8
1
  6
CONTINUOUS
 62
     7
 10
-243.9933856581092
 20
293.6486513741004
 30
0.0
  0
VERTEX
  5
2E7
  8
1
  6
CONTINUOUS
 62
     7
 10
-244.003547671058
 20
294.052651442575
 30
0.0
  0
VERTEX
  5
2E8
  8
1
  6
CONTINUOUS
 62
     7
 10
-244.0137096840068
 20
294.4476353371136
 30
0.0
  0
VERTEX
  5
2E9
  8
1
  6
CONTINUOUS
 62
     7
 10
-244.0238716969555
 20
294.8331658060943
 30
0.0
  0
VERTEX
  5
2EA
  8
1
  6
CONTINUOUS
 62
     7
 10
-244.0340337099042
 20
295.2088707958388
 30
0.0
  0
VERTEX
  5
2EB
  8
1
  6
CONTINUOUS
 62
     7
 10
-244.044195722853
 20
295.574412124739
 30
0.0
  0
VERTEX
  5
2EC
  8
1
  6
CONTINUOUS
 62
     7
 10
-244.0543577358017
 20
295.9294519002624
 30
0.0
  0
VERTEX
  5
2ED
  8
1
  6
CONTINUOUS
 62
     7
 10
-244.0645197487505
 20
296.2736522298762
 30
0.0
  0
VERTEX
  5
2EE
  8
1
  6
CONTINUOUS
 62
     7
 10
-244.0746817616993
 20
296.6066752210479
 30
0.0
  0
VERTEX
  5
2EF
  8
1
  6
CONTINUOUS
 62
     7
 10
-244.084843774648
 20
296.9281829812448
 30
0.0
  0
VERTEX
  5
2F0
  8
1
  6
CONTINUOUS
 62
     7
 10
-244.0950057875967
 20
297.2378376179344
 30
0.0
  0
VERTEX
  5
2F1
  8
1
  6
CONTINUOUS
 62
     7
 10
-244.1051678005455
 20
297.535301238584
 30
0.0
  0
VERTEX
  5
2F2
  8
1
  6
CONTINUOUS
 62
     7
 10
-244.1153298134942
 20
297.820235950661
 30
0.0
  0
VERTEX
  5
2F3
  8
1
  6
CONTINUOUS
 62
     7
 10
-244.125491826443
 20
298.0923038616328
 30
0.0
  0
VERTEX
  5
2F4
  8
1
  6
CONTINUOUS
 62
     7
 10
-244.1356538393917
 20
298.3511752030375
 30
0.0
  0
VERTEX
  5
2F5
  8
1
  6
CONTINUOUS
 62
     7
 10
-244.1458158523405
 20
298.5966071035154
 30
0.0
  0
VERTEX
  5
2F6
  8
1
  6
CONTINUOUS
 62
     7
 10
-244.1559778652892
 20
298.828409367846
 30
0.0
  0
VERTEX
  5
2F7
  8
1
  6
CONTINUOUS
 62
     7
 10
-244.166139878238
 20
299.0463925384115
 30
0.0
  0
VERTEX
  5
2F8
  8
1
  6
CONTINUOUS
 62
     7
 10
-244.1763018911867
 20
299.2503671575937
 30
0.0
  0
VERTEX
  5
2F9
  8
1
  6
CONTINUOUS
 62
     7
 10
-244.1864639041354
 20
299.4401437677749
 30
0.0
  0
VERTEX
  5
2FA
  8
1
  6
CONTINUOUS
 62
     7
 10
-244.1966259170842
 20
299.6155329113373
 30
0.0
  0
VERTEX
  5
2FB
  8
1
  6
CONTINUOUS
 62
     7
 10
-244.2067879300329
 20
299.7763451306627
 30
0.0
  0
VERTEX
  5
2FC
  8
1
  6
CONTINUOUS
 62
     7
 10
-244.2169499429817
 20
299.9223909681334
 30
0.0
  0
VERTEX
  5
2FD
  8
1
  6
CONTINUOUS
 62
     7
 10
-244.2271119559305
 20
300.0534809661314
 30
0.0
  0
VERTEX
  5
2FE
  8
1
  6
CONTINUOUS
 62
     7
 10
-244.2372739688792
 20
300.1694256670386
 30
0.0
  0
VERTEX
  5
2FF
  8
1
  6
CONTINUOUS
 62
     7
 10
-244.2474359818279
 20
300.2700428788729
 30
0.0
  0
VERTEX
  5
300
  8
1
  6
CONTINUOUS
 62
     7
 10
-244.2575979947766
 20
300.3552460567984
 30
0.0
  0
VERTEX
  5
301
  8
1
  6
CONTINUOUS
 62
     7
 10
-244.2677600077254
 20
300.4250161262843
 30
0.0
  0
VERTEX
  5
302
  8
1
  6
CONTINUOUS
 62
     7
 10
-244.2779220206742
 20
300.479335427039
 30
0.0
  0
VERTEX
  5
303
  8
1
  6
CONTINUOUS
 62
     7
 10
-244.288084033623
 20
300.5181862987707
 30
0.0
  0
VERTEX
  5
304
  8
1
  6
CONTINUOUS
 62
     7
 10
-244.2982460465716
 20
300.5415510811879
 30
0.0
  0
VERTEX
  5
305
  8
1
  6
CONTINUOUS
 62
     7
 10
-244.3084080595204
 20
300.549412113999
 30
0.0
  0
SEQEND
  5
5BA
  8
1
  6
CONTINUOUS
 62
     7
  0
POLYLINE
  5
E0
  8
1
  6
CONTINUOUS
 62
     7
 66
     1
 10
0.0
 20
0.0
 30
0.0
  0
VERTEX
  5
306
  8
1
  6
CONTINUOUS
 62
     7
 10
-241.3331465595445
 20
269.9962550219733
 30
0.0
  0
VERTEX
  5
307
  8
1
  6
CONTINUOUS
 62
     7
 10
-241.3442279995547
 20
270.0470054341442
 30
0.0
  0
VERTEX
  5
308
  8
1
  6
CONTINUOUS
 62
     7
 10
-241.3553094395648
 20
270.1161781656511
 30
0.0
  0
VERTEX
  5
309
  8
1
  6
CONTINUOUS
 62
     7
 10
-241.366390879575
 20
270.2036368095276
 30
0.0
  0
VERTEX
  5
30A
  8
1
  6
CONTINUOUS
 62
     7
 10
-241.3774723195851
 20
270.3092449588071
 30
0.0
  0
VERTEX
  5
30B
  8
1
  6
CONTINUOUS
 62
     7
 10
-241.3885537595953
 20
270.4328662065235
 30
0.0
  0
VERTEX
  5
30C
  8
1
  6
CONTINUOUS
 62
     7
 10
-241.3996351996054
 20
270.5743641457101
 30
0.0
  0
VERTEX
  5
30D
  8
1
  6
CONTINUOUS
 62
     7
 10
-241.4107166396155
 20
270.7336023694007
 30
0.0
  0
VERTEX
  5
30E
  8
1
  6
CONTINUOUS
 62
     7
 10
-241.4217980796257
 20
270.9104444706289
 30
0.0
  0
VERTEX
  5
30F
  8
1
  6
CONTINUOUS
 62
     7
 10
-241.4328795196359
 20
271.1047540256616
 30
0.0
  0
VERTEX
  5
310
  8
1
  6
CONTINUOUS
 62
     7
 10
-241.443960959646
 20
271.316350627403
 30
0.0
  0
VERTEX
  5
311
  8
1
  6
CONTINUOUS
 62
     7
 10
-241.4550423996562
 20
271.5449145036093
 30
0.0
  0
VERTEX
  5
312
  8
1
  6
CONTINUOUS
 62
     7
 10
-241.4661238396663
 20
271.7900983437486
 30
0.0
  0
VERTEX
  5
313
  8
1
  6
CONTINUOUS
 62
     7
 10
-241.4772052796764
 20
272.0515548372888
 30
0.0
  0
VERTEX
  5
314
  8
1
  6
CONTINUOUS
 62
     7
 10
-241.4882867196866
 20
272.3289366736977
 30
0.0
  0
VERTEX
  5
315
  8
1
  6
CONTINUOUS
 62
     7
 10
-241.4993681596967
 20
272.6218965424433
 30
0.0
  0
VERTEX
  5
316
  8
1
  6
CONTINUOUS
 62
     7
 10
-241.5104495997069
 20
272.9300871329935
 30
0.0
  0
VERTEX
  5
317
  8
1
  6
CONTINUOUS
 62
     7
 10
-241.5215310397171
 20
273.2531611348163
 30
0.0
  0
VERTEX
  5
318
  8
1
  6
CONTINUOUS
 62
     7
 10
-241.5326124797272
 20
273.5907712373793
 30
0.0
  0
VERTEX
  5
319
  8
1
  6
CONTINUOUS
 62
     7
 10
-241.5436939197373
 20
273.9425701301507
 30
0.0
  0
VERTEX
  5
31A
  8
1
  6
CONTINUOUS
 62
     7
 10
-241.5547753597475
 20
274.3081873323055
 30
0.0
  0
VERTEX
  5
31B
  8
1
  6
CONTINUOUS
 62
     7
 10
-241.5658567997576
 20
274.6871409245944
 30
0.0
  0
VERTEX
  5
31C
  8
1
  6
CONTINUOUS
 62
     7
 10
-241.5769382397678
 20
275.0789155268982
 30
0.0
  0
VERTEX
  5
31D
  8
1
  6
CONTINUOUS
 62
     7
 10
-241.5880196797779
 20
275.4829957526443
 30
0.0
  0
VERTEX
  5
31E
  8
1
  6
CONTINUOUS
 62
     7
 10
-241.5991011197881
 20
275.8988662152601
 30
0.0
  0
VERTEX
  5
31F
  8
1
  6
CONTINUOUS
 62
     7
 10
-241.6101825597982
 20
276.3260115281728
 30
0.0
  0
VERTEX
  5
320
  8
1
  6
CONTINUOUS
 62
     7
 10
-241.6212639998083
 20
276.7639163048097
 30
0.0
  0
VERTEX
  5
321
  8
1
  6
CONTINUOUS
 62
     7
 10
-241.6323454398185
 20
277.2120651585984
 30
0.0
  0
VERTEX
  5
322
  8
1
  6
CONTINUOUS
 62
     7
 10
-241.6434268798287
 20
277.6699427029661
 30
0.0
  0
VERTEX
  5
323
  8
1
  6
CONTINUOUS
 62
     7
 10
-241.6545083198388
 20
278.1370335513402
 30
0.0
  0
VERTEX
  5
324
  8
1
  6
CONTINUOUS
 62
     7
 10
-241.665589759849
 20
278.6128134225577
 30
0.0
  0
VERTEX
  5
325
  8
1
  6
CONTINUOUS
 62
     7
 10
-241.6766711998591
 20
279.0966921427932
 30
0.0
  0
VERTEX
  5
326
  8
1
  6
CONTINUOUS
 62
     7
 10
-241.6877526398692
 20
279.5880499437488
 30
0.0
  0
VERTEX
  5
327
  8
1
  6
CONTINUOUS
 62
     7
 10
-241.6988340798794
 20
280.0862669162141
 30
0.0
  0
VERTEX
  5
328
  8
1
  6
CONTINUOUS
 62
     7
 10
-241.7099155198896
 20
280.5907231509782
 30
0.0
  0
VERTEX
  5
329
  8
1
  6
CONTINUOUS
 62
     7
 10
-241.7209969598997
 20
281.1007987388305
 30
0.0
  0
VERTEX
  5
32A
  8
1
  6
CONTINUOUS
 62
     7
 10
-241.7320783999099
 20
281.6158737705604
 30
0.0
  0
VERTEX
  5
32B
  8
1
  6
CONTINUOUS
 62
     7
 10
-241.74315983992
 20
282.1353283369572
 30
0.0
  0
VERTEX
  5
32C
  8
1
  6
CONTINUOUS
 62
     7
 10
-241.7542412799302
 20
282.6585425288103
 30
0.0
  0
VERTEX
  5
32D
  8
1
  6
CONTINUOUS
 62
     7
 10
-241.7653227199403
 20
283.1848964369091
 30
0.0
  0
VERTEX
  5
32E
  8
1
  6
CONTINUOUS
 62
     7
 10
-241.7764041599504
 20
283.7137688076103
 30
0.0
  0
VERTEX
  5
32F
  8
1
  6
CONTINUOUS
 62
     7
 10
-241.7874855999606
 20
284.2445223637692
 30
0.0
  0
VERTEX
  5
330
  8
1
  6
CONTINUOUS
 62
     7
 10
-241.7985670399708
 20
284.7765093000503
 30
0.0
  0
VERTEX
  5
331
  8
1
  6
CONTINUOUS
 62
     7
 10
-241.8096484799809
 20
285.3090816268902
 30
0.0
  0
VERTEX
  5
332
  8
1
  6
CONTINUOUS
 62
     7
 10
-241.820729919991
 20
285.8415913547253
 30
0.0
  0
VERTEX
  5
333
  8
1
  6
CONTINUOUS
 62
     7
 10
-241.8318113600012
 20
286.3733904939919
 30
0.0
  0
VERTEX
  5
334
  8
1
  6
CONTINUOUS
 62
     7
 10
-241.8428928000114
 20
286.9038310551267
 30
0.0
  0
VERTEX
  5
335
  8
1
  6
CONTINUOUS
 62
     7
 10
-241.8539742400214
 20
287.432265048566
 30
0.0
  0
VERTEX
  5
336
  8
1
  6
CONTINUOUS
 62
     7
 10
-241.8650556800316
 20
287.9580444847464
 30
0.0
  0
VERTEX
  5
337
  8
1
  6
CONTINUOUS
 62
     7
 10
-241.8761371200418
 20
288.4805213741042
 30
0.0
  0
VERTEX
  5
338
  8
1
  6
CONTINUOUS
 62
     7
 10
-241.8872185600519
 20
288.9990489443013
 30
0.0
  0
VERTEX
  5
339
  8
1
  6
CONTINUOUS
 62
     7
 10
-241.8983000000621
 20
289.5130059104401
 30
0.0
  0
VERTEX
  5
33A
  8
1
  6
CONTINUOUS
 62
     7
 10
-241.9093814400723
 20
290.0217951546368
 30
0.0
  0
VERTEX
  5
33B
  8
1
  6
CONTINUOUS
 62
     7
 10
-241.9204628800824
 20
290.5248205119127
 30
0.0
  0
VERTEX
  5
33C
  8
1
  6
CONTINUOUS
 62
     7
 10
-241.9315443200925
 20
291.021485817289
 30
0.0
  0
VERTEX
  5
33D
  8
1
  6
CONTINUOUS
 62
     7
 10
-241.9426257601027
 20
291.5111949057871
 30
0.0
  0
VERTEX
  5
33E
  8
1
  6
CONTINUOUS
 62
     7
 10
-241.9537072001128
 20
291.9933516124285
 30
0.0
  0
VERTEX
  5
33F
  8
1
  6
CONTINUOUS
 62
     7
 10
-241.964788640123
 20
292.4673597722344
 30
0.0
  0
VERTEX
  5
340
  8
1
  6
CONTINUOUS
 62
     7
 10
-241.9758700801332
 20
292.9326232202263
 30
0.0
  0
VERTEX
  5
341
  8
1
  6
CONTINUOUS
 62
     7
 10
-241.9869515201433
 20
293.3885457914254
 30
0.0
  0
VERTEX
  5
342
  8
1
  6
CONTINUOUS
 62
     7
 10
-241.9980329601534
 20
293.8345324757735
 30
0.0
  0
VERTEX
  5
343
  8
1
  6
CONTINUOUS
 62
     7
 10
-242.0091144001636
 20
294.2700386574105
 30
0.0
  0
VERTEX
  5
344
  8
1
  6
CONTINUOUS
 62
     7
 10
-242.0201958401738
 20
294.694588554597
 30
0.0
  0
VERTEX
  5
345
  8
1
  6
CONTINUOUS
 62
     7
 10
-242.0312772801839
 20
295.1077113412783
 30
0.0
  0
VERTEX
  5
346
  8
1
  6
CONTINUOUS
 62
     7
 10
-242.042358720194
 20
295.5089361913995
 30
0.0
  0
VERTEX
  5
347
  8
1
  6
CONTINUOUS
 62
     7
 10
-242.0534401602041
 20
295.8977922789057
 30
0.0
  0
VERTEX
  5
348
  8
1
  6
CONTINUOUS
 62
     7
 10
-242.0645216002143
 20
296.273808777742
 30
0.0
  0
VERTEX
  5
349
  8
1
  6
CONTINUOUS
 62
     7
 10
-242.0756030402245
 20
296.6365148618536
 30
0.0
  0
VERTEX
  5
34A
  8
1
  6
CONTINUOUS
 62
     7
 10
-242.0866844802346
 20
296.9854397051855
 30
0.0
  0
VERTEX
  5
34B
  8
1
  6
CONTINUOUS
 62
     7
 10
-242.0977659202447
 20
297.3201124816831
 30
0.0
  0
VERTEX
  5
34C
  8
1
  6
CONTINUOUS
 62
     7
 10
-242.1088473602549
 20
297.6400627959079
 30
0.0
  0
VERTEX
  5
34D
  8
1
  6
CONTINUOUS
 62
     7
 10
-242.119928800265
 20
297.9448770225868
 30
0.0
  0
VERTEX
  5
34E
  8
1
  6
CONTINUOUS
 62
     7
 10
-242.1310102402752
 20
298.234254395521
 30
0.0
  0
VERTEX
  5
34F
  8
1
  6
CONTINUOUS
 62
     7
 10
-242.1420916802853
 20
298.5079074861163
 30
0.0
  0
VERTEX
  5
350
  8
1
  6
CONTINUOUS
 62
     7
 10
-242.1531731202955
 20
298.7655488657784
 30
0.0
  0
VERTEX
  5
351
  8
1
  6
CONTINUOUS
 62
     7
 10
-242.1642545603056
 20
299.0068911059133
 30
0.0
  0
VERTEX
  5
352
  8
1
  6
CONTINUOUS
 62
     7
 10
-242.1753360003158
 20
299.2316467779269
 30
0.0
  0
VERTEX
  5
353
  8
1
  6
CONTINUOUS
 62
     7
 10
-242.1864174403259
 20
299.4395284532251
 30
0.0
  0
VERTEX
  5
354
  8
1
  6
CONTINUOUS
 62
     7
 10
-242.197498880336
 20
299.6302487032135
 30
0.0
  0
VERTEX
  5
355
  8
1
  6
CONTINUOUS
 62
     7
 10
-242.2085803203462
 20
299.8035200992983
 30
0.0
  0
VERTEX
  5
356
  8
1
  6
CONTINUOUS
 62
     7
 10
-242.2196617603563
 20
299.9590552516848
 30
0.0
  0
VERTEX
  5
357
  8
1
  6
CONTINUOUS
 62
     7
 10
-242.2307432003665
 20
300.0966154377761
 30
0.0
  0
VERTEX
  5
358
  8
1
  6
CONTINUOUS
 62
     7
 10
-242.2418246403766
 20
300.2161056648025
 30
0.0
  0
VERTEX
  5
359
  8
1
  6
CONTINUOUS
 62
     7
 10
-242.2529060803868
 20
300.3174573450466
 30
0.0
  0
VERTEX
  5
35A
  8
1
  6
CONTINUOUS
 62
     7
 10
-242.2639875203969
 20
300.4006018907907
 30
0.0
  0
VERTEX
  5
35B
  8
1
  6
CONTINUOUS
 62
     7
 10
-242.2750689604071
 20
300.465470714317
 30
0.0
  0
VERTEX
  5
35C
  8
1
  6
CONTINUOUS
 62
     7
 10
-242.2861504004173
 20
300.511995227908
 30
0.0
  0
VERTEX
  5
35D
  8
1
  6
CONTINUOUS
 62
     7
 10
-242.2972318404274
 20
300.5401068438457
 30
0.0
  0
VERTEX
  5
35E
  8
1
  6
CONTINUOUS
 62
     7
 10
-242.3083132804376
 20
300.5497369744128
 30
0.0
  0
SEQEND
  5
5BB
  8
1
  6
CONTINUOUS
 62
     7
  0
LINE
  5
E1
  8
1
  6
CONTINUOUS
 62
     7
 10
-240.5763673761318
 20
299.55
 30
0.0
 11
-240.3084181837007
 21
300.55
 31
0.0
  0
LINE
  5
E2
  8
1
  6
CONTINUOUS
 62
     7
 10
-241.6999628797857
 20
272.0145048839959
 30
0.0
 11
-241.602781452185
 21
270.9992069643988
 31
0.0
  0
LINE
  5
E3
  8
1
  6
CONTINUOUS
 62
     7
 10
-241.8123224332177
 20
274.702198227978
 30
0.0
 11
-241.6999628797857
 21
272.0145048839959
 31
0.0
  0
LINE
  5
E4
  8
1
  6
CONTINUOUS
 62
     7
 10
-241.9246819825391
 20
278.6905627752387
 30
0.0
 11
-241.8123224332177
 21
274.702198227978
 31
0.0
  0
LINE
  5
E5
  8
1
  6
CONTINUOUS
 62
     7
 10
-242.0370415335298
 20
283.4877851808399
 30
0.0
 11
-241.9246819825391
 21
278.6905627752387
 31
0.0
  0
LINE
  5
E6
  8
1
  6
CONTINUOUS
 62
     7
 10
-242.1494010839696
 20
288.5023099263221
 30
0.0
 11
-242.0370415335298
 21
283.4877851808399
 31
0.0
  0
LINE
  5
E7
  8
1
  6
CONTINUOUS
 62
     7
 10
-242.2617606345635
 20
293.115785599549
 30
0.0
 11
-242.1494010839696
 21
288.5023099263221
 31
0.0
  0
LINE
  5
E8
  8
1
  6
CONTINUOUS
 62
     7
 10
-242.3741201851183
 20
296.7593149434939
 30
0.0
 11
-242.2617606345635
 21
293.115785599549
 31
0.0
  0
LINE
  5
E9
  8
1
  6
CONTINUOUS
 62
     7
 10
-242.4864797356813
 20
298.9836068037592
 30
0.0
 11
-242.3741201851183
 21
296.7593149434939
 31
0.0
  0
LINE
  5
EA
  8
1
  6
CONTINUOUS
 62
     7
 10
-243.6100752412993
 20
271.0301053908574
 30
0.0
 11
-243.6024671307345
 21
270.9980434803232
 31
0.0
  0
LINE
  5
EB
  8
1
  6
CONTINUOUS
 62
     7
 10
-243.722434791861
 20
272.4293739114395
 30
0.0
 11
-243.6100752412993
 21
271.0301053908574
 31
0.0
  0
LINE
  5
EC
  8
1
  6
CONTINUOUS
 62
     7
 10
-243.8347943424229
 20
275.409580411564
 30
0.0
 11
-243.722434791861
 21
272.4293739114395
 31
0.0
  0
LINE
  5
ED
  8
1
  6
CONTINUOUS
 62
     7
 10
-243.9471538929846
 20
279.6032294498706
 30
0.0
 11
-243.8347943424229
 21
275.409580411564
 31
0.0
  0
LINE
  5
EE
  8
1
  6
CONTINUOUS
 62
     7
 10
-244.0595134435465
 20
284.4931934702086
 30
0.0
 11
-243.9471538929846
 21
279.6032294498706
 31
0.0
  0
LINE
  5
EF
  8
1
  6
CONTINUOUS
 62
     7
 10
-244.1718729941082
 20
289.4764808725569
 30
0.0
 11
-244.0595134435465
 21
284.4931934702086
 31
0.0
  0
LINE
  5
F0
  8
1
  6
CONTINUOUS
 62
     7
 10
-244.28423254467
 20
293.9385921572162
 30
0.0
 11
-244.1718729941082
 21
289.4764808725569
 31
0.0
  0
LINE
  5
F1
  8
1
  6
CONTINUOUS
 62
     7
 10
-244.3965920952318
 20
297.3292951319165
 30
0.0
 11
-244.28423254467
 21
293.9385921572162
 31
0.0
  0
LINE
  5
F2
  8
1
  6
CONTINUOUS
 62
     7
 10
-244.5089516457936
 20
299.2304751840857
 30
0.0
 11
-244.3965920952318
 21
297.3292951319165
 31
0.0
  0
LINE
  5
F3
  8
1
  6
CONTINUOUS
 62
     7
 10
-245.6325471514116
 20
271.1721456118639
 30
0.0
 11
-245.6027881148305
 21
270.9992317770736
 31
0.0
  0
LINE
  5
F4
  8
1
  6
CONTINUOUS
 62
     7
 10
-245.7449067019734
 20
272.9081146197722
 30
0.0
 11
-245.6325471514116
 21
271.1721456118639
 31
0.0
  0
LINE
  5
F5
  8
1
  6
CONTINUOUS
 62
     7
 10
-245.8572662525351
 20
276.1659870980691
 30
0.0
 11
-245.7449067019734
 21
272.9081146197722
 31
0.0
  0
LINE
  5
F6
  8
1
  6
CONTINUOUS
 62
     7
 10
-245.969625803097
 20
280.5440280380429
 30
0.0
 11
-245.8572662525351
 21
276.1659870980691
 31
0.0
  0
LINE
  5
F7
  8
1
  6
CONTINUOUS
 62
     7
 10
-246.0819853536588
 20
285.5023721359079
 30
0.0
 11
-245.969625803097
 21
280.5440280380429
 31
0.0
  0
LINE
  5
F8
  8
1
  6
CONTINUOUS
 62
     7
 10
-246.1943449042206
 20
290.4295957025357
 30
0.0
 11
-246.0819853536588
 21
285.5023721359079
 31
0.0
  0
LINE
  5
F9
  8
1
  6
CONTINUOUS
 62
     7
 10
-246.3067044547824
 20
294.7181125860238
 30
0.0
 11
-246.1943449042206
 21
290.4295957025357
 31
0.0
  0
LINE
  5
FA
  8
1
  6
CONTINUOUS
 62
     7
 10
-246.4190640053441
 20
297.8390968795678
 30
0.0
 11
-246.3067044547824
 21
294.7181125860238
 31
0.0
  0
LINE
  5
FB
  8
1
  6
CONTINUOUS
 62
     7
 10
-246.531423555906
 20
299.4076935402849
 30
0.0
 11
-246.4190640053441
 21
297.8390968795678
 31
0.0
  0
LINE
  5
FC
  8
1
  6
CONTINUOUS
 62
     7
 10
-247.655019061524
 20
271.3843209952954
 30
0.0
 11
-247.602710638597
 21
270.9989436299709
 31
0.0
  0
LINE
  5
FD
  8
1
  6
CONTINUOUS
 62
     7
 10
-247.7673786120858
 20
273.4483419802545
 30
0.0
 11
-247.655019061524
 21
271.3843209952954
 31
0.0
  0
LINE
  5
FE
  8
1
  6
CONTINUOUS
 62
     7
 10
-247.8797381626476
 20
276.9676498799172
 30
0.0
 11
-247.7673786120858
 21
273.4483419802545
 31
0.0
  0
LINE
  5
FF
  8
1
  6
CONTINUOUS
 62
     7
 10
-247.8923927799163
 20
277.4375157505775
 30
0.0
 11
-247.8797381626476
 21
276.9676498799172
 31
0.0
  0
POLYLINE
  5
100
  8
1
  6
CONTINUOUS
 62
     7
 66
     1
 10
0.0
 20
0.0
 30
0.0
  0
VERTEX
  5
35F
  8
1
  6
CONTINUOUS
 62
     7
 10
-241.6517629407813
 20
300.503714723037
 30
0.0
  0
VERTEX
  5
360
  8
1
  6
CONTINUOUS
 62
     7
 10
-241.6416016447316
 20
300.4581999978708
 30
0.0
  0
VERTEX
  5
361
  8
1
  6
CONTINUOUS
 62
     7
 10
-241.6314403486819
 20
300.3972682831005
 30
0.0
  0
VERTEX
  5
362
  8
1
  6
CONTINUOUS
 62
     7
 10
-241.6212790526322
 20
300.3209724603443
 30
0.0
  0
VERTEX
  5
363
  8
1
  6
CONTINUOUS
 62
     7
 10
-241.6111177565825
 20
300.2293654112207
 30
0.0
  0
VERTEX
  5
364
  8
1
  6
CONTINUOUS
 62
     7
 10
-241.6009564605328
 20
300.1225000173479
 30
0.0
  0
VERTEX
  5
365
  8
1
  6
CONTINUOUS
 62
     7
 10
-241.5907951644831
 20
300.0004291603445
 30
0.0
  0
VERTEX
  5
366
  8
1
  6
CONTINUOUS
 62
     7
 10
-241.5806338684334
 20
299.8632110765325
 30
0.0
  0
VERTEX
  5
367
  8
1
  6
CONTINUOUS
 62
     7
 10
-241.5704725723838
 20
299.7109925173435
 30
0.0
  0
VERTEX
  5
368
  8
1
  6
CONTINUOUS
 62
     7
 10
-241.5603112763341
 20
299.5439929383273
 30
0.0
  0
VERTEX
  5
369
  8
1
  6
CONTINUOUS
 62
     7
 10
-241.5501499802844
 20
299.362433949107
 30
0.0
  0
VERTEX
  5
36A
  8
1
  6
CONTINUOUS
 62
     7
 10
-241.5399886842347
 20
299.1665371593054
 30
0.0
  0
VERTEX
  5
36B
  8
1
  6
CONTINUOUS
 62
     7
 10
-241.529827388185
 20
298.9565241785456
 30
0.0
  0
VERTEX
  5
36C
  8
1
  6
CONTINUOUS
 62
     7
 10
-241.5196660921353
 20
298.7326166164506
 30
0.0
  0
VERTEX
  5
36D
  8
1
  6
CONTINUOUS
 62
     7
 10
-241.5095047960857
 20
298.4950360826435
 30
0.0
  0
VERTEX
  5
36E
  8
1
  6
CONTINUOUS
 62
     7
 10
-241.499343500036
 20
298.2440041867472
 30
0.0
  0
VERTEX
  5
36F
  8
1
  6
CONTINUOUS
 62
     7
 10
-241.4891822039863
 20
297.9797425383849
 30
0.0
  0
VERTEX
  5
370
  8
1
  6
CONTINUOUS
 62
     7
 10
-241.4790209079366
 20
297.7024727471793
 30
0.0
  0
VERTEX
  5
371
  8
1
  6
CONTINUOUS
 62
     7
 10
-241.4688596118869
 20
297.412419692791
 30
0.0
  0
VERTEX
  5
372
  8
1
  6
CONTINUOUS
 62
     7
 10
-241.4586983158372
 20
297.1098775628425
 30
0.0
  0
VERTEX
  5
373
  8
1
  6
CONTINUOUS
 62
     7
 10
-241.4485370197875
 20
296.7952067239871
 30
0.0
  0
VERTEX
  5
374
  8
1
  6
CONTINUOUS
 62
     7
 10
-241.4383757237379
 20
296.4687701867103
 30
0.0
  0
VERTEX
  5
375
  8
1
  6
CONTINUOUS
 62
     7
 10
-241.4282144276882
 20
296.1309309614981
 30
0.0
  0
VERTEX
  5
376
  8
1
  6
CONTINUOUS
 62
     7
 10
-241.4180531316385
 20
295.7820520588359
 30
0.0
  0
VERTEX
  5
377
  8
1
  6
CONTINUOUS
 62
     7
 10
-241.4078918355888
 20
295.4224964892095
 30
0.0
  0
VERTEX
  5
378
  8
1
  6
CONTINUOUS
 62
     7
 10
-241.3977305395391
 20
295.0526272631047
 30
0.0
  0
VERTEX
  5
379
  8
1
  6
CONTINUOUS
 62
     7
 10
-241.3875692434894
 20
294.6728073910071
 30
0.0
  0
VERTEX
  5
37A
  8
1
  6
CONTINUOUS
 62
     7
 10
-241.3774079474397
 20
294.2833998834024
 30
0.0
  0
VERTEX
  5
37B
  8
1
  6
CONTINUOUS
 62
     7
 10
-241.36724665139
 20
293.8847677507762
 30
0.0
  0
VERTEX
  5
37C
  8
1
  6
CONTINUOUS
 62
     7
 10
-241.3570853553403
 20
293.4772755724188
 30
0.0
  0
VERTEX
  5
37D
  8
1
  6
CONTINUOUS
 62
     7
 10
-241.3469240592906
 20
293.061331788111
 30
0.0
  0
VERTEX
  5
37E
  8
1
  6
CONTINUOUS
 62
     7
 10
-241.336762763241
 20
292.6373935109781
 30
0.0
  0
VERTEX
  5
37F
  8
1
  6
CONTINUOUS
 62
     7
 10
-241.3266014671913
 20
292.2059203887927
 30
0.0
  0
VERTEX
  5
380
  8
1
  6
CONTINUOUS
 62
     7
 10
-241.3164401711416
 20
291.7673720693276
 30
0.0
  0
VERTEX
  5
381
  8
1
  6
CONTINUOUS
 62
     7
 10
-241.3062788750919
 20
291.3222082003556
 30
0.0
  0
VERTEX
  5
382
  8
1
  6
CONTINUOUS
 62
     7
 10
-241.2961175790422
 20
290.8708884296497
 30
0.0
  0
VERTEX
  5
383
  8
1
  6
CONTINUOUS
 62
     7
 10
-241.2859562829925
 20
290.4138724049823
 30
0.0
  0
VERTEX
  5
384
  8
1
  6
CONTINUOUS
 62
     7
 10
-241.2757949869428
 20
289.9516197741263
 30
0.0
  0
VERTEX
  5
385
  8
1
  6
CONTINUOUS
 62
     7
 10
-241.2656336908931
 20
289.4845901848546
 30
0.0
  0
VERTEX
  5
386
  8
1
  6
CONTINUOUS
 62
     7
 10
-241.2554723948435
 20
289.0132432849398
 30
0.0
  0
VERTEX
  5
387
  8
1
  6
CONTINUOUS
 62
     7
 10
-241.2453110987937
 20
288.5380391564262
 30
0.0
  0
VERTEX
  5
388
  8
1
  6
CONTINUOUS
 62
     7
 10
-241.2351498027441
 20
288.0594545163326
 30
0.0
  0
VERTEX
  5
389
  8
1
  6
CONTINUOUS
 62
     7
 10
-241.2249885066944
 20
287.5779875490919
 30
0.0
  0
VERTEX
  5
38A
  8
1
  6
CONTINUOUS
 62
     7
 10
-241.2148272106447
 20
287.0941378596445
 30
0.0
  0
VERTEX
  5
38B
  8
1
  6
CONTINUOUS
 62
     7
 10
-241.204665914595
 20
286.6084050529311
 30
0.0
  0
VERTEX
  5
38C
  8
1
  6
CONTINUOUS
 62
     7
 10
-241.1945046185453
 20
286.1212887338919
 30
0.0
  0
VERTEX
  5
38D
  8
1
  6
CONTINUOUS
 62
     7
 10
-241.1843433224956
 20
285.6332885074677
 30
0.0
  0
VERTEX
  5
38E
  8
1
  6
CONTINUOUS
 62
     7
 10
-241.174182026446
 20
285.1449039785988
 30
0.0
  0
VERTEX
  5
38F
  8
1
  6
CONTINUOUS
 62
     7
 10
-241.1640207303963
 20
284.6566347522258
 30
0.0
  0
VERTEX
  5
390
  8
1
  6
CONTINUOUS
 62
     7
 10
-241.1538594343467
 20
284.1689804332893
 30
0.0
  0
VERTEX
  5
391
  8
1
  6
CONTINUOUS
 62
     7
 10
-241.1436981382969
 20
283.6824406267294
 30
0.0
  0
VERTEX
  5
392
  8
1
  6
CONTINUOUS
 62
     7
 10
-241.1335368422472
 20
283.197514789436
 30
0.0
  0
VERTEX
  5
393
  8
1
  6
CONTINUOUS
 62
     7
 10
-241.1233755461976
 20
282.714694192707
 30
0.0
  0
VERTEX
  5
394
  8
1
  6
CONTINUOUS
 62
     7
 10
-241.1132142501478
 20
282.2344578057557
 30
0.0
  0
VERTEX
  5
395
  8
1
  6
CONTINUOUS
 62
     7
 10
-241.1030529540982
 20
281.7572835833683
 30
0.0
  0
VERTEX
  5
396
  8
1
  6
CONTINUOUS
 62
     7
 10
-241.0928916580485
 20
281.2836494803312
 30
0.0
  0
VERTEX
  5
397
  8
1
  6
CONTINUOUS
 62
     7
 10
-241.0827303619988
 20
280.8140334514305
 30
0.0
  0
VERTEX
  5
398
  8
1
  6
CONTINUOUS
 62
     7
 10
-241.0725690659491
 20
280.3489134514524
 30
0.0
  0
VERTEX
  5
399
  8
1
  6
CONTINUOUS
 62
     7
 10
-241.0624077698994
 20
279.8887674351834
 30
0.0
  0
VERTEX
  5
39A
  8
1
  6
CONTINUOUS
 62
     7
 10
-241.0522464738497
 20
279.4340733574093
 30
0.0
  0
VERTEX
  5
39B
  8
1
  6
CONTINUOUS
 62
     7
 10
-241.0420851778
 20
278.9853091729169
 30
0.0
  0
VERTEX
  5
39C
  8
1
  6
CONTINUOUS
 62
     7
 10
-241.0319238817503
 20
278.542952836492
 30
0.0
  0
VERTEX
  5
39D
  8
1
  6
CONTINUOUS
 62
     7
 10
-241.0217625857007
 20
278.1074819843914
 30
0.0
  0
VERTEX
  5
39E
  8
1
  6
CONTINUOUS
 62
     7
 10
-241.0116012896509
 20
277.6793468744769
 30
0.0
  0
VERTEX
  5
39F
  8
1
  6
CONTINUOUS
 62
     7
 10
-241.0014399936013
 20
277.2589497359326
 30
0.0
  0
VERTEX
  5
3A0
  8
1
  6
CONTINUOUS
 62
     7
 10
-240.9912786975516
 20
276.8466879357989
 30
0.0
  0
VERTEX
  5
3A1
  8
1
  6
CONTINUOUS
 62
     7
 10
-240.9811174015019
 20
276.4429588411155
 30
0.0
  0
VERTEX
  5
3A2
  8
1
  6
CONTINUOUS
 62
     7
 10
-240.9709561054522
 20
276.048159818923
 30
0.0
  0
VERTEX
  5
3A3
  8
1
  6
CONTINUOUS
 62
     7
 10
-240.9607948094025
 20
275.6626882362613
 30
0.0
  0
VERTEX
  5
3A4
  8
1
  6
CONTINUOUS
 62
     7
 10
-240.9506335133528
 20
275.2869414601707
 30
0.0
  0
VERTEX
  5
3A5
  8
1
  6
CONTINUOUS
 62
     7
 10
-240.9404722173032
 20
274.9213168576913
 30
0.0
  0
VERTEX
  5
3A6
  8
1
  6
CONTINUOUS
 62
     7
 10
-240.9303109212535
 20
274.5662117958632
 30
0.0
  0
VERTEX
  5
3A7
  8
1
  6
CONTINUOUS
 62
     7
 10
-240.9201496252038
 20
274.2220236417266
 30
0.0
  0
VERTEX
  5
3A8
  8
1
  6
CONTINUOUS
 62
     7
 10
-240.9099883291541
 20
273.8891495005479
 30
0.0
  0
VERTEX
  5
3A9
  8
1
  6
CONTINUOUS
 62
     7
 10
-240.8998270331044
 20
273.5679473625959
 30
0.0
  0
VERTEX
  5
3AA
  8
1
  6
CONTINUOUS
 62
     7
 10
-240.8896657370547
 20
273.2586948785189
 30
0.0
  0
VERTEX
  5
3AB
  8
1
  6
CONTINUOUS
 62
     7
 10
-240.879504441005
 20
272.9616598274454
 30
0.0
  0
VERTEX
  5
3AC
  8
1
  6
CONTINUOUS
 62
     7
 10
-240.8693431449553
 20
272.6771099885034
 30
0.0
  0
VERTEX
  5
3AD
  8
1
  6
CONTINUOUS
 62
     7
 10
-240.8591818489056
 20
272.4053131408216
 30
0.0
  0
VERTEX
  5
3AE
  8
1
  6
CONTINUOUS
 62
     7
 10
-240.849020552856
 20
272.1465370635283
 30
0.0
  0
VERTEX
  5
3AF
  8
1
  6
CONTINUOUS
 62
     7
 10
-240.8388592568062
 20
271.9010495357517
 30
0.0
  0
VERTEX
  5
3B0
  8
1
  6
CONTINUOUS
 62
     7
 10
-240.8286979607566
 20
271.6691183366201
 30
0.0
  0
VERTEX
  5
3B1
  8
1
  6
CONTINUOUS
 62
     7
 10
-240.8185366647069
 20
271.4510112452619
 30
0.0
  0
VERTEX
  5
3B2
  8
1
  6
CONTINUOUS
 62
     7
 10
-240.8083753686572
 20
271.2469960408055
 30
0.0
  0
VERTEX
  5
3B3
  8
1
  6
CONTINUOUS
 62
     7
 10
-240.7982140726075
 20
271.0573403642226
 30
0.0
  0
VERTEX
  5
3B4
  8
1
  6
CONTINUOUS
 62
     7
 10
-240.7880527765578
 20
270.8822687684973
 30
0.0
  0
VERTEX
  5
3B5
  8
1
  6
CONTINUOUS
 62
     7
 10
-240.7778914805081
 20
270.7219018031066
 30
0.0
  0
VERTEX
  5
3B6
  8
1
  6
CONTINUOUS
 62
     7
 10
-240.7677301844585
 20
270.5763446389113
 30
0.0
  0
VERTEX
  5
3B7
  8
1
  6
CONTINUOUS
 62
     7
 10
-240.7575688884088
 20
270.4457024467722
 30
0.0
  0
VERTEX
  5
3B8
  8
1
  6
CONTINUOUS
 62
     7
 10
-240.7474075923591
 20
270.3300803975498
 30
0.0
  0
VERTEX
  5
3B9
  8
1
  6
CONTINUOUS
 62
     7
 10
-240.7372462963094
 20
270.229583662105
 30
0.0
  0
VERTEX
  5
3BA
  8
1
  6
CONTINUOUS
 62
     7
 10
-240.7270850002597
 20
270.1443174112985
 30
0.0
  0
VERTEX
  5
3BB
  8
1
  6
CONTINUOUS
 62
     7
 10
-240.71692370421
 20
270.0743868159909
 30
0.0
  0
VERTEX
  5
3BC
  8
1
  6
CONTINUOUS
 62
     7
 10
-240.7067624081604
 20
270.0198970470431
 30
0.0
  0
VERTEX
  5
3BD
  8
1
  6
CONTINUOUS
 62
     7
 10
-240.6966011121107
 20
269.9809532753159
 30
0.0
  0
VERTEX
  5
3BE
  8
1
  6
CONTINUOUS
 62
     7
 10
-240.686439816061
 20
269.9576606277372
 30
0.0
  0
VERTEX
  5
3BF
  8
1
  6
CONTINUOUS
 62
     7
 10
-240.6762785200113
 20
269.9500838969303
 30
0.0
  0
SEQEND
  5
5BC
  8
1
  6
CONTINUOUS
 62
     7
  0
POLYLINE
  5
101
  8
1
  6
CONTINUOUS
 62
     7
 66
     1
 10
0.0
 20
0.0
 30
0.0
  0
VERTEX
  5
3C0
  8
1
  6
CONTINUOUS
 62
     7
 10
-243.651603696744
 20
300.5031545499428
 30
0.0
  0
VERTEX
  5
3C1
  8
1
  6
CONTINUOUS
 62
     7
 10
-243.641444562275
 20
300.4575741033784
 30
0.0
  0
VERTEX
  5
3C2
  8
1
  6
CONTINUOUS
 62
     7
 10
-243.631285427806
 20
300.396541678151
 30
0.0
  0
VERTEX
  5
3C3
  8
1
  6
CONTINUOUS
 62
     7
 10
-243.621126293337
 20
300.320074919509
 30
0.0
  0
VERTEX
  5
3C4
  8
1
  6
CONTINUOUS
 62
     7
 10
-243.610967158868
 20
300.2281914727008
 30
0.0
  0
VERTEX
  5
3C5
  8
1
  6
CONTINUOUS
 62
     7
 10
-243.600808024399
 20
300.1209237189419
 30
0.0
  0
VERTEX
  5
3C6
  8
1
  6
CONTINUOUS
 62
     7
 10
-243.59064888993
 20
299.9984123876609
 30
0.0
  0
VERTEX
  5
3C7
  8
1
  6
CONTINUOUS
 62
     7
 10
-243.5804897554611
 20
299.8608465520876
 30
0.0
  0
VERTEX
  5
3C8
  8
1
  6
CONTINUOUS
 62
     7
 10
-243.5703306209921
 20
299.7084155088517
 30
0.0
  0
VERTEX
  5
3C9
  8
1
  6
CONTINUOUS
 62
     7
 10
-243.5601714865231
 20
299.5413085545827
 30
0.0
  0
VERTEX
  5
3CA
  8
1
  6
CONTINUOUS
 62
     7
 10
-243.5500123520542
 20
299.3597149859105
 30
0.0
  0
VERTEX
  5
3CB
  8
1
  6
CONTINUOUS
 62
     7
 10
-243.5398532175852
 20
299.1638240994645
 30
0.0
  0
VERTEX
  5
3CC
  8
1
  6
CONTINUOUS
 62
     7
 10
-243.5296940831162
 20
298.9538251918746
 30
0.0
  0
VERTEX
  5
3CD
  8
1
  6
CONTINUOUS
 62
     7
 10
-243.5195349486472
 20
298.7299075597702
 30
0.0
  0
VERTEX
  5
3CE
  8
1
  6
CONTINUOUS
 62
     7
 10
-243.5093758141782
 20
298.4922604997812
 30
0.0
  0
VERTEX
  5
3CF
  8
1
  6
CONTINUOUS
 62
     7
 10
-243.4992166797092
 20
298.241073308537
 30
0.0
  0
VERTEX
  5
3D0
  8
1
  6
CONTINUOUS
 62
     7
 10
-243.4890575452403
 20
297.9765453663129
 30
0.0
  0
VERTEX
  5
3D1
  8
1
  6
CONTINUOUS
 62
     7
 10
-243.4788984107713
 20
297.6989663059516
 30
0.0
  0
VERTEX
  5
3D2
  8
1
  6
CONTINUOUS
 62
     7
 10
-243.4687392763023
 20
297.4086733066906
 30
0.0
  0
VERTEX
  5
3D3
  8
1
  6
CONTINUOUS
 62
     7
 10
-243.4585801418333
 20
297.1060039739812
 30
0.0
  0
VERTEX
  5
3D4
  8
1
  6
CONTINUOUS
 62
     7
 10
-243.4484210073643
 20
296.7912959132744
 30
0.0
  0
VERTEX
  5
3D5
  8
1
  6
CONTINUOUS
 62
     7
 10
-243.4382618728954
 20
296.4648867300215
 30
0.0
  0
VERTEX
  5
3D6
  8
1
  6
CONTINUOUS
 62
     7
 10
-243.4281027384264
 20
296.1271140296736
 30
0.0
  0
VERTEX
  5
3D7
  8
1
  6
CONTINUOUS
 62
     7
 10
-243.4179436039574
 20
295.7783154176818
 30
0.0
  0
VERTEX
  5
3D8
  8
1
  6
CONTINUOUS
 62
     7
 10
-243.4077844694884
 20
295.4188284994974
 30
0.0
  0
VERTEX
  5
3D9
  8
1
  6
CONTINUOUS
 62
     7
 10
-243.3976253350195
 20
295.0489908805714
 30
0.0
  0
VERTEX
  5
3DA
  8
1
  6
CONTINUOUS
 62
     7
 10
-243.3874662005504
 20
294.669140166355
 30
0.0
  0
VERTEX
  5
3DB
  8
1
  6
CONTINUOUS
 62
     7
 10
-243.3773070660815
 20
294.2796195948205
 30
0.0
  0
VERTEX
  5
3DC
  8
1
  6
CONTINUOUS
 62
     7
 10
-243.3671479316125
 20
293.8808344346206
 30
0.0
  0
VERTEX
  5
3DD
  8
1
  6
CONTINUOUS
 62
     7
 10
-243.3569887971435
 20
293.4732283958298
 30
0.0
  0
VERTEX
  5
3DE
  8
1
  6
CONTINUOUS
 62
     7
 10
-243.3468296626745
 20
293.0572457618929
 30
0.0
  0
VERTEX
  5
3DF
  8
1
  6
CONTINUOUS
 62
     7
 10
-243.3366705282055
 20
292.6333308162544
 30
0.0
  0
VERTEX
  5
3E0
  8
1
  6
CONTINUOUS
 62
     7
 10
-243.3265113937366
 20
292.2019278423591
 30
0.0
  0
VERTEX
  5
3E1
  8
1
  6
CONTINUOUS
 62
     7
 10
-243.3163522592676
 20
291.7634811236516
 30
0.0
  0
VERTEX
  5
3E2
  8
1
  6
CONTINUOUS
 62
     7
 10
-243.3061931247986
 20
291.3184349435763
 30
0.0
  0
VERTEX
  5
3E3
  8
1
  6
CONTINUOUS
 62
     7
 10
-243.2960339903296
 20
290.867233585578
 30
0.0
  0
VERTEX
  5
3E4
  8
1
  6
CONTINUOUS
 62
     7
 10
-243.2858748558607
 20
290.4103213331015
 30
0.0
  0
VERTEX
  5
3E5
  8
1
  6
CONTINUOUS
 62
     7
 10
-243.2757157213916
 20
289.9481424695911
 30
0.0
  0
VERTEX
  5
3E6
  8
1
  6
CONTINUOUS
 62
     7
 10
-243.2655565869227
 20
289.4811433571993
 30
0.0
  0
VERTEX
  5
3E7
  8
1
  6
CONTINUOUS
 62
     7
 10
-243.2553974524537
 20
289.0097989326961
 30
0.0
  0
VERTEX
  5
3E8
  8
1
  6
CONTINUOUS
 62
     7
 10
-243.2452383179847
 20
288.534604903947
 30
0.0
  0
VERTEX
  5
3E9
  8
1
  6
CONTINUOUS
 62
     7
 10
-243.2350791835158
 20
288.0560574468774
 30
0.0
  0
VERTEX
  5
3EA
  8
1
  6
CONTINUOUS
 62
     7
 10
-243.2249200490468
 20
287.574652737413
 30
0.0
  0
VERTEX
  5
3EB
  8
1
  6
CONTINUOUS
 62
     7
 10
-243.2147609145777
 20
287.0908869514793
 30
0.0
  0
VERTEX
  5
3EC
  8
1
  6
CONTINUOUS
 62
     7
 10
-243.2046017801088
 20
286.6052562650018
 30
0.0
  0
VERTEX
  5
3ED
  8
1
  6
CONTINUOUS
 62
     7
 10
-243.1944426456398
 20
286.1182568539062
 30
0.0
  0
VERTEX
  5
3EE
  8
1
  6
CONTINUOUS
 62
     7
 10
-243.1842835111708
 20
285.630384894118
 30
0.0
  0
VERTEX
  5
3EF
  8
1
  6
CONTINUOUS
 62
     7
 10
-243.1741243767018
 20
285.1421365615629
 30
0.0
  0
VERTEX
  5
3F0
  8
1
  6
CONTINUOUS
 62
     7
 10
-243.1639652422328
 20
284.6540080321662
 30
0.0
  0
VERTEX
  5
3F1
  8
1
  6
CONTINUOUS
 62
     7
 10
-243.1538061077639
 20
284.1664952072615
 30
0.0
  0
VERTEX
  5
3F2
  8
1
  6
CONTINUOUS
 62
     7
 10
-243.1436469732949
 20
283.6800891868656
 30
0.0
  0
VERTEX
  5
3F3
  8
1
  6
CONTINUOUS
 62
     7
 10
-243.1334878388259
 20
283.1952769852182
 30
0.0
  0
VERTEX
  5
3F4
  8
1
  6
CONTINUOUS
 62
     7
 10
-243.123328704357
 20
282.7125454862438
 30
0.0
  0
VERTEX
  5
3F5
  8
1
  6
CONTINUOUS
 62
     7
 10
-243.113169569888
 20
282.2323815738669
 30
0.0
  0
VERTEX
  5
3F6
  8
1
  6
CONTINUOUS
 62
     7
 10
-243.103010435419
 20
281.7552721320121
 30
0.0
  0
VERTEX
  5
3F7
  8
1
  6
CONTINUOUS
 62
     7
 10
-243.09285130095
 20
281.2817040446042
 30
0.0
  0
VERTEX
  5
3F8
  8
1
  6
CONTINUOUS
 62
     7
 10
-243.082692166481
 20
280.8121641955675
 30
0.0
  0
VERTEX
  5
3F9
  8
1
  6
CONTINUOUS
 62
     7
 10
-243.072533032012
 20
280.3471394688268
 30
0.0
  0
VERTEX
  5
3FA
  8
1
  6
CONTINUOUS
 62
     7
 10
-243.0623738975431
 20
279.8871167483064
 30
0.0
  0
VERTEX
  5
3FB
  8
1
  6
CONTINUOUS
 62
     7
 10
-243.0522147630741
 20
279.4325829179311
 30
0.0
  0
VERTEX
  5
3FC
  8
1
  6
CONTINUOUS
 62
     7
 10
-243.0420556286051
 20
278.984023401228
 30
0.0
  0
VERTEX
  5
3FD
  8
1
  6
CONTINUOUS
 62
     7
 10
-243.0318964941361
 20
278.5418903210897
 30
0.0
  0
VERTEX
  5
3FE
  8
1
  6
CONTINUOUS
 62
     7
 10
-243.0217373596672
 20
278.1066026592716
 30
0.0
  0
VERTEX
  5
3FF
  8
1
  6
CONTINUOUS
 62
     7
 10
-243.0115782251981
 20
277.6785779690312
 30
0.0
  0
VERTEX
  5
400
  8
1
  6
CONTINUOUS
 62
     7
 10
-243.0014190907292
 20
277.2582338036261
 30
0.0
  0
VERTEX
  5
401
  8
1
  6
CONTINUOUS
 62
     7
 10
-242.9912599562602
 20
276.8459877163139
 30
0.0
  0
VERTEX
  5
402
  8
1
  6
CONTINUOUS
 62
     7
 10
-242.9811008217912
 20
276.4422572603521
 30
0.0
  0
VERTEX
  5
403
  8
1
  6
CONTINUOUS
 62
     7
 10
-242.9709416873223
 20
276.0474599889982
 30
0.0
  0
VERTEX
  5
404
  8
1
  6
CONTINUOUS
 62
     7
 10
-242.9607825528532
 20
275.6620134555099
 30
0.0
  0
VERTEX
  5
405
  8
1
  6
CONTINUOUS
 62
     7
 10
-242.9506234183843
 20
275.2863352131445
 30
0.0
  0
VERTEX
  5
406
  8
1
  6
CONTINUOUS
 62
     7
 10
-242.9404642839153
 20
274.9208428151599
 30
0.0
  0
VERTEX
  5
407
  8
1
  6
CONTINUOUS
 62
     7
 10
-242.9303051494463
 20
274.5659520773232
 30
0.0
  0
VERTEX
  5
408
  8
1
  6
CONTINUOUS
 62
     7
 10
-242.9201460149773
 20
274.2220254008551
 30
0.0
  0
VERTEX
  5
409
  8
1
  6
CONTINUOUS
 62
     7
 10
-242.9099868805083
 20
273.8893630196753
 30
0.0
  0
VERTEX
  5
40A
  8
1
  6
CONTINUOUS
 62
     7
 10
-242.8998277460394
 20
273.5682616670165
 30
0.0
  0
VERTEX
  5
40B
  8
1
  6
CONTINUOUS
 62
     7
 10
-242.8896686115704
 20
273.2590180761118
 30
0.0
  0
VERTEX
  5
40C
  8
1
  6
CONTINUOUS
 62
     7
 10
-242.8795094771014
 20
272.9619289801935
 30
0.0
  0
VERTEX
  5
40D
  8
1
  6
CONTINUOUS
 62
     7
 10
-242.8693503426325
 20
272.6772911124947
 30
0.0
  0
VERTEX
  5
40E
  8
1
  6
CONTINUOUS
 62
     7
 10
-242.8591912081635
 20
272.4054012062481
 30
0.0
  0
VERTEX
  5
40F
  8
1
  6
CONTINUOUS
 62
     7
 10
-242.8490320736945
 20
272.1465559946865
 30
0.0
  0
VERTEX
  5
410
  8
1
  6
CONTINUOUS
 62
     7
 10
-242.8388729392255
 20
271.9010522110426
 30
0.0
  0
VERTEX
  5
411
  8
1
  6
CONTINUOUS
 62
     7
 10
-242.8287138047565
 20
271.6691865885493
 30
0.0
  0
VERTEX
  5
412
  8
1
  6
CONTINUOUS
 62
     7
 10
-242.8185546702875
 20
271.4512543987697
 30
0.0
  0
VERTEX
  5
413
  8
1
  6
CONTINUOUS
 62
     7
 10
-242.8083955358185
 20
271.2474875217923
 30
0.0
  0
VERTEX
  5
414
  8
1
  6
CONTINUOUS
 62
     7
 10
-242.7982364013496
 20
271.0580314742648
 30
0.0
  0
VERTEX
  5
415
  8
1
  6
CONTINUOUS
 62
     7
 10
-242.7880772668806
 20
270.8830255786051
 30
0.0
  0
VERTEX
  5
416
  8
1
  6
CONTINUOUS
 62
     7
 10
-242.7779181324116
 20
270.7226091572312
 30
0.0
  0
VERTEX
  5
417
  8
1
  6
CONTINUOUS
 62
     7
 10
-242.7677589979427
 20
270.5769215325611
 30
0.0
  0
VERTEX
  5
418
  8
1
  6
CONTINUOUS
 62
     7
 10
-242.7575998634737
 20
270.4461020270127
 30
0.0
  0
VERTEX
  5
419
  8
1
  6
CONTINUOUS
 62
     7
 10
-242.7474407290047
 20
270.3302899630039
 30
0.0
  0
VERTEX
  5
41A
  8
1
  6
CONTINUOUS
 62
     7
 10
-242.7372815945357
 20
270.2296246629527
 30
0.0
  0
VERTEX
  5
41B
  8
1
  6
CONTINUOUS
 62
     7
 10
-242.7271224600667
 20
270.1442454492772
 30
0.0
  0
VERTEX
  5
41C
  8
1
  6
CONTINUOUS
 62
     7
 10
-242.7169633255977
 20
270.0742916443951
 30
0.0
  0
VERTEX
  5
41D
  8
1
  6
CONTINUOUS
 62
     7
 10
-242.7068041911288
 20
270.0199015994054
 30
0.0
  0
VERTEX
  5
41E
  8
1
  6
CONTINUOUS
 62
     7
 10
-242.6966450566597
 20
269.9811503232851
 30
0.0
  0
VERTEX
  5
41F
  8
1
  6
CONTINUOUS
 62
     7
 10
-242.6864859221908
 20
269.9580116172596
 30
0.0
  0
VERTEX
  5
420
  8
1
  6
CONTINUOUS
 62
     7
 10
-242.6763267877218
 20
269.9504502127959
 30
0.0
  0
SEQEND
  5
5BD
  8
1
  6
CONTINUOUS
 62
     7
  0
POLYLINE
  5
102
  8
1
  6
CONTINUOUS
 62
     7
 66
     1
 10
0.0
 20
0.0
 30
0.0
  0
VERTEX
  5
421
  8
1
  6
CONTINUOUS
 62
     7
 10
-245.6517834229675
 20
300.5041631179745
 30
0.0
  0
VERTEX
  5
422
  8
1
  6
CONTINUOUS
 62
     7
 10
-245.6416228392799
 20
300.458872239268
 30
0.0
  0
VERTEX
  5
423
  8
1
  6
CONTINUOUS
 62
     7
 10
-245.6314622555923
 20
300.3980039342392
 30
0.0
  0
VERTEX
  5
424
  8
1
  6
CONTINUOUS
 62
     7
 10
-245.6213016719046
 20
300.3215692037374
 30
0.0
  0
VERTEX
  5
425
  8
1
  6
CONTINUOUS
 62
     7
 10
-245.6111410882171
 20
300.2296949805316
 30
0.0
  0
VERTEX
  5
426
  8
1
  6
CONTINUOUS
 62
     7
 10
-245.6009805045295
 20
300.1225375134355
 30
0.0
  0
VERTEX
  5
427
  8
1
  6
CONTINUOUS
 62
     7
 10
-245.5908199208418
 20
300.0002530512645
 30
0.0
  0
VERTEX
  5
428
  8
1
  6
CONTINUOUS
 62
     7
 10
-245.5806593371541
 20
299.8629978428337
 30
0.0
  0
VERTEX
  5
429
  8
1
  6
CONTINUOUS
 62
     7
 10
-245.5704987534666
 20
299.7109281369588
 30
0.0
  0
VERTEX
  5
42A
  8
1
  6
CONTINUOUS
 62
     7
 10
-245.560338169779
 20
299.5442001824549
 30
0.0
  0
VERTEX
  5
42B
  8
1
  6
CONTINUOUS
 62
     7
 10
-245.5501775860914
 20
299.3629702281374
 30
0.0
  0
VERTEX
  5
42C
  8
1
  6
CONTINUOUS
 62
     7
 10
-245.5400170024037
 20
299.1673945228215
 30
0.0
  0
VERTEX
  5
42D
  8
1
  6
CONTINUOUS
 62
     7
 10
-245.5298564187162
 20
298.9576293153227
 30
0.0
  0
VERTEX
  5
42E
  8
1
  6
CONTINUOUS
 62
     7
 10
-245.5196958350285
 20
298.7338308544561
 30
0.0
  0
VERTEX
  5
42F
  8
1
  6
CONTINUOUS
 62
     7
 10
-245.5095352513408
 20
298.4961766462799
 30
0.0
  0
VERTEX
  5
430
  8
1
  6
CONTINUOUS
 62
     7
 10
-245.4993746676533
 20
298.2449467070163
 30
0.0
  0
VERTEX
  5
431
  8
1
  6
CONTINUOUS
 62
     7
 10
-245.4892140839657
 20
297.9804519135742
 30
0.0
  0
VERTEX
  5
432
  8
1
  6
CONTINUOUS
 62
     7
 10
-245.479053500278
 20
297.7030031490601
 30
0.0
  0
VERTEX
  5
433
  8
1
  6
CONTINUOUS
 62
     7
 10
-245.4688929165904
 20
297.4129112965804
 30
0.0
  0
VERTEX
  5
434
  8
1
  6
CONTINUOUS
 62
     7
 10
-245.4587323329028
 20
297.1104872392413
 30
0.0
  0
VERTEX
  5
435
  8
1
  6
CONTINUOUS
 62
     7
 10
-245.4485717492152
 20
296.7960418601493
 30
0.0
  0
VERTEX
  5
436
  8
1
  6
CONTINUOUS
 62
     7
 10
-245.4384111655276
 20
296.4698860424109
 30
0.0
  0
VERTEX
  5
437
  8
1
  6
CONTINUOUS
 62
     7
 10
-245.42825058184
 20
296.1323306691322
 30
0.0
  0
VERTEX
  5
438
  8
1
  6
CONTINUOUS
 62
     7
 10
-245.4180899981524
 20
295.7836866234197
 30
0.0
  0
VERTEX
  5
439
  8
1
  6
CONTINUOUS
 62
     7
 10
-245.4079294144647
 20
295.4242647883798
 30
0.0
  0
VERTEX
  5
43A
  8
1
  6
CONTINUOUS
 62
     7
 10
-245.3977688307772
 20
295.0543892309645
 30
0.0
  0
VERTEX
  5
43B
  8
1
  6
CONTINUOUS
 62
     7
 10
-245.3876082470895
 20
294.6744599620884
 30
0.0
  0
VERTEX
  5
43C
  8
1
  6
CONTINUOUS
 62
     7
 10
-245.3774476634019
 20
294.2849041295436
 30
0.0
  0
VERTEX
  5
43D
  8
1
  6
CONTINUOUS
 62
     7
 10
-245.3672870797143
 20
293.8861489150869
 30
0.0
  0
VERTEX
  5
43E
  8
1
  6
CONTINUOUS
 62
     7
 10
-245.3571264960267
 20
293.4786215004756
 30
0.0
  0
VERTEX
  5
43F
  8
1
  6
CONTINUOUS
 62
     7
 10
-245.3469659123391
 20
293.0627490674669
 30
0.0
  0
VERTEX
  5
440
  8
1
  6
CONTINUOUS
 62
     7
 10
-245.3368053286515
 20
292.6389587978178
 30
0.0
  0
VERTEX
  5
441
  8
1
  6
CONTINUOUS
 62
     7
 10
-245.3266447449639
 20
292.2076778732856
 30
0.0
  0
VERTEX
  5
442
  8
1
  6
CONTINUOUS
 62
     7
 10
-245.3164841612762
 20
291.7693334756271
 30
0.0
  0
VERTEX
  5
443
  8
1
  6
CONTINUOUS
 62
     7
 10
-245.3063235775886
 20
291.3243527865997
 30
0.0
  0
VERTEX
  5
444
  8
1
  6
CONTINUOUS
 62
     7
 10
-245.296162993901
 20
290.8731629879605
 30
0.0
  0
VERTEX
  5
445
  8
1
  6
CONTINUOUS
 62
     7
 10
-245.2860024102134
 20
290.4161971307852
 30
0.0
  0
VERTEX
  5
446
  8
1
  6
CONTINUOUS
 62
     7
 10
-245.2758418265258
 20
289.9539288260102
 30
0.0
  0
VERTEX
  5
447
  8
1
  6
CONTINUOUS
 62
     7
 10
-245.2656812428382
 20
289.4868488166255
 30
0.0
  0
VERTEX
  5
448
  8
1
  6
CONTINUOUS
 62
     7
 10
-245.2555206591506
 20
289.0154479063708
 30
0.0
  0
VERTEX
  5
449
  8
1
  6
CONTINUOUS
 62
     7
 10
-245.2453600754629
 20
288.5402168989861
 30
0.0
  0
VERTEX
  5
44A
  8
1
  6
CONTINUOUS
 62
     7
 10
-245.2351994917754
 20
288.0616465982113
 30
0.0
  0
VERTEX
  5
44B
  8
1
  6
CONTINUOUS
 62
     7
 10
-245.2250389080878
 20
287.5802278077862
 30
0.0
  0
VERTEX
  5
44C
  8
1
  6
CONTINUOUS
 62
     7
 10
-245.2148783244001
 20
287.0964513314509
 30
0.0
  0
VERTEX
  5
44D
  8
1
  6
CONTINUOUS
 62
     7
 10
-245.2047177407125
 20
286.610807972945
 30
0.0
  0
VERTEX
  5
44E
  8
1
  6
CONTINUOUS
 62
     7
 10
-245.1945571570249
 20
286.1237885360084
 30
0.0
  0
VERTEX
  5
44F
  8
1
  6
CONTINUOUS
 62
     7
 10
-245.1843965733373
 20
285.6358838243811
 30
0.0
  0
VERTEX
  5
450
  8
1
  6
CONTINUOUS
 62
     7
 10
-245.1742359896496
 20
285.1475848710197
 30
0.0
  0
VERTEX
  5
451
  8
1
  6
CONTINUOUS
 62
     7
 10
-245.164075405962
 20
284.6593846216544
 30
0.0
  0
VERTEX
  5
452
  8
1
  6
CONTINUOUS
 62
     7
 10
-245.1539148222744
 20
284.1717769730761
 30
0.0
  0
VERTEX
  5
453
  8
1
  6
CONTINUOUS
 62
     7
 10
-245.1437542385868
 20
283.685255828981
 30
0.0
  0
VERTEX
  5
454
  8
1
  6
CONTINUOUS
 62
     7
 10
-245.1335936548992
 20
283.2003150930651
 30
0.0
  0
VERTEX
  5
455
  8
1
  6
CONTINUOUS
 62
     7
 10
-245.1234330712116
 20
282.7174486690244
 30
0.0
  0
VERTEX
  5
456
  8
1
  6
CONTINUOUS
 62
     7
 10
-245.113272487524
 20
282.2371504605551
 30
0.0
  0
VERTEX
  5
457
  8
1
  6
CONTINUOUS
 62
     7
 10
-245.1031119038364
 20
281.7599143713531
 30
0.0
  0
VERTEX
  5
458
  8
1
  6
CONTINUOUS
 62
     7
 10
-245.0929513201487
 20
281.2862343051145
 30
0.0
  0
VERTEX
  5
459
  8
1
  6
CONTINUOUS
 62
     7
 10
-245.0827907364612
 20
280.8166041655354
 30
0.0
  0
VERTEX
  5
45A
  8
1
  6
CONTINUOUS
 62
     7
 10
-245.0726301527735
 20
280.3515178563117
 30
0.0
  0
VERTEX
  5
45B
  8
1
  6
CONTINUOUS
 62
     7
 10
-245.0624695690859
 20
279.8914659151965
 30
0.0
  0
VERTEX
  5
45C
  8
1
  6
CONTINUOUS
 62
     7
 10
-245.0523089853983
 20
279.4369046504098
 30
0.0
  0
VERTEX
  5
45D
  8
1
  6
CONTINUOUS
 62
     7
 10
-245.0421484017106
 20
278.9882704103752
 30
0.0
  0
VERTEX
  5
45E
  8
1
  6
CONTINUOUS
 62
     7
 10
-245.031987818023
 20
278.5459992944566
 30
0.0
  0
VERTEX
  5
45F
  8
1
  6
CONTINUOUS
 62
     7
 10
-245.0218272343354
 20
278.1105274020177
 30
0.0
  0
VERTEX
  5
460
  8
1
  6
CONTINUOUS
 62
     7
 10
-245.0116666506478
 20
277.682290832422
 30
0.0
  0
VERTEX
  5
461
  8
1
  6
CONTINUOUS
 62
     7
 10
-245.0015060669602
 20
277.2617256850332
 30
0.0
  0
VERTEX
  5
462
  8
1
  6
CONTINUOUS
 62
     7
 10
-244.9913454832726
 20
276.8492680592147
 30
0.0
  0
VERTEX
  5
463
  8
1
  6
CONTINUOUS
 62
     7
 10
-244.9811848995849
 20
276.4453540543303
 30
0.0
  0
VERTEX
  5
464
  8
1
  6
CONTINUOUS
 62
     7
 10
-244.9710243158974
 20
276.0504197697437
 30
0.0
  0
VERTEX
  5
465
  8
1
  6
CONTINUOUS
 62
     7
 10
-244.9608637322098
 20
275.6649013048184
 30
0.0
  0
VERTEX
  5
466
  8
1
  6
CONTINUOUS
 62
     7
 10
-244.9507031485221
 20
275.2892297469359
 30
0.0
  0
VERTEX
  5
467
  8
1
  6
CONTINUOUS
 62
     7
 10
-244.9405425648345
 20
274.9237733078714
 30
0.0
  0
VERTEX
  5
468
  8
1
  6
CONTINUOUS
 62
     7
 10
-244.9303819811469
 20
274.5688573317629
 30
0.0
  0
VERTEX
  5
469
  8
1
  6
CONTINUOUS
 62
     7
 10
-244.9202213974593
 20
274.224806337325
 30
0.0
  0
VERTEX
  5
46A
  8
1
  6
CONTINUOUS
 62
     7
 10
-244.9100608137717
 20
273.8919448432724
 30
0.0
  0
VERTEX
  5
46B
  8
1
  6
CONTINUOUS
 62
     7
 10
-244.8999002300841
 20
273.5705973683198
 30
0.0
  0
VERTEX
  5
46C
  8
1
  6
CONTINUOUS
 62
     7
 10
-244.8897396463964
 20
273.2610884311817
 30
0.0
  0
VERTEX
  5
46D
  8
1
  6
CONTINUOUS
 62
     7
 10
-244.8795790627089
 20
272.963742550573
 30
0.0
  0
VERTEX
  5
46E
  8
1
  6
CONTINUOUS
 62
     7
 10
-244.8694184790212
 20
272.6788842452082
 30
0.0
  0
VERTEX
  5
46F
  8
1
  6
CONTINUOUS
 62
     7
 10
-244.8592578953336
 20
272.406838033802
 30
0.0
  0
VERTEX
  5
470
  8
1
  6
CONTINUOUS
 62
     7
 10
-244.849097311646
 20
272.147928435069
 30
0.0
  0
VERTEX
  5
471
  8
1
  6
CONTINUOUS
 62
     7
 10
-244.8389367279584
 20
271.9024748426188
 30
0.0
  0
VERTEX
  5
472
  8
1
  6
CONTINUOUS
 62
     7
 10
-244.8287761442707
 20
271.670716054566
 30
0.0
  0
VERTEX
  5
473
  8
1
  6
CONTINUOUS
 62
     7
 10
-244.8186155605831
 20
271.4528267645268
 30
0.0
  0
VERTEX
  5
474
  8
1
  6
CONTINUOUS
 62
     7
 10
-244.8084549768956
 20
271.2489798934917
 30
0.0
  0
VERTEX
  5
475
  8
1
  6
CONTINUOUS
 62
     7
 10
-244.798294393208
 20
271.0593483624507
 30
0.0
  0
VERTEX
  5
476
  8
1
  6
CONTINUOUS
 62
     7
 10
-244.7881338095203
 20
270.8841050923941
 30
0.0
  0
VERTEX
  5
477
  8
1
  6
CONTINUOUS
 62
     7
 10
-244.7779732258327
 20
270.7234230043123
 30
0.0
  0
VERTEX
  5
478
  8
1
  6
CONTINUOUS
 62
     7
 10
-244.7678126421451
 20
270.5774750191956
 30
0.0
  0
VERTEX
  5
479
  8
1
  6
CONTINUOUS
 62
     7
 10
-244.7576520584575
 20
270.4464340580341
 30
0.0
  0
VERTEX
  5
47A
  8
1
  6
CONTINUOUS
 62
     7
 10
-244.7474914747698
 20
270.3304730418182
 30
0.0
  0
VERTEX
  5
47B
  8
1
  6
CONTINUOUS
 62
     7
 10
-244.7373308910823
 20
270.2297648915382
 30
0.0
  0
VERTEX
  5
47C
  8
1
  6
CONTINUOUS
 62
     7
 10
-244.7271703073946
 20
270.1444782572514
 30
0.0
  0
VERTEX
  5
47D
  8
1
  6
CONTINUOUS
 62
     7
 10
-244.7170097237071
 20
270.0746958156737
 30
0.0
  0
VERTEX
  5
47E
  8
1
  6
CONTINUOUS
 62
     7
 10
-244.7068491400194
 20
270.0204205745846
 30
0.0
  0
VERTEX
  5
47F
  8
1
  6
CONTINUOUS
 62
     7
 10
-244.6966885563318
 20
269.981652534004
 30
0.0
  0
VERTEX
  5
480
  8
1
  6
CONTINUOUS
 62
     7
 10
-244.6865279726442
 20
269.9583916939521
 30
0.0
  0
VERTEX
  5
481
  8
1
  6
CONTINUOUS
 62
     7
 10
-244.6763673889565
 20
269.9506380544491
 30
0.0
  0
SEQEND
  5
5BE
  8
1
  6
CONTINUOUS
 62
     7
  0
POLYLINE
  5
103
  8
1
  6
CONTINUOUS
 62
     7
 66
     1
 10
0.0
 20
0.0
 30
0.0
  0
VERTEX
  5
482
  8
1
  6
CONTINUOUS
 62
     7
 10
-247.6518325495259
 20
300.5045706390494
 30
0.0
  0
VERTEX
  5
483
  8
1
  6
CONTINUOUS
 62
     7
 10
-247.6407481795323
 20
300.4542057716072
 30
0.0
  0
VERTEX
  5
484
  8
1
  6
CONTINUOUS
 62
     7
 10
-247.6296638095387
 20
300.3853296069363
 30
0.0
  0
VERTEX
  5
485
  8
1
  6
CONTINUOUS
 62
     7
 10
-247.6185794395451
 20
300.2981009818142
 30
0.0
  0
VERTEX
  5
486
  8
1
  6
CONTINUOUS
 62
     7
 10
-247.6074950695515
 20
300.1926787330181
 30
0.0
  0
VERTEX
  5
487
  8
1
  6
CONTINUOUS
 62
     7
 10
-247.5964106995579
 20
300.0692216973255
 30
0.0
  0
VERTEX
  5
488
  8
1
  6
CONTINUOUS
 62
     7
 10
-247.5853263295643
 20
299.9278887115137
 30
0.0
  0
VERTEX
  5
489
  8
1
  6
CONTINUOUS
 62
     7
 10
-247.5742419595708
 20
299.7688386123602
 30
0.0
  0
VERTEX
  5
48A
  8
1
  6
CONTINUOUS
 62
     7
 10
-247.5631575895772
 20
299.5922302366423
 30
0.0
  0
VERTEX
  5
48B
  8
1
  6
CONTINUOUS
 62
     7
 10
-247.5520732195836
 20
299.3982224211372
 30
0.0
  0
VERTEX
  5
48C
  8
1
  6
CONTINUOUS
 62
     7
 10
-247.54098884959
 20
299.1869740067881
 30
0.0
  0
VERTEX
  5
48D
  8
1
  6
CONTINUOUS
 62
     7
 10
-247.5299044795964
 20
298.9586838542145
 30
0.0
  0
VERTEX
  5
48E
  8
1
  6
CONTINUOUS
 62
     7
 10
-247.5188201096028
 20
298.7136889250783
 30
0.0
  0
VERTEX
  5
48F
  8
1
  6
CONTINUOUS
 62
     7
 10
-247.5077357396093
 20
298.4523559485784
 30
0.0
  0
VERTEX
  5
490
  8
1
  6
CONTINUOUS
 62
     7
 10
-247.4966513696156
 20
298.1750516539141
 30
0.0
  0
VERTEX
  5
491
  8
1
  6
CONTINUOUS
 62
     7
 10
-247.4855669996221
 20
297.8821427702848
 30
0.0
  0
VERTEX
  5
492
  8
1
  6
CONTINUOUS
 62
     7
 10
-247.4744826296285
 20
297.5739960268897
 30
0.0
  0
VERTEX
  5
493
  8
1
  6
CONTINUOUS
 62
     7
 10
-247.4633982596349
 20
297.250978152928
 30
0.0
  0
VERTEX
  5
494
  8
1
  6
CONTINUOUS
 62
     7
 10
-247.4523138896413
 20
296.9134558775989
 30
0.0
  0
VERTEX
  5
495
  8
1
  6
CONTINUOUS
 62
     7
 10
-247.4412295196477
 20
296.5617959301018
 30
0.0
  0
VERTEX
  5
496
  8
1
  6
CONTINUOUS
 62
     7
 10
-247.4301451496541
 20
296.1963650396357
 30
0.0
  0
VERTEX
  5
497
  8
1
  6
CONTINUOUS
 62
     7
 10
-247.4190607796606
 20
295.8175505415558
 30
0.0
  0
VERTEX
  5
498
  8
1
  6
CONTINUOUS
 62
     7
 10
-247.407976409667
 20
295.4258470297489
 30
0.0
  0
VERTEX
  5
499
  8
1
  6
CONTINUOUS
 62
     7
 10
-247.3968920396734
 20
295.0217838855974
 30
0.0
  0
VERTEX
  5
49A
  8
1
  6
CONTINUOUS
 62
     7
 10
-247.3858076696798
 20
294.6058905085847
 30
0.0
  0
VERTEX
  5
49B
  8
1
  6
CONTINUOUS
 62
     7
 10
-247.3747232996862
 20
294.1786962981942
 30
0.0
  0
VERTEX
  5
49C
  8
1
  6
CONTINUOUS
 62
     7
 10
-247.3636389296926
 20
293.7407306539089
 30
0.0
  0
VERTEX
  5
49D
  8
1
  6
CONTINUOUS
 62
     7
 10
-247.3525545596991
 20
293.2925229752126
 30
0.0
  0
VERTEX
  5
49E
  8
1
  6
CONTINUOUS
 62
     7
 10
-247.3414701897054
 20
292.8346026615882
 30
0.0
  0
VERTEX
  5
49F
  8
1
  6
CONTINUOUS
 62
     7
 10
-247.3303858197118
 20
292.3674991125193
 30
0.0
  0
VERTEX
  5
4A0
  8
1
  6
CONTINUOUS
 62
     7
 10
-247.3193014497182
 20
291.8917417274891
 30
0.0
  0
VERTEX
  5
4A1
  8
1
  6
CONTINUOUS
 62
     7
 10
-247.3082170797247
 20
291.4078674861777
 30
0.0
  0
VERTEX
  5
4A2
  8
1
  6
CONTINUOUS
 62
     7
 10
-247.2971327097311
 20
290.9164739492448
 30
0.0
  0
VERTEX
  5
4A3
  8
1
  6
CONTINUOUS
 62
     7
 10
-247.2860483397375
 20
290.4181877222946
 30
0.0
  0
VERTEX
  5
4A4
  8
1
  6
CONTINUOUS
 62
     7
 10
-247.2749639697439
 20
289.9136355937466
 30
0.0
  0
VERTEX
  5
4A5
  8
1
  6
CONTINUOUS
 62
     7
 10
-247.2638795997503
 20
289.4034443520205
 30
0.0
  0
VERTEX
  5
4A6
  8
1
  6
CONTINUOUS
 62
     7
 10
-247.2527952297567
 20
288.8882407855362
 30
0.0
  0
VERTEX
  5
4A7
  8
1
  6
CONTINUOUS
 62
     7
 10
-247.2417108597631
 20
288.3686516827133
 30
0.0
  0
VERTEX
  5
4A8
  8
1
  6
CONTINUOUS
 62
     7
 10
-247.2306264897696
 20
287.8453038319716
 30
0.0
  0
VERTEX
  5
4A9
  8
1
  6
CONTINUOUS
 62
     7
 10
-247.219542119776
 20
287.3188240217307
 30
0.0
  0
VERTEX
  5
4AA
  8
1
  6
CONTINUOUS
 62
     7
 10
-247.2084577497824
 20
286.7898390404104
 30
0.0
  0
VERTEX
  5
4AB
  8
1
  6
CONTINUOUS
 62
     7
 10
-247.1973733797888
 20
286.258976550791
 30
0.0
  0
VERTEX
  5
4AC
  8
1
  6
CONTINUOUS
 62
     7
 10
-247.1862890097952
 20
285.7268754690194
 30
0.0
  0
VERTEX
  5
4AD
  8
1
  6
CONTINUOUS
 62
     7
 10
-247.1752046398016
 20
285.1941825243964
 30
0.0
  0
VERTEX
  5
4AE
  8
1
  6
CONTINUOUS
 62
     7
 10
-247.164120269808
 20
284.6615446036986
 30
0.0
  0
VERTEX
  5
4AF
  8
1
  6
CONTINUOUS
 62
     7
 10
-247.1530358998145
 20
284.129608593703
 30
0.0
  0
VERTEX
  5
4B0
  8
1
  6
CONTINUOUS
 62
     7
 10
-247.1419515298209
 20
283.5990213811861
 30
0.0
  0
VERTEX
  5
4B1
  8
1
  6
CONTINUOUS
 62
     7
 10
-247.1308671598273
 20
283.0704298529248
 30
0.0
  0
VERTEX
  5
4B2
  8
1
  6
CONTINUOUS
 62
     7
 10
-247.1197827898337
 20
282.5444808956959
 30
0.0
  0
VERTEX
  5
4B3
  8
1
  6
CONTINUOUS
 62
     7
 10
-247.1086984198401
 20
282.021821396276
 30
0.0
  0
VERTEX
  5
4B4
  8
1
  6
CONTINUOUS
 62
     7
 10
-247.0976140498466
 20
281.503098241442
 30
0.0
  0
VERTEX
  5
4B5
  8
1
  6
CONTINUOUS
 62
     7
 10
-247.0865296798529
 20
280.9889570573583
 30
0.0
  0
VERTEX
  5
4B6
  8
1
  6
CONTINUOUS
 62
     7
 10
-247.0754453098594
 20
280.4800147911435
 30
0.0
  0
VERTEX
  5
4B7
  8
1
  6
CONTINUOUS
 62
     7
 10
-247.0643609398658
 20
279.9768598848064
 30
0.0
  0
VERTEX
  5
4B8
  8
1
  6
CONTINUOUS
 62
     7
 10
-247.0532765698721
 20
279.4800795545316
 30
0.0
  0
VERTEX
  5
4B9
  8
1
  6
CONTINUOUS
 62
     7
 10
-247.0421921998786
 20
278.9902610165034
 30
0.0
  0
VERTEX
  5
4BA
  8
1
  6
CONTINUOUS
 62
     7
 10
-247.0311078298849
 20
278.5079914869062
 30
0.0
  0
VERTEX
  5
4BB
  8
1
  6
CONTINUOUS
 62
     7
 10
-247.0200234598914
 20
278.0338581819245
 30
0.0
  0
VERTEX
  5
4BC
  8
1
  6
CONTINUOUS
 62
     7
 10
-247.0089390898979
 20
277.5684483177427
 30
0.0
  0
VERTEX
  5
4BD
  8
1
  6
CONTINUOUS
 62
     7
 10
-246.9978547199043
 20
277.1123491105449
 30
0.0
  0
VERTEX
  5
4BE
  8
1
  6
CONTINUOUS
 62
     7
 10
-246.9867703499106
 20
276.6661477765156
 30
0.0
  0
VERTEX
  5
4BF
  8
1
  6
CONTINUOUS
 62
     7
 10
-246.975685979917
 20
276.2304304563044
 30
0.0
  0
VERTEX
  5
4C0
  8
1
  6
CONTINUOUS
 62
     7
 10
-246.9646016099235
 20
275.8057315345937
 30
0.0
  0
VERTEX
  5
4C1
  8
1
  6
CONTINUOUS
 62
     7
 10
-246.9535172399299
 20
275.3925117673269
 30
0.0
  0
VERTEX
  5
4C2
  8
1
  6
CONTINUOUS
 62
     7
 10
-246.9424328699363
 20
274.9912262892515
 30
0.0
  0
VERTEX
  5
4C3
  8
1
  6
CONTINUOUS
 62
     7
 10
-246.9313484999427
 20
274.6023302351142
 30
0.0
  0
VERTEX
  5
4C4
  8
1
  6
CONTINUOUS
 62
     7
 10
-246.9202641299491
 20
274.2262787396622
 30
0.0
  0
VERTEX
  5
4C5
  8
1
  6
CONTINUOUS
 62
     7
 10
-246.9091797599555
 20
273.8635269376425
 30
0.0
  0
VERTEX
  5
4C6
  8
1
  6
CONTINUOUS
 62
     7
 10
-246.898095389962
 20
273.5145299638021
 30
0.0
  0
VERTEX
  5
4C7
  8
1
  6
CONTINUOUS
 62
     7
 10
-246.8870110199684
 20
273.1797429528883
 30
0.0
  0
VERTEX
  5
4C8
  8
1
  6
CONTINUOUS
 62
     7
 10
-246.8759266499748
 20
272.8596210396479
 30
0.0
  0
VERTEX
  5
4C9
  8
1
  6
CONTINUOUS
 62
     7
 10
-246.8648422799812
 20
272.5546189830207
 30
0.0
  0
VERTEX
  5
4CA
  8
1
  6
CONTINUOUS
 62
     7
 10
-246.8537579099876
 20
272.2651348421645
 30
0.0
  0
VERTEX
  5
4CB
  8
1
  6
CONTINUOUS
 62
     7
 10
-246.842673539994
 20
271.9914499329863
 30
0.0
  0
VERTEX
  5
4CC
  8
1
  6
CONTINUOUS
 62
     7
 10
-246.8315891700004
 20
271.7338311851867
 30
0.0
  0
VERTEX
  5
4CD
  8
1
  6
CONTINUOUS
 62
     7
 10
-246.8205048000068
 20
271.4925455284663
 30
0.0
  0
VERTEX
  5
4CE
  8
1
  6
CONTINUOUS
 62
     7
 10
-246.8094204300133
 20
271.2678598925257
 30
0.0
  0
VERTEX
  5
4CF
  8
1
  6
CONTINUOUS
 62
     7
 10
-246.7983360600197
 20
271.0600412070655
 30
0.0
  0
VERTEX
  5
4D0
  8
1
  6
CONTINUOUS
 62
     7
 10
-246.7872516900261
 20
270.8693564017863
 30
0.0
  0
VERTEX
  5
4D1
  8
1
  6
CONTINUOUS
 62
     7
 10
-246.7761673200325
 20
270.6960724063886
 30
0.0
  0
VERTEX
  5
4D2
  8
1
  6
CONTINUOUS
 62
     7
 10
-246.7650829500389
 20
270.5404561505729
 30
0.0
  0
VERTEX
  5
4D3
  8
1
  6
CONTINUOUS
 62
     7
 10
-246.7539985800453
 20
270.402774535282
 30
0.0
  0
VERTEX
  5
4D4
  8
1
  6
CONTINUOUS
 62
     7
 10
-246.7429142100518
 20
270.2832465784504
 30
0.0
  0
VERTEX
  5
4D5
  8
1
  6
CONTINUOUS
 62
     7
 10
-246.7318298400581
 20
270.1819456721449
 30
0.0
  0
VERTEX
  5
4D6
  8
1
  6
CONTINUOUS
 62
     7
 10
-246.7207454700646
 20
270.0989176253651
 30
0.0
  0
VERTEX
  5
4D7
  8
1
  6
CONTINUOUS
 62
     7
 10
-246.7096611000709
 20
270.0342082471101
 30
0.0
  0
VERTEX
  5
4D8
  8
1
  6
CONTINUOUS
 62
     7
 10
-246.6985767300774
 20
269.9878633463797
 30
0.0
  0
VERTEX
  5
4D9
  8
1
  6
CONTINUOUS
 62
     7
 10
-246.6874923600838
 20
269.9599287321731
 30
0.0
  0
VERTEX
  5
4DA
  8
1
  6
CONTINUOUS
 62
     7
 10
-246.6764079900902
 20
269.9504502134897
 30
0.0
  0
SEQEND
  5
5BF
  8
1
  6
CONTINUOUS
 62
     7
  0
LINE
  5
104
  8
1
  6
CONTINUOUS
 62
     7
 10
-247.2735867230276
 20
298.2861813148887
 30
0.0
 11
-247.3822148188227
 21
299.5015745339779
 31
0.0
  0
LINE
  5
105
  8
1
  6
CONTINUOUS
 62
     7
 10
-247.1612271724659
 20
295.4504649485505
 30
0.0
 11
-247.2735867230276
 21
298.2861813148887
 31
0.0
  0
LINE
  5
106
  8
1
  6
CONTINUOUS
 62
     7
 10
-247.0488676219041
 20
291.3569081043163
 30
0.0
 11
-247.1612271724659
 21
295.4504649485505
 31
0.0
  0
LINE
  5
107
  8
1
  6
CONTINUOUS
 62
     7
 10
-246.9365080713422
 20
286.5102957623996
 30
0.0
 11
-247.0488676219041
 21
291.3569081043163
 31
0.0
  0
LINE
  5
108
  8
1
  6
CONTINUOUS
 62
     7
 10
-246.8241485207805
 20
281.5082737374884
 30
0.0
 11
-246.9365080713422
 21
286.5102957623996
 31
0.0
  0
LINE
  5
109
  8
1
  6
CONTINUOUS
 62
     7
 10
-246.7117889702186
 20
276.9676517344311
 30
0.0
 11
-246.8241485207805
 21
281.5082737374884
 31
0.0
  0
LINE
  5
10A
  8
1
  6
CONTINUOUS
 62
     7
 10
-246.5994294196568
 20
273.4483432649264
 30
0.0
 11
-246.7117889702186
 21
276.9676517344311
 31
0.0
  0
LINE
  5
10B
  8
1
  6
CONTINUOUS
 62
     7
 10
-246.4870698690951
 20
271.3843215517094
 30
0.0
 11
-246.5994294196568
 21
273.4483432649264
 31
0.0
  0
LINE
  5
10C
  8
1
  6
CONTINUOUS
 62
     7
 10
-245.3634743634771
 20
299.4076938604283
 30
0.0
 11
-245.3821938870122
 21
299.5014971801805
 31
0.0
  0
LINE
  5
10D
  8
1
  6
CONTINUOUS
 62
     7
 10
-245.2511148129153
 20
297.8390979585999
 30
0.0
 11
-245.3634743634771
 21
299.4076938604283
 31
0.0
  0
LINE
  5
10E
  8
1
  6
CONTINUOUS
 62
     7
 10
-245.1387552623535
 20
294.7181142908825
 30
0.0
 11
-245.2511148129153
 21
297.8390979585999
 31
0.0
  0
LINE
  5
10F
  8
1
  6
CONTINUOUS
 62
     7
 10
-245.0263957117915
 20
290.4295978229879
 30
0.0
 11
-245.1387552623535
 21
294.7181142908825
 31
0.0
  0
LINE
  5
110
  8
1
  6
CONTINUOUS
 62
     7
 10
-244.9140361612299
 20
285.5023744104872
 30
0.0
 11
-245.0263957117915
 21
290.4295978229879
 31
0.0
  0
LINE
  5
111
  8
1
  6
CONTINUOUS
 62
     7
 10
-244.8016766106681
 20
280.5440301862611
 30
0.0
 11
-244.9140361612299
 21
285.5023744104871
 31
0.0
  0
LINE
  5
112
  8
1
  6
CONTINUOUS
 62
     7
 10
-244.6893170601062
 20
276.1659888550235
 30
0.0
 11
-244.8016766106681
 21
280.5440301862611
 31
0.0
  0
LINE
  5
113
  8
1
  6
CONTINUOUS
 62
     7
 10
-244.5769575095445
 20
272.9081157688094
 30
0.0
 11
-244.6893170601062
 21
276.1659888550235
 31
0.0
  0
LINE
  5
114
  8
1
  6
CONTINUOUS
 62
     7
 10
-244.4645979589827
 20
271.1721460112946
 30
0.0
 11
-244.5769575095445
 21
272.9081157688094
 31
0.0
  0
LINE
  5
115
  8
1
  6
CONTINUOUS
 62
     7
 10
-243.3410024533647
 20
299.2304756623062
 30
0.0
 11
-243.3819844076498
 21
299.5007196518397
 31
0.0
  0
LINE
  5
116
  8
1
  6
CONTINUOUS
 62
     7
 10
-243.2286429028029
 20
297.3292963495306
 30
0.0
 11
-243.3410024533647
 21
299.2304756623062
 31
0.0
  0
LINE
  5
117
  8
1
  6
CONTINUOUS
 62
     7
 10
-243.1162833522411
 20
293.9385939640772
 30
0.0
 11
-243.2286429028029
 21
297.3292963495306
 31
0.0
  0
LINE
  5
118
  8
1
  6
CONTINUOUS
 62
     7
 10
-243.0040484727056
 20
289.4818327195148
 30
0.0
 11
-243.1162833522411
 21
293.9385939640772
 31
0.0
  0
LINE
  5
119
  8
1
  6
CONTINUOUS
 62
     7
 10
-243.0039238016793
 20
289.4764830458561
 30
0.0
 11
-243.0040484727056
 21
289.4818327195148
 31
0.0
  0
LINE
  5
11A
  8
1
  6
CONTINUOUS
 62
     7
 10
-242.8915642511175
 20
284.4931957419533
 30
0.0
 11
-243.0039238016793
 21
289.4764830458561
 31
0.0
  0
LINE
  5
11B
  8
1
  6
CONTINUOUS
 62
     7
 10
-242.7792047005558
 20
279.6032315399301
 30
0.0
 11
-242.8915642511175
 21
284.4931957419533
 31
0.0
  0
LINE
  5
11C
  8
1
  6
CONTINUOUS
 62
     7
 10
-242.6668451499939
 20
275.4095820622037
 30
0.0
 11
-242.7792047005558
 21
279.6032315399302
 31
0.0
  0
LINE
  5
11D
  8
1
  6
CONTINUOUS
 62
     7
 10
-242.5544855994321
 20
272.4293749191166
 30
0.0
 11
-242.6668451499939
 21
275.4095820622037
 31
0.0
  0
LINE
  5
11E
  8
1
  6
CONTINUOUS
 62
     7
 10
-242.4421260488704
 20
271.0301056313147
 30
0.0
 11
-242.5544855994321
 21
272.4293749191166
 31
0.0
  0
LINE
  5
11F
  8
1
  6
CONTINUOUS
 62
     7
 10
-241.3185305432525
 20
298.9836074376742
 30
0.0
 11
-241.3821694004728
 21
299.5014066116181
 31
0.0
  0
LINE
  5
120
  8
1
  6
CONTINUOUS
 62
     7
 10
-241.2061709926895
 20
296.7593162936289
 30
0.0
 11
-241.3185305432525
 21
298.9836074376742
 31
0.0
  0
LINE
  5
121
  8
1
  6
CONTINUOUS
 62
     7
 10
-241.0938114421346
 20
293.1157874994107
 30
0.0
 11
-241.2061709926895
 21
296.7593162936289
 31
0.0
  0
LINE
  5
122
  8
1
  6
CONTINUOUS
 62
     7
 10
-240.9814518915418
 20
288.5023121416868
 30
0.0
 11
-241.0938114421346
 21
293.1157874994107
 31
0.0
  0
LINE
  5
123
  8
1
  6
CONTINUOUS
 62
     7
 10
-240.8690923411009
 20
283.4877874384337
 30
0.0
 11
-240.9814518915418
 21
288.5023121416868
 31
0.0
  0
LINE
  5
124
  8
1
  6
CONTINUOUS
 62
     7
 10
-240.7567327901235
 20
278.6905647972549
 30
0.0
 11
-240.8690923411009
 21
283.4877874384337
 31
0.0
  0
LINE
  5
125
  8
1
  6
CONTINUOUS
 62
     7
 10
-240.6443732407546
 20
274.7021997630389
 30
0.0
 11
-240.7567327901235
 21
278.6905647972549
 31
0.0
  0
LINE
  5
126
  8
1
  6
CONTINUOUS
 62
     7
 10
-240.5320136874857
 20
272.0145057474893
 30
0.0
 11
-240.6443732407546
 21
274.7021997630389
 31
0.0
  0
LINE
  5
127
  8
1
  6
CONTINUOUS
 62
     7
 10
-240.4196541393985
 20
270.9589080508118
 30
0.0
 11
-240.5320136874857
 21
272.0145057474893
 31
0.0
  0
LINE
  5
128
  8
1
  6
CONTINUOUS
 62
     7
 10
-239.6415728348121
 20
300.4201450039686
 30
0.0
 11
-239.4084181837007
 21
299.55
 31
0.0
  0
LINE
  5
129
  8
1
  6
CONTINUOUS
 62
     7
 10
-239.3841956893137
 20
271.2790180768425
 30
0.0
 11
-239.3407170635818
 21
270.9914538125686
 31
0.0
  0
ARC
  5
12A
  8
1
  6
CONTINUOUS
 62
     7
 10
-3099.923232868517
 20
171.0636675973337
 30
0.0
 40
2862.276231077597
 50
2.007963976271767
 51
2.570775051822671
  0
POLYLINE
  5
12B
  8
1
  6
CONTINUOUS
 62
     7
 66
     1
 10
0.0
 20
0.0
 30
0.0
  0
VERTEX
  5
4DB
  8
1
  6
CONTINUOUS
 62
     7
 10
-240.5276589655312
 20
299.44659066651
 30
0.0
  0
VERTEX
  5
4DC
  8
1
  6
CONTINUOUS
 62
     7
 10
-240.5648233923161
 20
299.5441662311774
 30
0.0
  0
VERTEX
  5
4DD
  8
1
  6
CONTINUOUS
 62
     7
 10
-240.5763673761318
 20
299.55
 30
0.0
  0
SEQEND
  5
5C0
  8
1
  6
CONTINUOUS
 62
     7
  0
POLYLINE
  5
12C
  8
1
  6
CONTINUOUS
 62
     7
 66
     1
 10
0.0
 20
0.0
 30
0.0
  0
VERTEX
  5
4DE
  8
1
  6
CONTINUOUS
 62
     7
 10
-240.3084181837007
 20
300.55
 30
0.0
  0
VERTEX
  5
4DF
  8
1
  6
CONTINUOUS
 62
     7
 10
-240.2972339825186
 20
300.5292881787229
 30
0.0
  0
VERTEX
  5
4E0
  8
1
  6
CONTINUOUS
 62
     7
 10
-240.2860410321917
 20
300.4895938866748
 30
0.0
  0
VERTEX
  5
4E1
  8
1
  6
CONTINUOUS
 62
     7
 10
-240.2748393113434
 20
300.431037838151
 30
0.0
  0
VERTEX
  5
4E2
  8
1
  6
CONTINUOUS
 62
     7
 10
-240.2636287985969
 20
300.3537407474473
 30
0.0
  0
VERTEX
  5
4E3
  8
1
  6
CONTINUOUS
 62
     7
 10
-240.2524094725756
 20
300.2578233288593
 30
0.0
  0
VERTEX
  5
4E4
  8
1
  6
CONTINUOUS
 62
     7
 10
-240.2411813119028
 20
300.1434062966823
 30
0.0
  0
VERTEX
  5
4E5
  8
1
  6
CONTINUOUS
 62
     7
 10
-240.2299442952019
 20
300.0106103652122
 30
0.0
  0
VERTEX
  5
4E6
  8
1
  6
CONTINUOUS
 62
     7
 10
-240.2186984010961
 20
299.8595562487446
 30
0.0
  0
VERTEX
  5
4E7
  8
1
  6
CONTINUOUS
 62
     7
 10
-240.2074436082086
 20
299.6903646615749
 30
0.0
  0
VERTEX
  5
4E8
  8
1
  6
CONTINUOUS
 62
     7
 10
-240.1961798951629
 20
299.5031563179987
 30
0.0
  0
VERTEX
  5
4E9
  8
1
  6
CONTINUOUS
 62
     7
 10
-240.18490724058
 20
299.2980574989986
 30
0.0
  0
VERTEX
  5
4EA
  8
1
  6
CONTINUOUS
 62
     7
 10
-240.1736256230328
 20
299.0753110109367
 30
0.0
  0
VERTEX
  5
4EB
  8
1
  6
CONTINUOUS
 62
     7
 10
-240.1623350210486
 20
298.8352701293846
 30
0.0
  0
VERTEX
  5
4EC
  8
1
  6
CONTINUOUS
 62
     7
 10
-240.151035413153
 20
298.5782924842852
 30
0.0
  0
VERTEX
  5
4ED
  8
1
  6
CONTINUOUS
 62
     7
 10
-240.1397267778716
 20
298.3047357055813
 30
0.0
  0
VERTEX
  5
4EE
  8
1
  6
CONTINUOUS
 62
     7
 10
-240.1284090937298
 20
298.0149574232157
 30
0.0
  0
VERTEX
  5
4EF
  8
1
  6
CONTINUOUS
 62
     7
 10
-240.1170823392532
 20
297.7093152671314
 30
0.0
  0
VERTEX
  5
4F0
  8
1
  6
CONTINUOUS
 62
     7
 10
-240.1057464929676
 20
297.388166867271
 30
0.0
  0
VERTEX
  5
4F1
  8
1
  6
CONTINUOUS
 62
     7
 10
-240.0944015333982
 20
297.0518698535775
 30
0.0
  0
VERTEX
  5
4F2
  8
1
  6
CONTINUOUS
 62
     7
 10
-240.0830474390709
 20
296.7007818559937
 30
0.0
  0
VERTEX
  5
4F3
  8
1
  6
CONTINUOUS
 62
     7
 10
-240.0716841885105
 20
296.3352605721885
 30
0.0
  0
VERTEX
  5
4F4
  8
1
  6
CONTINUOUS
 62
     7
 10
-240.0603117599284
 20
295.9557103627571
 30
0.0
  0
VERTEX
  5
4F5
  8
1
  6
CONTINUOUS
 62
     7
 10
-240.0489301306752
 20
295.5626636142647
 30
0.0
  0
VERTEX
  5
4F6
  8
1
  6
CONTINUOUS
 62
     7
 10
-240.0375392779551
 20
295.1566744752758
 30
0.0
  0
VERTEX
  5
4F7
  8
1
  6
CONTINUOUS
 62
     7
 10
-240.0261391789722
 20
294.7382970943546
 30
0.0
  0
VERTEX
  5
4F8
  8
1
  6
CONTINUOUS
 62
     7
 10
-240.0147298109306
 20
294.3080856200659
 30
0.0
  0
VERTEX
  5
4F9
  8
1
  6
CONTINUOUS
 62
     7
 10
-240.0033111510346
 20
293.866594200974
 30
0.0
  0
VERTEX
  5
4FA
  8
1
  6
CONTINUOUS
 62
     7
 10
-239.9918831764884
 20
293.4143769856434
 30
0.0
  0
VERTEX
  5
4FB
  8
1
  6
CONTINUOUS
 62
     7
 10
-239.9804458644961
 20
292.9519881226387
 30
0.0
  0
VERTEX
  5
4FC
  8
1
  6
CONTINUOUS
 62
     7
 10
-239.9689991922619
 20
292.4799817605243
 30
0.0
  0
VERTEX
  5
4FD
  8
1
  6
CONTINUOUS
 62
     7
 10
-239.95754313699
 20
291.9989120478647
 30
0.0
  0
VERTEX
  5
4FE
  8
1
  6
CONTINUOUS
 62
     7
 10
-239.9460776758079
 20
291.50934483707
 30
0.0
  0
VERTEX
  5
4FF
  8
1
  6
CONTINUOUS
 62
     7
 10
-239.934602785314
 20
291.0119269206656
 30
0.0
  0
VERTEX
  5
500
  8
1
  6
CONTINUOUS
 62
     7
 10
-239.9231184418827
 20
290.5073393023761
 30
0.0
  0
VERTEX
  5
501
  8
1
  6
CONTINUOUS
 62
     7
 10
-239.9116246218875
 20
289.9962631076539
 30
0.0
  0
VERTEX
  5
502
  8
1
  6
CONTINUOUS
 62
     7
 10
-239.9001213017023
 20
289.4793794619517
 30
0.0
  0
VERTEX
  5
503
  8
1
  6
CONTINUOUS
 62
     7
 10
-239.8886084577005
 20
288.9573694907221
 30
0.0
  0
VERTEX
  5
504
  8
1
  6
CONTINUOUS
 62
     7
 10
-239.8770860662558
 20
288.4309143194173
 30
0.0
  0
VERTEX
  5
505
  8
1
  6
CONTINUOUS
 62
     7
 10
-239.8655541037421
 20
287.9006950734901
 30
0.0
  0
VERTEX
  5
506
  8
1
  6
CONTINUOUS
 62
     7
 10
-239.8540125465328
 20
287.3673928783929
 30
0.0
  0
VERTEX
  5
507
  8
1
  6
CONTINUOUS
 62
     7
 10
-239.8424613710016
 20
286.8316888595784
 30
0.0
  0
VERTEX
  5
508
  8
1
  6
CONTINUOUS
 62
     7
 10
-239.8309005534834
 20
286.2942655138637
 30
0.0
  0
VERTEX
  5
509
  8
1
  6
CONTINUOUS
 62
     7
 10
-239.8193300697356
 20
285.755825797807
 30
0.0
  0
VERTEX
  5
50A
  8
1
  6
CONTINUOUS
 62
     7
 10
-239.8077498950711
 20
285.217088387315
 30
0.0
  0
VERTEX
  5
50B
  8
1
  6
CONTINUOUS
 62
     7
 10
-239.7961600047921
 20
284.678772360887
 30
0.0
  0
VERTEX
  5
50C
  8
1
  6
CONTINUOUS
 62
     7
 10
-239.7845603742005
 20
284.1415967970225
 30
0.0
  0
VERTEX
  5
50D
  8
1
  6
CONTINUOUS
 62
     7
 10
-239.772950978598
 20
283.6062807742208
 30
0.0
  0
VERTEX
  5
50E
  8
1
  6
CONTINUOUS
 62
     7
 10
-239.7613317932868
 20
283.0735433709814
 30
0.0
  0
VERTEX
  5
50F
  8
1
  6
CONTINUOUS
 62
     7
 10
-239.7497027935686
 20
282.5441036658035
 30
0.0
  0
VERTEX
  5
510
  8
1
  6
CONTINUOUS
 62
     7
 10
-239.7380639547454
 20
282.0186807371866
 30
0.0
  0
VERTEX
  5
511
  8
1
  6
CONTINUOUS
 62
     7
 10
-239.7264152521191
 20
281.4979936636302
 30
0.0
  0
VERTEX
  5
512
  8
1
  6
CONTINUOUS
 62
     7
 10
-239.7147566609735
 20
280.9827605095695
 30
0.0
  0
VERTEX
  5
513
  8
1
  6
CONTINUOUS
 62
     7
 10
-239.7030881561028
 20
280.4736719797993
 30
0.0
  0
VERTEX
  5
514
  8
1
  6
CONTINUOUS
 62
     7
 10
-239.6914097117682
 20
279.9713889694731
 30
0.0
  0
VERTEX
  5
515
  8
1
  6
CONTINUOUS
 62
     7
 10
-239.6797213022038
 20
279.4765708685495
 30
0.0
  0
VERTEX
  5
516
  8
1
  6
CONTINUOUS
 62
     7
 10
-239.6680229016435
 20
278.9898770669873
 30
0.0
  0
VERTEX
  5
517
  8
1
  6
CONTINUOUS
 62
     7
 10
-239.6563144843216
 20
278.511966954745
 30
0.0
  0
VERTEX
  5
518
  8
1
  6
CONTINUOUS
 62
     7
 10
-239.6445960244721
 20
278.0434999217813
 30
0.0
  0
VERTEX
  5
519
  8
1
  6
CONTINUOUS
 62
     7
 10
-239.6328674963292
 20
277.585135358055
 30
0.0
  0
VERTEX
  5
51A
  8
1
  6
CONTINUOUS
 62
     7
 10
-239.6211288741269
 20
277.1375326535248
 30
0.0
  0
VERTEX
  5
51B
  8
1
  6
CONTINUOUS
 62
     7
 10
-239.6093801320993
 20
276.7013511981492
 30
0.0
  0
VERTEX
  5
51C
  8
1
  6
CONTINUOUS
 62
     7
 10
-239.5976212444666
 20
276.2772484978677
 30
0.0
  0
VERTEX
  5
51D
  8
1
  6
CONTINUOUS
 62
     7
 10
-239.5858521849607
 20
275.8658167873671
 30
0.0
  0
VERTEX
  5
51E
  8
1
  6
CONTINUOUS
 62
     7
 10
-239.5740729267122
 20
275.467567854233
 30
0.0
  0
VERTEX
  5
51F
  8
1
  6
CONTINUOUS
 62
     7
 10
-239.562283442815
 20
275.0830085252219
 30
0.0
  0
VERTEX
  5
520
  8
1
  6
CONTINUOUS
 62
     7
 10
-239.5504837063625
 20
274.71264562709
 30
0.0
  0
VERTEX
  5
521
  8
1
  6
CONTINUOUS
 62
     7
 10
-239.5386736904484
 20
274.3569859865933
 30
0.0
  0
VERTEX
  5
522
  8
1
  6
CONTINUOUS
 62
     7
 10
-239.5268533681662
 20
274.0165364304882
 30
0.0
  0
VERTEX
  5
523
  8
1
  6
CONTINUOUS
 62
     7
 10
-239.5150227126096
 20
273.691803785531
 30
0.0
  0
VERTEX
  5
524
  8
1
  6
CONTINUOUS
 62
     7
 10
-239.5031816968722
 20
273.3832948784777
 30
0.0
  0
VERTEX
  5
525
  8
1
  6
CONTINUOUS
 62
     7
 10
-239.4913302940475
 20
273.0915165360846
 30
0.0
  0
VERTEX
  5
526
  8
1
  6
CONTINUOUS
 62
     7
 10
-239.47946847721
 20
272.8169719028181
 30
0.0
  0
VERTEX
  5
527
  8
1
  6
CONTINUOUS
 62
     7
 10
-239.4675962188907
 20
272.5600607872643
 30
0.0
  0
VERTEX
  5
528
  8
1
  6
CONTINUOUS
 62
     7
 10
-239.4557134910173
 20
272.3210681028843
 30
0.0
  0
VERTEX
  5
529
  8
1
  6
CONTINUOUS
 62
     7
 10
-239.4438202654856
 20
272.1002727608494
 30
0.0
  0
VERTEX
  5
52A
  8
1
  6
CONTINUOUS
 62
     7
 10
-239.4319165141916
 20
271.8979536723307
 30
0.0
  0
VERTEX
  5
52B
  8
1
  6
CONTINUOUS
 62
     7
 10
-239.4200022090316
 20
271.7143897484996
 30
0.0
  0
VERTEX
  5
52C
  8
1
  6
CONTINUOUS
 62
     7
 10
-239.4080773219012
 20
271.549859900527
 30
0.0
  0
VERTEX
  5
52D
  8
1
  6
CONTINUOUS
 62
     7
 10
-239.3961418246966
 20
271.4046430395842
 30
0.0
  0
VERTEX
  5
52E
  8
1
  6
CONTINUOUS
 62
     7
 10
-239.3841956893137
 20
271.2790180768425
 30
0.0
  0
SEQEND
  5
5C1
  8
1
  6
CONTINUOUS
 62
     7
  0
LINE
  5
12D
  8
1
  6
CONTINUOUS
 62
     7
 10
-239.3091885559584
 20
270.9500329773658
 30
0.0
 11
-239.3223210486811
 21
270.9585895312651
 31
0.0
  0
LINE
  5
12E
  8
1
  6
CONTINUOUS
 62
     7
 10
-239.3223210486811
 20
270.9585895312651
 30
0.0
 11
-239.3391116044097
 21
270.991450234668
 31
0.0
  0
LINE
  5
12F
  8
1
  6
CONTINUOUS
 62
     7
 10
-239.3391116044097
 20
270.991450234668
 30
0.0
 11
-239.3453451229305
 21
271.0098829176117
 31
0.0
  0
LINE
  5
130
  8
1
  6
CONTINUOUS
 62
     7
 10
-239.3453451229305
 20
271.0098829176117
 30
0.0
 11
-239.4045355169487
 21
271.3532737081282
 31
0.0
  0
POLYLINE
  5
131
  8
1
  6
CONTINUOUS
 62
     7
 66
     1
 10
0.0
 20
0.0
 30
0.0
  0
VERTEX
  5
52F
  8
1
  6
CONTINUOUS
 62
     7
 10
-239.3257296582564
 20
270.9543071079701
 30
0.0
  0
VERTEX
  5
530
  8
1
  6
CONTINUOUS
 62
     7
 10
-239.3250408554169
 20
270.9533610719095
 30
0.0
  0
VERTEX
  5
531
  8
1
  6
CONTINUOUS
 62
     7
 10
-239.3243520169871
 20
270.9524818080789
 30
0.0
  0
VERTEX
  5
532
  8
1
  6
CONTINUOUS
 62
     7
 10
-239.3236631429615
 20
270.9516693172685
 30
0.0
  0
VERTEX
  5
533
  8
1
  6
CONTINUOUS
 62
     7
 10
-239.3229742333344
 20
270.9509236002685
 30
0.0
  0
VERTEX
  5
534
  8
1
  6
CONTINUOUS
 62
     7
 10
-239.3222852881004
 20
270.9502446578692
 30
0.0
  0
VERTEX
  5
535
  8
1
  6
CONTINUOUS
 62
     7
 10
-239.3215963072539
 20
270.9496324908607
 30
0.0
  0
VERTEX
  5
536
  8
1
  6
CONTINUOUS
 62
     7
 10
-239.3209072907894
 20
270.9490871000332
 30
0.0
  0
VERTEX
  5
537
  8
1
  6
CONTINUOUS
 62
     7
 10
-239.3202182387014
 20
270.948608486177
 30
0.0
  0
VERTEX
  5
538
  8
1
  6
CONTINUOUS
 62
     7
 10
-239.3195291509842
 20
270.948196650082
 30
0.0
  0
VERTEX
  5
539
  8
1
  6
CONTINUOUS
 62
     7
 10
-239.3188400276323
 20
270.9478515925388
 30
0.0
  0
VERTEX
  5
53A
  8
1
  6
CONTINUOUS
 62
     7
 10
-239.3181508686402
 20
270.9475733143373
 30
0.0
  0
VERTEX
  5
53B
  8
1
  6
CONTINUOUS
 62
     7
 10
-239.3174616740024
 20
270.947361816268
 30
0.0
  0
VERTEX
  5
53C
  8
1
  6
CONTINUOUS
 62
     7
 10
-239.3167724437132
 20
270.9472170991207
 30
0.0
  0
VERTEX
  5
53D
  8
1
  6
CONTINUOUS
 62
     7
 10
-239.3160831777672
 20
270.947139163686
 30
0.0
  0
VERTEX
  5
53E
  8
1
  6
CONTINUOUS
 62
     7
 10
-239.3153938761587
 20
270.9471280107539
 30
0.0
  0
VERTEX
  5
53F
  8
1
  6
CONTINUOUS
 62
     7
 10
-239.3147045388823
 20
270.9471836411145
 30
0.0
  0
VERTEX
  5
540
  8
1
  6
CONTINUOUS
 62
     7
 10
-239.3140151659323
 20
270.9473060555582
 30
0.0
  0
VERTEX
  5
541
  8
1
  6
CONTINUOUS
 62
     7
 10
-239.3133257573033
 20
270.9474952548752
 30
0.0
  0
VERTEX
  5
542
  8
1
  6
CONTINUOUS
 62
     7
 10
-239.3126363129897
 20
270.9477512398554
 30
0.0
  0
VERTEX
  5
543
  8
1
  6
CONTINUOUS
 62
     7
 10
-239.3119468329859
 20
270.9480740112895
 30
0.0
  0
VERTEX
  5
544
  8
1
  6
CONTINUOUS
 62
     7
 10
-239.3112573172864
 20
270.9484635699673
 30
0.0
  0
VERTEX
  5
545
  8
1
  6
CONTINUOUS
 62
     7
 10
-239.3105677658858
 20
270.9489199166792
 30
0.0
  0
VERTEX
  5
546
  8
1
  6
CONTINUOUS
 62
     7
 10
-239.3098781787782
 20
270.9494430522153
 30
0.0
  0
VERTEX
  5
547
  8
1
  6
CONTINUOUS
 62
     7
 10
-239.3091885559584
 20
270.9500329773658
 30
0.0
  0
SEQEND
  5
5C2
  8
1
  6
CONTINUOUS
 62
     7
  0
POLYLINE
  5
132
  8
1
  6
CONTINUOUS
 62
     7
 66
     1
 10
0.0
 20
0.0
 30
0.0
  0
VERTEX
  5
548
  8
1
  6
CONTINUOUS
 62
     7
 10
-238.7086689436497
 20
270.9915394274094
 30
0.0
  0
VERTEX
  5
549
  8
1
  6
CONTINUOUS
 62
     7
 10
-238.7192315143517
 20
271.0368133899642
 30
0.0
  0
VERTEX
  5
54A
  8
1
  6
CONTINUOUS
 62
     7
 10
-238.7297857401534
 20
271.0978296081058
 30
0.0
  0
VERTEX
  5
54B
  8
1
  6
CONTINUOUS
 62
     7
 10
-238.7403316411363
 20
271.1745816253573
 30
0.0
  0
VERTEX
  5
54C
  8
1
  6
CONTINUOUS
 62
     7
 10
-238.7508692369762
 20
271.2669747637807
 30
0.0
  0
VERTEX
  5
54D
  8
1
  6
CONTINUOUS
 62
     7
 10
-238.761398546926
 20
271.3748224148912
 30
0.0
  0
VERTEX
  5
54E
  8
1
  6
CONTINUOUS
 62
     7
 10
-238.7719195902196
 20
271.4979336705291
 30
0.0
  0
VERTEX
  5
54F
  8
1
  6
CONTINUOUS
 62
     7
 10
-238.7824323860901
 20
271.636117622534
 30
0.0
  0
VERTEX
  5
550
  8
1
  6
CONTINUOUS
 62
     7
 10
-238.7929369537712
 20
271.7891833627459
 30
0.0
  0
VERTEX
  5
551
  8
1
  6
CONTINUOUS
 62
     7
 10
-238.8034333124961
 20
271.9569399830046
 30
0.0
  0
VERTEX
  5
552
  8
1
  6
CONTINUOUS
 62
     7
 10
-238.8139214814984
 20
272.1391965751502
 30
0.0
  0
VERTEX
  5
553
  8
1
  6
CONTINUOUS
 62
     7
 10
-238.8244014800115
 20
272.3357622310225
 30
0.0
  0
VERTEX
  5
554
  8
1
  6
CONTINUOUS
 62
     7
 10
-238.8348733272689
 20
272.5464460424613
 30
0.0
  0
VERTEX
  5
555
  8
1
  6
CONTINUOUS
 62
     7
 10
-238.8453370425039
 20
272.7710571013067
 30
0.0
  0
VERTEX
  5
556
  8
1
  6
CONTINUOUS
 62
     7
 10
-238.8557926449471
 20
273.009403930304
 30
0.0
  0
VERTEX
  5
557
  8
1
  6
CONTINUOUS
 62
     7
 10
-238.8662401535546
 20
273.2612428454013
 30
0.0
  0
VERTEX
  5
558
  8
1
  6
CONTINUOUS
 62
     7
 10
-238.8766795867913
 20
273.5262366810165
 30
0.0
  0
VERTEX
  5
559
  8
1
  6
CONTINUOUS
 62
     7
 10
-238.887110963071
 20
273.8040385587154
 30
0.0
  0
VERTEX
  5
55A
  8
1
  6
CONTINUOUS
 62
     7
 10
-238.8975343008078
 20
274.0943016000637
 30
0.0
  0
VERTEX
  5
55B
  8
1
  6
CONTINUOUS
 62
     7
 10
-238.9079496184154
 20
274.3966789266271
 30
0.0
  0
VERTEX
  5
55C
  8
1
  6
CONTINUOUS
 62
     7
 10
-238.9183569343079
 20
274.7108236599715
 30
0.0
  0
VERTEX
  5
55D
  8
1
  6
CONTINUOUS
 62
     7
 10
-238.9287562668989
 20
275.0363889216628
 30
0.0
  0
VERTEX
  5
55E
  8
1
  6
CONTINUOUS
 62
     7
 10
-238.9391476346023
 20
275.3730278332666
 30
0.0
  0
VERTEX
  5
55F
  8
1
  6
CONTINUOUS
 62
     7
 10
-238.9495310558324
 20
275.7203935163488
 30
0.0
  0
VERTEX
  5
560
  8
1
  6
CONTINUOUS
 62
     7
 10
-238.9599065490026
 20
276.0781390924751
 30
0.0
  0
VERTEX
  5
561
  8
1
  6
CONTINUOUS
 62
     7
 10
-238.970274132527
 20
276.4459176832115
 30
0.0
  0
VERTEX
  5
562
  8
1
  6
CONTINUOUS
 62
     7
 10
-238.9806338246982
 20
276.8233661757546
 30
0.0
  0
VERTEX
  5
563
  8
1
  6
CONTINUOUS
 62
     7
 10
-238.9909856432887
 20
277.2100519100254
 30
0.0
  0
VERTEX
  5
564
  8
1
  6
CONTINUOUS
 62
     7
 10
-239.001329605932
 20
277.6055236060259
 30
0.0
  0
VERTEX
  5
565
  8
1
  6
CONTINUOUS
 62
     7
 10
-239.0116657302614
 20
278.0093299835502
 30
0.0
  0
VERTEX
  5
566
  8
1
  6
CONTINUOUS
 62
     7
 10
-239.0219940339103
 20
278.4210197623926
 30
0.0
  0
VERTEX
  5
567
  8
1
  6
CONTINUOUS
 62
     7
 10
-239.0323145345124
 20
278.8401416623475
 30
0.0
  0
VERTEX
  5
568
  8
1
  6
CONTINUOUS
 62
     7
 10
-239.0426272497008
 20
279.2662444032092
 30
0.0
  0
VERTEX
  5
569
  8
1
  6
CONTINUOUS
 62
     7
 10
-239.0529321971091
 20
279.6988767047717
 30
0.0
  0
VERTEX
  5
56A
  8
1
  6
CONTINUOUS
 62
     7
 10
-239.0632293943707
 20
280.1375872868294
 30
0.0
  0
VERTEX
  5
56B
  8
1
  6
CONTINUOUS
 62
     7
 10
-239.0735188591189
 20
280.5819248691767
 30
0.0
  0
VERTEX
  5
56C
  8
1
  6
CONTINUOUS
 62
     7
 10
-239.0838006089873
 20
281.0314381716078
 30
0.0
  0
VERTEX
  5
56D
  8
1
  6
CONTINUOUS
 62
     7
 10
-239.0940746615858
 20
281.4856746102569
 30
0.0
  0
VERTEX
  5
56E
  8
1
  6
CONTINUOUS
 62
     7
 10
-239.1043410341408
 20
281.944160148955
 30
0.0
  0
VERTEX
  5
56F
  8
1
  6
CONTINUOUS
 62
     7
 10
-239.1145997435643
 20
282.4064031821427
 30
0.0
  0
VERTEX
  5
570
  8
1
  6
CONTINUOUS
 62
     7
 10
-239.1248508067591
 20
282.8719115869017
 30
0.0
  0
VERTEX
  5
571
  8
1
  6
CONTINUOUS
 62
     7
 10
-239.1350942406279
 20
283.3401932403136
 30
0.0
  0
VERTEX
  5
572
  8
1
  6
CONTINUOUS
 62
     7
 10
-239.1453300620734
 20
283.8107560194603
 30
0.0
  0
VERTEX
  5
573
  8
1
  6
CONTINUOUS
 62
     7
 10
-239.1555582879984
 20
284.2831078014236
 30
0.0
  0
VERTEX
  5
574
  8
1
  6
CONTINUOUS
 62
     7
 10
-239.1657789353056
 20
284.7567564632852
 30
0.0
  0
VERTEX
  5
575
  8
1
  6
CONTINUOUS
 62
     7
 10
-239.1759920208977
 20
285.2312098821271
 30
0.0
  0
VERTEX
  5
576
  8
1
  6
CONTINUOUS
 62
     7
 10
-239.1861975616775
 20
285.7059759350308
 30
0.0
  0
VERTEX
  5
577
  8
1
  6
CONTINUOUS
 62
     7
 10
-239.1963955745477
 20
286.1805624990783
 30
0.0
  0
VERTEX
  5
578
  8
1
  6
CONTINUOUS
 62
     7
 10
-239.2065860764111
 20
286.6544774533702
 30
0.0
  0
VERTEX
  5
579
  8
1
  6
CONTINUOUS
 62
     7
 10
-239.2167690840176
 20
287.127234085855
 30
0.0
  0
VERTEX
  5
57A
  8
1
  6
CONTINUOUS
 62
     7
 10
-239.2269446136322
 20
287.5983628526657
 30
0.0
  0
VERTEX
  5
57B
  8
1
  6
CONTINUOUS
 62
     7
 10
-239.237112681424
 20
288.06739760839
 30
0.0
  0
VERTEX
  5
57C
  8
1
  6
CONTINUOUS
 62
     7
 10
-239.2472733035623
 20
288.5338722076161
 30
0.0
  0
VERTEX
  5
57D
  8
1
  6
CONTINUOUS
 62
     7
 10
-239.2574264962161
 20
288.9973205049318
 30
0.0
  0
VERTEX
  5
57E
  8
1
  6
CONTINUOUS
 62
     7
 10
-239.2675722755547
 20
289.4572763549248
 30
0.0
  0
VERTEX
  5
57F
  8
1
  6
CONTINUOUS
 62
     7
 10
-239.277710657747
 20
289.9132736121831
 30
0.0
  0
VERTEX
  5
580
  8
1
  6
CONTINUOUS
 62
     7
 10
-239.2878416589623
 20
290.3648461312945
 30
0.0
  0
VERTEX
  5
581
  8
1
  6
CONTINUOUS
 62
     7
 10
-239.2979652953697
 20
290.811527766847
 30
0.0
  0
VERTEX
  5
582
  8
1
  6
CONTINUOUS
 62
     7
 10
-239.3080815831384
 20
291.2528523734283
 30
0.0
  0
VERTEX
  5
583
  8
1
  6
CONTINUOUS
 62
     7
 10
-239.3181905384373
 20
291.6883538056264
 30
0.0
  0
VERTEX
  5
584
  8
1
  6
CONTINUOUS
 62
     7
 10
-239.3282921774253
 20
292.1175675252419
 30
0.0
  0
VERTEX
  5
585
  8
1
  6
CONTINUOUS
 62
     7
 10
-239.3383865159957
 20
292.5400695698615
 30
0.0
  0
VERTEX
  5
586
  8
1
  6
CONTINUOUS
 62
     7
 10
-239.3484735697632
 20
292.9554786658438
 30
0.0
  0
VERTEX
  5
587
  8
1
  6
CONTINUOUS
 62
     7
 10
-239.358553354329
 20
293.363415569698
 30
0.0
  0
VERTEX
  5
588
  8
1
  6
CONTINUOUS
 62
     7
 10
-239.3686258852944
 20
293.7635010379337
 30
0.0
  0
VERTEX
  5
589
  8
1
  6
CONTINUOUS
 62
     7
 10
-239.3786911782608
 20
294.1553558270602
 30
0.0
  0
VERTEX
  5
58A
  8
1
  6
CONTINUOUS
 62
     7
 10
-239.3887492488294
 20
294.5386006935871
 30
0.0
  0
VERTEX
  5
58B
  8
1
  6
CONTINUOUS
 62
     7
 10
-239.3988001126015
 20
294.9128563940238
 30
0.0
  0
VERTEX
  5
58C
  8
1
  6
CONTINUOUS
 62
     7
 10
-239.4088437851786
 20
295.2777436848798
 30
0.0
  0
VERTEX
  5
58D
  8
1
  6
CONTINUOUS
 62
     7
 10
-239.4188802821616
 20
295.6328833226643
 30
0.0
  0
VERTEX
  5
58E
  8
1
  6
CONTINUOUS
 62
     7
 10
-239.4289096191522
 20
295.977896063887
 30
0.0
  0
VERTEX
  5
58F
  8
1
  6
CONTINUOUS
 62
     7
 10
-239.4389318117514
 20
296.3124026650573
 30
0.0
  0
VERTEX
  5
590
  8
1
  6
CONTINUOUS
 62
     7
 10
-239.4489468754876
 20
296.6360347423436
 30
0.0
  0
VERTEX
  5
591
  8
1
  6
CONTINUOUS
 62
     7
 10
-239.4589548253225
 20
296.9485080427192
 30
0.0
  0
VERTEX
  5
592
  8
1
  6
CONTINUOUS
 62
     7
 10
-239.4689556759537
 20
297.2495775907503
 30
0.0
  0
VERTEX
  5
593
  8
1
  6
CONTINUOUS
 62
     7
 10
-239.4789494420771
 20
297.5389986325177
 30
0.0
  0
VERTEX
  5
594
  8
1
  6
CONTINUOUS
 62
     7
 10
-239.4889361383887
 20
297.8165264141032
 30
0.0
  0
VERTEX
  5
595
  8
1
  6
CONTINUOUS
 62
     7
 10
-239.4989157795844
 20
298.0819161815876
 30
0.0
  0
VERTEX
  5
596
  8
1
  6
CONTINUOUS
 62
     7
 10
-239.5088883803603
 20
298.3349231810526
 30
0.0
  0
VERTEX
  5
597
  8
1
  6
CONTINUOUS
 62
     7
 10
-239.5188539554123
 20
298.5753026585793
 30
0.0
  0
VERTEX
  5
598
  8
1
  6
CONTINUOUS
 62
     7
 10
-239.5288125194363
 20
298.8028098602489
 30
0.0
  0
VERTEX
  5
599
  8
1
  6
CONTINUOUS
 62
     7
 10
-239.5387640871285
 20
299.017200032143
 30
0.0
  0
VERTEX
  5
59A
  8
1
  6
CONTINUOUS
 62
     7
 10
-239.5487086731847
 20
299.2182284203427
 30
0.0
  0
VERTEX
  5
59B
  8
1
  6
CONTINUOUS
 62
     7
 10
-239.5586462923009
 20
299.4056502709292
 30
0.0
  0
VERTEX
  5
59C
  8
1
  6
CONTINUOUS
 62
     7
 10
-239.5685769591625
 20
299.5792472204153
 30
0.0
  0
VERTEX
  5
59D
  8
1
  6
CONTINUOUS
 62
     7
 10
-239.5785006884117
 20
299.738908989694
 30
0.0
  0
VERTEX
  5
59E
  8
1
  6
CONTINUOUS
 62
     7
 10
-239.5884174946793
 20
299.8845529664165
 30
0.0
  0
VERTEX
  5
59F
  8
1
  6
CONTINUOUS
 62
     7
 10
-239.5983273925966
 20
300.0160965382466
 30
0.0
  0
VERTEX
  5
5A0
  8
1
  6
CONTINUOUS
 62
     7
 10
-239.6082303967945
 20
300.1334570928486
 30
0.0
  0
SEQEND
  5
5C3
  8
1
  6
CONTINUOUS
 62
     7
  0
LINE
  5
133
  8
1
  6
CONTINUOUS
 62
     7
 10
-238.6771133851421
 20
270.9500328109501
 30
0.0
 11
-238.7086689436497
 21
270.9915394274093
 31
0.0
  0
LINE
  5
134
  8
1
  6
CONTINUOUS
 62
     7
 10
-238.6771133851422
 20
270.9500328109502
 30
0.0
 11
-239.3091885559584
 21
270.9500329773658
 31
0.0
  0
LINE
  5
135
  8
1
  6
CONTINUOUS
 62
     7
 10
-239.6082303967944
 20
300.1334570928485
 30
0.0
 11
-239.6763673761318
 21
300.5499999999999
 31
0.0
  0
ARC
  5
136
  8
1
  6
CONTINUOUS
 62
     7
 10
5419.555381362971
 20
421.4475326545897
 30
0.0
 40
5660.233604903832
 50
181.237357345883
 51
181.523592220072
  0
LINE
  5
137
  8
1
  6
CONTINUOUS
 62
     7
 10
-239.4084181837006
 20
299.55
 30
0.0
 11
-239.3583494681708
 21
299.2188572407932
 31
0.0
  0
LINE
  5
138
  8
1
  6
CONTINUOUS
 62
     7
 10
-240.4084178726463
 20
270.9500000000057
 30
0.0
 11
-240.4196541393985
 21
270.9589080508118
 31
0.0
  0
LINE
  5
139
  8
1
  6
CONTINUOUS
 62
     7
 10
-242.408418403297
 20
270.9500000000043
 30
0.0
 11
-242.4421260488704
 21
271.0301056313147
 31
0.0
  0
LINE
  5
13A
  8
1
  6
CONTINUOUS
 62
     7
 10
-244.4084181583797
 20
270.95
 30
0.0
 11
-244.4645979589827
 21
271.1721460112946
 31
0.0
  0
LINE
  5
13B
  8
1
  6
CONTINUOUS
 62
     7
 10
-246.4084179134728
 20
270.9500000000043
 30
0.0
 11
-246.4870698690951
 21
271.3843215517094
 31
0.0
  0
LINE
  5
13C
  8
1
  6
CONTINUOUS
 62
     7
 10
-246.5763677280023
 20
299.5499999999925
 30
0.0
 11
-246.531423555906
 21
299.4076935402849
 31
0.0
  0
LINE
  5
13D
  8
1
  6
CONTINUOUS
 62
     7
 10
-244.5763670748975
 20
299.5499999999925
 30
0.0
 11
-244.5089516457936
 21
299.2304751840857
 31
0.0
  0
LINE
  5
13E
  8
1
  6
CONTINUOUS
 62
     7
 10
-242.5763675647303
 20
299.5499999999981
 30
0.0
 11
-242.4864797356813
 21
298.9836068037592
 31
0.0
  0
LINE
  5
13F
  8
1
  6
CONTINUOUS
 62
     7
 10
-262.9357706609443
 20
267.25
 30
0.0
 11
-260.9660847954466
 21
267.25
 31
0.0
  0
ARC
  5
140
  8
1
  6
CONTINUOUS
 62
     7
 10
-264.4648224603174
 20
285.25
 30
0.0
 40
4.300135491771847
 50
324.4525460253795
 51
35.54745397462209
  0
ARC
  5
141
  8
1
  6
CONTINUOUS
 62
     7
 10
-251.2258653466013
 20
276.2500000000001
 30
0.0
 40
11.70990499157166
 50
146.2833869731009
 51
213.7166130268987
  0
POLYLINE
  5
142
  8
1
  6
CONTINUOUS
 62
     7
 66
     1
 10
0.0
 20
0.0
 30
0.0
  0
VERTEX
  5
5A1
  8
1
  6
CONTINUOUS
 62
     7
 10
-260.9660847954466
 20
267.25
 30
0.0
  0
VERTEX
  5
5A2
  8
1
  6
CONTINUOUS
 62
     7
 10
-260.8099092184771
 20
267.2580344893931
 30
0.0
  0
VERTEX
  5
5A3
  8
1
  6
CONTINUOUS
 62
     7
 10
-260.6181444164356
 20
267.2955968735388
 30
0.0
  0
VERTEX
  5
5A4
  8
1
  6
CONTINUOUS
 62
     7
 10
-260.4710983676696
 20
267.3558424366444
 30
0.0
  0
VERTEX
  5
5A5
  8
1
  6
CONTINUOUS
 62
     7
 10
-260.3647775581339
 20
267.4286402972375
 30
0.0
  0
VERTEX
  5
5A6
  8
1
  6
CONTINUOUS
 62
     7
 10
-260.2793375265015
 20
267.5211680492845
 30
0.0
  0
VERTEX
  5
5A7
  8
1
  6
CONTINUOUS
 62
     7
 10
-260.2153298452228
 20
267.636581798538
 30
0.0
  0
VERTEX
  5
5A8
  8
1
  6
CONTINUOUS
 62
     7
 10
-260.1761579610626
 20
267.7761238985946
 30
0.0
  0
VERTEX
  5
5A9
  8
1
  6
CONTINUOUS
 62
     7
 10
-260.1646997751824
 20
267.9234203387049
 30
0.0
  0
VERTEX
  5
5AA
  8
1
  6
CONTINUOUS
 62
     7
 10
-260.1750722036098
 20
268.071476157792
 30
0.0
  0
SEQEND
  5
5C4
  8
1
  6
CONTINUOUS
 62
     7
  0
ARC
  5
143
  8
1
  6
CONTINUOUS
 62
     7
 10
-264.7916580016952
 20
266.9215336640451
 30
0.0
 40
4.757649857861453
 50
13.9871273675624
 51
36.47764786725796
  0
LINE
  5
144
  8
1
  6
CONTINUOUS
 62
     7
 10
-260.9660847954451
 20
303.25
 30
0.0
 11
-262.9357706612095
 21
303.25
 31
0.0
  0
ARC
  5
145
  8
1
  6
CONTINUOUS
 62
     7
 10
-264.1364623599347
 20
303.2275367670204
 30
0.0
 40
4.023615579719102
 50
321.9936449409746
 51
350.7916075417891
  0
POLYLINE
  5
146
  8
1
  6
CONTINUOUS
 62
     7
 66
     1
 10
0.0
 20
0.0
 30
0.0
  0
VERTEX
  5
5AB
  8
1
  6
CONTINUOUS
 62
     7
 10
-260.1646997751825
 20
302.5836545544063
 30
0.0
  0
VERTEX
  5
5AC
  8
1
  6
CONTINUOUS
 62
     7
 10
-260.1750722036098
 20
302.7172766130423
 30
0.0
  0
VERTEX
  5
5AD
  8
1
  6
CONTINUOUS
 62
     7
 10
-260.2056488963877
 20
302.8381592378708
 30
0.0
  0
VERTEX
  5
5AE
  8
1
  6
CONTINUOUS
 62
     7
 10
-260.2566241878532
 20
302.9448745673601
 30
0.0
  0
VERTEX
  5
5AF
  8
1
  6
CONTINUOUS
 62
     7
 10
-260.3309093873585
 20
303.03972010575
 30
0.0
  0
VERTEX
  5
5B0
  8
1
  6
CONTINUOUS
 62
     7
 10
-260.4304266153918
 20
303.120133647399
 30
0.0
  0
VERTEX
  5
5B1
  8
1
  6
CONTINUOUS
 62
     7
 10
-260.550568727652
 20
303.1810952678543
 30
0.0
  0
VERTEX
  5
5B2
  8
1
  6
CONTINUOUS
 62
     7
 10
-260.6893595951673
 20
303.2226847117439
 30
0.0
  0
VERTEX
  5
5B3
  8
1
  6
CONTINUOUS
 62
     7
 10
-260.8630174232125
 20
303.2466078850463
 30
0.0
  0
VERTEX
  5
5B4
  8
1
  6
CONTINUOUS
 62
     7
 10
-260.9660847954451
 20
303.25
 30
0.0
  0
SEQEND
  5
5C5
  8
1
  6
CONTINUOUS
 62
     7
  0
ARC
  5
147
  8
1
  6
CONTINUOUS
 62
     7
 10
-251.2255460657112
 20
294.25
 30
0.0
 40
11.71017056858893
 50
146.2842541193093
 51
213.7157458807048
  0
LINE
  5
148
  8
1
  6
CONTINUOUS
 62
     9
 10
-260.9660847954451
 20
287.75
 30
0.0
 11
-247.8923927799163
 21
287.75
 31
0.0
  0
LINE
  5
149
  8
1
  6
CONTINUOUS
 62
     9
 10
-247.8923927799163
 20
300.7499999999999
 30
0.0
 11
-260.9660847954467
 21
300.7499999999976
 31
0.0
  0
LINE
  5
14A
  8
1
  6
CONTINUOUS
 62
     7
 10
-247.8923927799163
 20
300.7499999999999
 30
0.0
 11
-247.8923927799163
 21
287.75
 31
0.0
  0
LINE
  5
14B
  8
1
  6
CONTINUOUS
 62
     9
 10
-260.9660847954451
 20
269.7500000000001
 30
0.0
 11
-247.8923927799163
 21
269.75
 31
0.0
  0
LINE
  5
14C
  8
1
  6
CONTINUOUS
 62
     9
 10
-247.8923927799163
 20
282.75
 30
0.0
 11
-260.966084795445
 21
282.7500000000001
 31
0.0
  0
LINE
  5
14D
  8
1
  6
CONTINUOUS
 62
     7
 10
-247.8923927799163
 20
282.75
 30
0.0
 11
-247.8923927799163
 21
269.75
 31
0.0
  0
LINE
  5
14E
  8
1
  6
CONTINUOUS
 62
     7
 10
-247.8923927799163
 20
287.75
 30
0.0
 11
-247.8923927799163
 21
282.75
 31
0.0
  0
LINE
  5
14F
  8
1
  6
CONTINUOUS
 62
     7
 10
-247.8923927799163
 20
267.25
 30
0.0
 11
-260.9660847954466
 21
267.25
 31
0.0
  0
LINE
  5
150
  8
1
  6
CONTINUOUS
 62
     7
 10
-247.8923927799163
 20
269.75
 30
0.0
 11
-247.8923927799163
 21
267.25
 31
0.0
  0
LINE
  5
151
  8
1
  6
CONTINUOUS
 62
     7
 10
-260.9660847954451
 20
303.25
 30
0.0
 11
-247.8923927799163
 21
303.25
 31
0.0
  0
LINE
  5
152
  8
1
  6
CONTINUOUS
 62
     7
 10
-247.8923927799163
 20
303.2499999999999
 30
0.0
 11
-247.8923927799163
 21
300.7499999999999
 31
0.0
  0
LINE
  5
153
  8
1
  6
CONTINUOUS
 62
     7
 10
-267.8923927799163
 20
273.8640571218791
 30
0.0
 11
-267.8923927799163
 21
285.25
 31
0.0
  0
LINE
  5
154
  8
1
  6
CONTINUOUS
 62
     7
 10
-267.8923927799163
 20
285.25
 30
0.0
 11
-267.8923927799163
 21
296.6359428781209
 31
0.0
  0
ARC
  5
155
  8
1
  6
CONTINUOUS
 62
     7
 10
-216.4423927799162
 20
266.85
 30
0.0
 40
1.250000000000029
 50
180.0000000000003
 51
270.0000000000007
  0
ARC
  5
156
  8
1
  6
CONTINUOUS
 62
     7
 10
-198.9423927799163
 20
303.65
 30
0.0
 40
1.250000000000001
 50
0.0
 51
90.0
  0
ARC
  5
157
  8
1
  6
CONTINUOUS
 62
     7
 10
-198.9423927799163
 20
266.85
 30
0.0
 40
1.250000000000029
 50
270.0
 51
0.0
  0
LINE
  5
158
  8
1
  6
CONTINUOUS
 62
     7
 10
-216.4423927799162
 20
265.6
 30
0.0
 11
-198.9423927799163
 21
265.6
 31
0.0
  0
ARC
  5
159
  8
1
  6
CONTINUOUS
 62
     7
 10
-216.4423927799162
 20
303.65
 30
0.0
 40
1.250000000000029
 50
89.99999999999936
 51
179.9999999999996
  0
LINE
  5
15A
  8
1
  6
CONTINUOUS
 62
     7
 10
-198.9423927799163
 20
304.9
 30
0.0
 11
-216.4423927799162
 21
304.9
 31
0.0
  0
ARC
  5
15B
  8
1
  6
CONTINUOUS
 62
     7
 10
-236.6307147335532
 20
302.7
 30
0.0
 40
0.5000000000000004
 50
90.0
 51
164.9999999999997
  0
ARC
  5
15C
  8
1
  6
CONTINUOUS
 62
     7
 10
-236.6307147335532
 20
267.8
 30
0.0
 40
0.4999999999999986
 50
195.0000000000003
 51
270.0
  0
LINE
  5
15D
  8
1
  6
CONTINUOUS
 62
     7
 10
-236.6307147335532
 20
267.3
 30
0.0
 11
-217.6923927799163
 21
267.3
 31
0.0
  0
LINE
  5
15E
  8
1
  6
CONTINUOUS
 62
     7
 10
-217.6923927799163
 20
303.2
 30
0.0
 11
-236.6307147335532
 21
303.2
 31
0.0
  0
LINE
  5
15F
  8
1
  6
CONTINUOUS
 62
     7
 10
-237.1136776466977
 20
302.8294095225513
 30
0.0
 11
-237.9923927799163
 21
299.55
 31
0.0
  0
LINE
  5
160
  8
1
  6
CONTINUOUS
 62
     7
 10
-237.9923927799163
 20
270.95
 30
0.0
 11
-237.1136776466977
 21
267.6705904774487
 31
0.0
  0
LINE
  5
161
  8
1
  6
CONTINUOUS
 62
     7
 10
-247.308458796036
 20
269.9504502133035
 30
0.0
 11
-246.6764079629201
 21
269.9504502129133
 31
0.0
  0
LINE
  5
162
  8
1
  6
CONTINUOUS
 62
     7
 10
-245.3084181965201
 20
269.9506380544491
 30
0.0
 11
-244.6763673633124
 21
269.9506380544491
 31
0.0
  0
LINE
  5
163
  8
1
  6
CONTINUOUS
 62
     7
 10
-243.3083775969124
 20
269.9504502129133
 30
0.0
 11
-242.6763267637965
 21
269.9504502133035
 31
0.0
  0
LINE
  5
164
  8
1
  6
CONTINUOUS
 62
     7
 10
-241.308329327579
 20
269.9500838972705
 30
0.0
 11
-240.6762784943481
 21
269.950083897607
 31
0.0
  0
LINE
  5
165
  8
1
  6
CONTINUOUS
 62
     7
 10
-241.6762624744942
 20
300.5497369748668
 30
0.0
 11
-242.3083133075943
 21
300.549736975311
 31
0.0
  0
LINE
  5
166
  8
1
  6
CONTINUOUS
 62
     7
 10
-243.6763572519518
 20
300.5494121140351
 30
0.0
 11
-244.3084080851363
 21
300.5494121142593
 31
0.0
  0
LINE
  5
167
  8
1
  6
CONTINUOUS
 62
     7
 10
-245.6763774746962
 20
300.5494121142593
 30
0.0
 11
-246.3084283078807
 21
300.5494121140351
 31
0.0
  0
LINE
  5
168
  8
1
  6
CONTINUOUS
 62
     7
 10
-247.6764722522382
 20
300.549736975311
 30
0.0
 11
-247.8923927799163
 21
300.5497369751593
 31
0.0
  0
LINE
  5
169
  8
1
  6
CONTINUOUS
 62
     7
 10
-247.6027532106432
 20
270.9996914868746
 30
0.0
 11
-247.3330733616264
 21
269.9965081213772
 31
0.0
  0
LINE
  5
16A
  8
1
  6
CONTINUOUS
 62
     7
 10
-245.6028478190205
 20
270.9998184761497
 30
0.0
 11
-245.3331885515437
 21
269.9967199732995
 31
0.0
  0
LINE
  5
16B
  8
1
  6
CONTINUOUS
 62
     7
 10
-243.6025140124102
 20
270.9982556525511
 30
0.0
 11
-243.3328473503852
 21
269.9950973455635
 31
0.0
  0
LINE
  5
16C
  8
1
  6
CONTINUOUS
 62
     7
 10
-241.6028209873514
 20
270.9994797234884
 30
0.0
 11
-241.3331385675626
 21
269.9962251013059
 31
0.0
  0
LINE
  5
16D
  8
1
  6
CONTINUOUS
 62
     7
 10
-240.3676747267549
 20
300.3288459098889
 30
0.0
 11
-240.5783648804647
 21
299.5499804324641
 31
0.0
  0
LINE
  5
16E
  8
1
  6
CONTINUOUS
 62
     7
 10
-242.3329458092288
 20
300.5045973077503
 30
0.0
 11
-242.5895500604916
 21
299.5499950066985
 31
0.0
  0
LINE
  5
16F
  8
1
  6
CONTINUOUS
 62
     7
 10
-244.332995011276
 20
300.5041894184392
 30
0.0
 11
-244.589501630225
 21
299.5499950178136
 31
0.0
  0
LINE
  5
170
  8
1
  6
CONTINUOUS
 62
     7
 10
-246.3331738273652
 20
300.5031844827603
 30
0.0
 11
-246.5894136458076
 21
299.5499947800242
 31
0.0
  0
LINE
  5
171
  8
1
  6
CONTINUOUS
 62
     7
 10
-246.6519382094472
 20
269.9950973455635
 30
0.0
 11
-246.3952448826541
 21
270.9500048872414
 31
0.0
  0
LINE
  5
172
  8
1
  6
CONTINUOUS
 62
     7
 10
-244.6515970082888
 20
269.9967199732995
 30
0.0
 11
-244.3953317117287
 21
270.9500051761504
 31
0.0
  0
LINE
  5
173
  8
1
  6
CONTINUOUS
 62
     7
 10
-242.651712198206
 20
269.9965081213772
 30
0.0
 11
-242.3953920710688
 21
270.9500051824492
 31
0.0
  0
LINE
  5
174
  8
1
  6
CONTINUOUS
 62
     7
 10
-240.6516612252703
 20
269.9965394284492
 30
0.0
 11
-240.395358597014
 21
270.9500052031129
 31
0.0
  0
LINE
  5
175
  8
1
  6
CONTINUOUS
 62
     7
 10
-241.3821024026216
 20
299.500586614539
 30
0.0
 11
-241.651770302201
 21
300.5037420951869
 31
0.0
  0
LINE
  5
176
  8
1
  6
CONTINUOUS
 62
     7
 10
-243.3819348335744
 20
299.5000212474499
 30
0.0
 11
-243.6516117324673
 21
300.5031844827603
 31
0.0
  0
LINE
  5
177
  8
1
  6
CONTINUOUS
 62
     7
 10
-245.3821559394659
 20
299.5011701166517
 30
0.0
 11
-245.6517905485566
 21
300.5041894184392
 31
0.0
  0
LINE
  5
178
  8
1
  6
CONTINUOUS
 62
     7
 10
-247.3821565033981
 20
299.5013500791821
 30
0.0
 11
-247.6518397506037
 21
300.5045973077503
 31
0.0
  0
LINE
  5
179
  8
1
  6
CONTINUOUS
 62
     7
 10
-239.4051111140455
 20
271.3553922117913
 30
0.0
 11
-239.3841927360519
 21
271.2789894785424
 31
0.0
  0
LINE
  5
17A
  8
1
  6
CONTINUOUS
 62
     7
 10
-239.340716713779
 20
270.9914525756062
 30
0.0
 11
-238.7086567680836
 21
270.991496341477
 31
0.0
  0
LINE
  5
17B
  8
1
  6
CONTINUOUS
 62
     7
 10
-239.3579633367602
 20
299.2174342657154
 30
0.0
 11
-239.6082349311864
 21
300.1335075863414
 31
0.0
  0
LINE
  5
17C
  8
1
  6
CONTINUOUS
 62
     7
 10
-238.6766151375926
 20
270.95
 30
0.0
 11
-237.9923927799163
 21
270.95
 31
0.0
  0
LINE
  5
17D
  8
1
  6
CONTINUOUS
 62
     7
 10
-239.3083211357011
 20
270.95
 30
0.0
 11
-238.6766151375926
 21
270.95
 31
0.0
  0
LINE
  5
17E
  8
1
  6
CONTINUOUS
 62
     7
 10
-240.4084178726463
 20
270.95
 30
0.0
 11
-239.3489580406898
 21
270.95
 31
0.0
  0
LINE
  5
17F
  8
1
  6
CONTINUOUS
 62
     7
 10
-239.3489580406898
 20
270.95
 30
0.0
 11
-239.3083211357011
 21
270.95
 31
0.0
  0
LINE
  5
180
  8
1
  6
CONTINUOUS
 62
     7
 10
-242.408418403297
 20
270.95
 30
0.0
 11
-241.5895190093694
 21
270.95
 31
0.0
  0
LINE
  5
181
  8
1
  6
CONTINUOUS
 62
     7
 10
-244.4084181583797
 20
270.95
 30
0.0
 11
-243.5895406771784
 21
270.95
 31
0.0
  0
LINE
  5
182
  8
1
  6
CONTINUOUS
 62
     7
 10
-246.4084179134728
 20
270.95
 30
0.0
 11
-245.5894538481039
 21
270.95
 31
0.0
  0
LINE
  5
183
  8
1
  6
CONTINUOUS
 62
     7
 10
-247.8923927799163
 20
270.95
 30
0.0
 11
-247.5893934887637
 21
270.95
 31
0.0
  0
LINE
  5
184
  8
1
  6
CONTINUOUS
 62
     7
 10
-246.5763677280023
 20
299.55
 30
0.0
 11
-247.395235499341
 21
299.55
 31
0.0
  0
LINE
  5
185
  8
1
  6
CONTINUOUS
 62
     7
 10
-244.5763670748975
 20
299.55
 30
0.0
 11
-245.3952839296075
 21
299.55
 31
0.0
  0
LINE
  5
186
  8
1
  6
CONTINUOUS
 62
     7
 10
-242.5763675647303
 20
299.55
 30
0.0
 11
-243.395371914025
 21
299.55
 31
0.0
  0
LINE
  5
187
  8
1
  6
CONTINUOUS
 62
     7
 10
-240.5763673761318
 20
299.55
 30
0.0
 11
-241.3953871354602
 21
299.55
 31
0.0
  0
LINE
  5
188
  8
1
  6
CONTINUOUS
 62
     7
 10
-237.9923927799163
 20
299.55
 30
0.0
 11
-239.4084181837007
 21
299.55
 31
0.0
  0
ARC
  5
189
  8
1
  6
CONTINUOUS
 62
     7
 10
-249.8460706379221
 20
282.3714997040753
 30
0.0
 40
19.99999999999998
 50
205.8667133919065
 51
229.1193520989769
  0
ARC
  5
18A
  8
1
  6
CONTINUOUS
 62
     7
 10
-249.8460706379221
 20
288.1285002959247
 30
0.0
 40
19.99999999999996
 50
130.8806479010229
 51
154.1332866080935
  0
ARC
  5
18B
  8
1
  6
CONTINUOUS
 62
     7
 10
-267.3923927799162
 20
273.8640571218791
 30
0.0
 40
0.500000000000056
 50
180.0
 51
205.8667133919064
  0
ARC
  5
18C
  8
1
  6
CONTINUOUS
 62
     7
 10
-267.3923927799162
 20
296.6359428781209
 30
0.0
 40
0.5000000000000204
 50
154.1332866080936
 51
180.0
  0
ENDBLK
  8
0
  0
ENDSEC
  0
SECTION
  2
ENTITIES
  0
INSERT
  5
A8
  8
1
  6
CONTINUOUS
 62
     7
  2
D_FRAME_VIEW_3477
 10
0.0
 20
0.0
 30
0.0
  0
TEXT
  5
A9
  8
1
  6
CONTINUOUS
 62
     7
 10
-278.69169376016
 20
249.5284200325122
 30
0.0
 40
3.0
  1
GLMFS-22F3
  0
INSERT
  5
18D
  8
1
  6
CONTINUOUS
 62
     7
  2
D_FRAME_VIEW_3829
 10
0.0
 20
0.0
 30
0.0
  0
ENDSEC
  0
EOF
