  0
SECTION
  2
HEADER
  9
$ACADVER
  1
AC1006
  9
$DWGCODEPAGE
  3
ansi_932
  9
$INSBASE
 10
0.0
 20
0.0
 30
0.0
  9
$EXTMIN
 10
-327.9506206694109
 20
284.3204545454545
  9
$EXTMAX
 10
-181.4923617465788
 20
344.1
  9
$LIMMIN
 10
0.0
 20
0.0
  9
$LIMMAX
 10
12.0
 20
9.0
  9
$ORTHOMODE
 70
     0
  9
$REGENMODE
 70
     1
  9
$FILLMODE
 70
     1
  9
$QTEXTMODE
 70
     0
  9
$MIRRTEXT
 70
     1
  9
$DRAGMODE
 70
     2
  9
$LTSCALE
 40
1.0
  9
$OSMODE
 70
    37
  9
$ATTMODE
 70
     1
  9
$TEXTSIZE
 40
0.2
  9
$TRACEWID
 40
0.05
  9
$TEXTSTYLE
  7
STANDARD
  9
$CLAYER
  8
0
  9
$CELTYPE
  6
BYLAYER
  9
$CECOLOR
 62
   256
  9
$DIMSCALE
 40
1.0
  9
$DIMASZ
 40
3.0
  9
$DIMEXO
 40
0.0625
  9
$DIMDLI
 40
0.38
  9
$DIMRND
 40
0.0
  9
$DIMDLE
 40
0.0
  9
$DIMEXE
 40
1.5
  9
$DIMTP
 40
0.0
  9
$DIMTM
 40
0.0
  9
$DIMTXT
 40
3.0
  9
$DIMCEN
 40
0.09
  9
$DIMTSZ
 40
0.0
  9
$DIMTOL
 70
     0
  9
$DIMLIM
 70
     0
  9
$DIMTIH
 70
     1
  9
$DIMTOH
 70
     1
  9
$DIMSE1
 70
     0
  9
$DIMSE2
 70
     0
  9
$DIMTAD
 70
     1
  9
$DIMZIN
 70
     0
  9
$DIMBLK
  1

  9
$DIMASO
 70
     1
  9
$DIMSHO
 70
     1
  9
$DIMPOST
  1

  9
$DIMAPOST
  1

  9
$DIMALT
 70
     0
  9
$DIMALTD
 70
     2
  9
$DIMALTF
 40
25.4
  9
$DIMLFAC
 40
1.0
  9
$DIMTOFL
 70
     0
  9
$DIMTVP
 40
0.0
  9
$DIMTIX
 70
     0
  9
$DIMSOXD
 70
     0
  9
$DIMSAH
 70
     0
  9
$DIMBLK1
  1

  9
$DIMBLK2
  1

  9
$LUNITS
 70
     2
  9
$LUPREC
 70
     4
  9
$SKETCHINC
 40
0.1
  9
$FILLETRAD
 40
0.5
  9
$AUNITS
 70
     0
  9
$AUPREC
 70
     0
  9
$MENU
  1
.
  9
$ELEVATION
 40
0.0
  9
$THICKNESS
 40
0.0
  9
$LIMCHECK
 70
     0
  9
$CHAMFERA
 40
0.0
  9
$CHAMFERB
 40
0.0
  9
$SKPOLY
 70
     0
  9
$TDCREATE
 40
2459289.467417824
  9
$TDUPDATE
 40
2459289.467418009
  9
$TDINDWG
 40
0.0000000116
  9
$TDUSRTIMER
 40
0.0000000116
  9
$USRTIMER
 70
     1
  9
$ANGBASE
 50
0.0
  9
$ANGDIR
 70
     0
  9
$PDMODE
 70
     0
  9
$PDSIZE
 40
0.0
  9
$PLINEWID
 40
0.0
  9
$COORDS
 70
     1
  9
$SPLFRAME
 70
     0
  9
$SPLINETYPE
 70
     6
  9
$SPLINESEGS
 70
     8
  9
$ATTDIA
 70
     0
  9
$ATTREQ
 70
     1
  9
$HANDLING
 70
     1
  9
$HANDSEED
  5
4B3
  9
$SURFTAB1
 70
     6
  9
$SURFTAB2
 70
     6
  9
$SURFTYPE
 70
     6
  9
$SURFU
 70
     6
  9
$SURFV
 70
     6
  9
$UCSNAME
  2

  9
$UCSORG
 10
0.0
 20
0.0
 30
0.0
  9
$UCSXDIR
 10
1.0
 20
0.0
 30
0.0
  9
$UCSYDIR
 10
0.0
 20
1.0
 30
0.0
  9
$USERI1
 70
     0
  9
$USERI2
 70
     0
  9
$USERI3
 70
     0
  9
$USERI4
 70
     0
  9
$USERI5
 70
     0
  9
$USERR1
 40
0.0
  9
$USERR2
 40
0.0
  9
$USERR3
 40
0.0
  9
$USERR4
 40
0.0
  9
$USERR5
 40
0.0
  9
$WORLDVIEW
 70
     1
  0
ENDSEC
  0
SECTION
  2
TABLES
  0
TABLE
  2
VPORT
 70
     1
  0
VPORT
  2
*ACTIVE
 70
     0
 10
0.0
 20
0.0
 11
1.0
 21
1.0
 12
-254.7214912079949
 22
314.2102272727273
 13
0.0
 23
0.0
 14
0.5
 24
0.5
 15
0.5
 25
0.5
 16
0.0
 26
0.0
 36
1.0
 17
0.0
 27
0.0
 37
0.0
 40
59.77954545454554
 41
1.6
 42
50.0
 43
0.0
 44
0.0
 50
0.0
 51
0.0
 71
     0
 72
   100
 73
     1
 74
     3
 75
     0
 76
     0
 77
     0
 78
     0
  0
ENDTAB
  0
TABLE
  2
LTYPE
 70
     1
  0
LTYPE
  2
CONTINUOUS
 70
     0
  3
Solid line
 72
    65
 73
     0
 40
0.0
  0
ENDTAB
  0
TABLE
  2
LAYER
 70
     2
  0
LAYER
  2
0
 70
     0
 62
     7
  6
CONTINUOUS
  0
LAYER
  2
1
 70
     0
 62
     7
  6
CONTINUOUS
  0
ENDTAB
  0
TABLE
  2
STYLE
 70
     2
  0
STYLE
  2
STANDARD
 70
     0
 40
0.0
 41
1.0
 50
0.0
 71
     0
 42
0.2
  3
txt
  4

  0
STYLE
  2
ＭＳ_ゴシック
 70
     0
 40
0.0
 41
1.0
 50
0.0
 71
     0
 42
0.2
  3
ＭＳ ゴシック.shx
  4

  0
ENDTAB
  0
TABLE
  2
VIEW
 70
     0
  0
ENDTAB
  0
TABLE
  2
UCS
 70
     0
  0
ENDTAB
  0
ENDSEC
  0
SECTION
  2
BLOCKS
  0
BLOCK
  8
0
  2
D_FRAME_VIEW_3448
 70
     0
 10
0.0
 20
0.0
 30
0.0
  0
POLYLINE
  5
72
  8
1
  6
CONTINUOUS
 62
     7
 66
     1
 10
0.0
 20
0.0
 30
0.0
  0
VERTEX
  5
14E
  8
1
  6
CONTINUOUS
 62
     7
 10
-183.4923617465788
 20
323.587369519833
 30
0.0
  0
VERTEX
  5
14F
  8
1
  6
CONTINUOUS
 62
     7
 10
-183.4926366398191
 20
323.5711872213584
 30
0.0
  0
VERTEX
  5
150
  8
1
  6
CONTINUOUS
 62
     7
 10
-183.4934565854577
 20
323.5550897140923
 30
0.0
  0
VERTEX
  5
151
  8
1
  6
CONTINUOUS
 62
     7
 10
-183.4948144823711
 20
323.5391276516724
 30
0.0
  0
VERTEX
  5
152
  8
1
  6
CONTINUOUS
 62
     7
 10
-183.4967032294358
 20
323.5233516877363
 30
0.0
  0
VERTEX
  5
153
  8
1
  6
CONTINUOUS
 62
     7
 10
-183.4992124312753
 20
323.5072324340671
 30
0.0
  0
VERTEX
  5
154
  8
1
  6
CONTINUOUS
 62
     7
 10
-183.5022706757744
 20
323.4913427833694
 30
0.0
  0
VERTEX
  5
155
  8
1
  6
CONTINUOUS
 62
     7
 10
-183.5058573999041
 20
323.4757264163176
 30
0.0
  0
VERTEX
  5
156
  8
1
  6
CONTINUOUS
 62
     7
 10
-183.5099520406357
 20
323.4604270135865
 30
0.0
  0
VERTEX
  5
157
  8
1
  6
CONTINUOUS
 62
     7
 10
-183.516012249752
 20
323.4410413273195
 30
0.0
  0
VERTEX
  5
158
  8
1
  6
CONTINUOUS
 62
     7
 10
-183.5228777507475
 20
323.4222015023815
 30
0.0
  0
VERTEX
  5
159
  8
1
  6
CONTINUOUS
 62
     7
 10
-183.5304908688645
 20
323.4039525617575
 30
0.0
  0
VERTEX
  5
15A
  8
1
  6
CONTINUOUS
 62
     7
 10
-183.5387939293452
 20
323.3863395284321
 30
0.0
  0
VERTEX
  5
15B
  8
1
  6
CONTINUOUS
 62
     7
 10
-183.5477292574317
 20
323.36940742539
 30
0.0
  0
VERTEX
  5
15C
  8
1
  6
CONTINUOUS
 62
     7
 10
-183.5572391783664
 20
323.3532012756162
 30
0.0
  0
VERTEX
  5
15D
  8
1
  6
CONTINUOUS
 62
     7
 10
-183.5678677676233
 20
323.3368589500387
 30
0.0
  0
VERTEX
  5
15E
  8
1
  6
CONTINUOUS
 62
     7
 10
-183.5790699719153
 20
323.3212603205666
 30
0.0
  0
VERTEX
  5
15F
  8
1
  6
CONTINUOUS
 62
     7
 10
-183.5907901576792
 20
323.3064155599691
 30
0.0
  0
VERTEX
  5
160
  8
1
  6
CONTINUOUS
 62
     7
 10
-183.6029726913522
 20
323.2923348410155
 30
0.0
  0
VERTEX
  5
161
  8
1
  6
CONTINUOUS
 62
     7
 10
-183.6203704083261
 20
323.2742370635218
 30
0.0
  0
VERTEX
  5
162
  8
1
  6
CONTINUOUS
 62
     7
 10
-183.6385013198011
 20
323.2574938437688
 30
0.0
  0
VERTEX
  5
163
  8
1
  6
CONTINUOUS
 62
     7
 10
-183.6572588100094
 20
323.2420955444049
 30
0.0
  0
VERTEX
  5
164
  8
1
  6
CONTINUOUS
 62
     7
 10
-183.6769461410577
 20
323.2277483648237
 30
0.0
  0
VERTEX
  5
165
  8
1
  6
CONTINUOUS
 62
     7
 10
-183.6971667268248
 20
323.2147066787829
 30
0.0
  0
VERTEX
  5
166
  8
1
  6
CONTINUOUS
 62
     7
 10
-183.7178425915918
 20
323.2029486586408
 30
0.0
  0
VERTEX
  5
167
  8
1
  6
CONTINUOUS
 62
     7
 10
-183.7388957596398
 20
323.1924524767556
 30
0.0
  0
VERTEX
  5
168
  8
1
  6
CONTINUOUS
 62
     7
 10
-183.7683057316814
 20
323.1800422755289
 30
0.0
  0
VERTEX
  5
169
  8
1
  6
CONTINUOUS
 62
     7
 10
-183.7982752541957
 20
323.1698465635294
 30
0.0
  0
VERTEX
  5
16A
  8
1
  6
CONTINUOUS
 62
     7
 10
-183.8286664396796
 20
323.1618156480602
 30
0.0
  0
VERTEX
  5
16B
  8
1
  6
CONTINUOUS
 62
     7
 10
-183.8549433111726
 20
323.1566176926227
 30
0.0
  0
VERTEX
  5
16C
  8
1
  6
CONTINUOUS
 62
     7
 10
-183.8814483925252
 20
323.1529284814266
 30
0.0
  0
VERTEX
  5
16D
  8
1
  6
CONTINUOUS
 62
     7
 10
-183.9081162616581
 20
323.1507289415318
 30
0.0
  0
VERTEX
  5
16E
  8
1
  6
CONTINUOUS
 62
     7
 10
-183.9348814964922
 20
323.15
 30
0.0
  0
SEQEND
  5
4A4
  8
1
  6
CONTINUOUS
 62
     7
  0
LINE
  5
73
  8
1
  6
CONTINUOUS
 62
     7
 10
-183.4923617465788
 20
323.587369519833
 30
0.0
 11
-183.4923617465788
 21
319.1813152400835
 31
0.0
  0
POLYLINE
  5
74
  8
1
  6
CONTINUOUS
 62
     7
 66
     1
 10
0.0
 20
0.0
 30
0.0
  0
VERTEX
  5
16F
  8
1
  6
CONTINUOUS
 62
     7
 10
-183.9662514804829
 20
319.65
 30
0.0
  0
VERTEX
  5
170
  8
1
  6
CONTINUOUS
 62
     7
 10
-183.9382230252801
 20
319.6492105775205
 30
0.0
  0
VERTEX
  5
171
  8
1
  6
CONTINUOUS
 62
     7
 10
-183.9102499416986
 20
319.6468335006381
 30
0.0
  0
VERTEX
  5
172
  8
1
  6
CONTINUOUS
 62
     7
 10
-183.8824030667089
 20
319.6428555551869
 30
0.0
  0
VERTEX
  5
173
  8
1
  6
CONTINUOUS
 62
     7
 10
-183.8547532372818
 20
319.6372635270008
 30
0.0
  0
VERTEX
  5
174
  8
1
  6
CONTINUOUS
 62
     7
 10
-183.8265222763344
 20
319.6297921607231
 30
0.0
  0
VERTEX
  5
175
  8
1
  6
CONTINUOUS
 62
     7
 10
-183.7985643977143
 20
319.6205396896536
 30
0.0
  0
VERTEX
  5
176
  8
1
  6
CONTINUOUS
 62
     7
 10
-183.7709813893769
 20
319.6094757438411
 30
0.0
  0
VERTEX
  5
177
  8
1
  6
CONTINUOUS
 62
     7
 10
-183.7438750392776
 20
319.5965699533344
 30
0.0
  0
VERTEX
  5
178
  8
1
  6
CONTINUOUS
 62
     7
 10
-183.7202365252909
 20
319.5835073846422
 30
0.0
  0
VERTEX
  5
179
  8
1
  6
CONTINUOUS
 62
     7
 10
-183.6970211319773
 20
319.5688600782526
 30
0.0
  0
VERTEX
  5
17A
  8
1
  6
CONTINUOUS
 62
     7
 10
-183.674353479405
 20
319.5526084559423
 30
0.0
  0
VERTEX
  5
17B
  8
1
  6
CONTINUOUS
 62
     7
 10
-183.6523581876425
 20
319.5347329394883
 30
0.0
  0
VERTEX
  5
17C
  8
1
  6
CONTINUOUS
 62
     7
 10
-183.6311598767581
 20
319.5152139506673
 30
0.0
  0
VERTEX
  5
17D
  8
1
  6
CONTINUOUS
 62
     7
 10
-183.6108831668203
 20
319.4940319112562
 30
0.0
  0
VERTEX
  5
17E
  8
1
  6
CONTINUOUS
 62
     7
 10
-183.5965181154472
 20
319.477240351563
 30
0.0
  0
VERTEX
  5
17F
  8
1
  6
CONTINUOUS
 62
     7
 10
-183.5827520504952
 20
319.4594747940448
 30
0.0
  0
VERTEX
  5
180
  8
1
  6
CONTINUOUS
 62
     7
 10
-183.5696658319315
 20
319.4407490930118
 30
0.0
  0
VERTEX
  5
181
  8
1
  6
CONTINUOUS
 62
     7
 10
-183.5601107816119
 20
319.4256964339456
 30
0.0
  0
VERTEX
  5
182
  8
1
  6
CONTINUOUS
 62
     7
 10
-183.5510194866036
 20
319.4100571133374
 30
0.0
  0
VERTEX
  5
183
  8
1
  6
CONTINUOUS
 62
     7
 10
-183.5424369819535
 20
319.3938539787478
 30
0.0
  0
VERTEX
  5
184
  8
1
  6
CONTINUOUS
 62
     7
 10
-183.5344083027085
 20
319.3771098777373
 30
0.0
  0
VERTEX
  5
185
  8
1
  6
CONTINUOUS
 62
     7
 10
-183.5266645505739
 20
319.3590792669452
 30
0.0
  0
VERTEX
  5
186
  8
1
  6
CONTINUOUS
 62
     7
 10
-183.5195951169014
 20
319.3404714713929
 30
0.0
  0
VERTEX
  5
187
  8
1
  6
CONTINUOUS
 62
     7
 10
-183.5132539989991
 20
319.3213407593261
 30
0.0
  0
VERTEX
  5
188
  8
1
  6
CONTINUOUS
 62
     7
 10
-183.5088933018789
 20
319.3062612754401
 30
0.0
  0
VERTEX
  5
189
  8
1
  6
CONTINUOUS
 62
     7
 10
-183.505003617732
 20
319.2908908460583
 30
0.0
  0
VERTEX
  5
18A
  8
1
  6
CONTINUOUS
 62
     7
 10
-183.5016057259736
 20
319.2752688213995
 30
0.0
  0
VERTEX
  5
18B
  8
1
  6
CONTINUOUS
 62
     7
 10
-183.498720406019
 20
319.2594345516828
 30
0.0
  0
VERTEX
  5
18C
  8
1
  6
CONTINUOUS
 62
     7
 10
-183.4964519294878
 20
319.2440761172684
 30
0.0
  0
VERTEX
  5
18D
  8
1
  6
CONTINUOUS
 62
     7
 10
-183.494674084953
 20
319.2285388837914
 30
0.0
  0
VERTEX
  5
18E
  8
1
  6
CONTINUOUS
 62
     7
 10
-183.4933946127397
 20
319.2128689363616
 30
0.0
  0
VERTEX
  5
18F
  8
1
  6
CONTINUOUS
 62
     7
 10
-183.4926212531733
 20
319.1971123600891
 30
0.0
  0
VERTEX
  5
190
  8
1
  6
CONTINUOUS
 62
     7
 10
-183.4923617465788
 20
319.1813152400834
 30
0.0
  0
SEQEND
  5
4A5
  8
1
  6
CONTINUOUS
 62
     7
  0
ARC
  5
75
  8
1
  6
CONTINUOUS
 62
     9
 10
-240.5459151371721
 20
320.65
 30
0.0
 40
21.7
 50
356.168625406666
 51
3.831374593334032
  0
ARC
  5
76
  8
1
  6
CONTINUOUS
 62
     9
 10
-218.2220640626016
 20
321.0004555775416
 30
0.0
 40
1.400033522696097
 50
88.48546262861662
 51
110.589989279632
  0
POLYLINE
  5
77
  8
1
  6
CONTINUOUS
 62
     9
 66
     1
 10
0.0
 20
0.0
 30
0.0
  0
VERTEX
  5
191
  8
1
  6
CONTINUOUS
 62
     9
 10
-218.7144251843573
 20
322.3110563521699
 30
0.0
  0
VERTEX
  5
192
  8
1
  6
CONTINUOUS
 62
     9
 10
-218.8028831881954
 20
322.2631403544065
 30
0.0
  0
VERTEX
  5
193
  8
1
  6
CONTINUOUS
 62
     9
 10
-218.8766270640614
 20
322.1889535876211
 30
0.0
  0
VERTEX
  5
194
  8
1
  6
CONTINUOUS
 62
     9
 10
-218.8944140344772
 20
322.1
 30
0.0
  0
SEQEND
  5
4A6
  8
1
  6
CONTINUOUS
 62
     9
  0
POLYLINE
  5
78
  8
1
  6
CONTINUOUS
 62
     9
 66
     1
 10
0.0
 20
0.0
 30
0.0
  0
VERTEX
  5
195
  8
1
  6
CONTINUOUS
 62
     9
 10
-218.8944140344771
 20
319.2
 30
0.0
  0
VERTEX
  5
196
  8
1
  6
CONTINUOUS
 62
     9
 10
-218.8951396112796
 20
319.1954566915313
 30
0.0
  0
VERTEX
  5
197
  8
1
  6
CONTINUOUS
 62
     9
 10
-218.8956978587393
 20
319.1908713246169
 30
0.0
  0
VERTEX
  5
198
  8
1
  6
CONTINUOUS
 62
     9
 10
-218.8960866629828
 20
319.1861975735858
 30
0.0
  0
VERTEX
  5
199
  8
1
  6
CONTINUOUS
 62
     9
 10
-218.8962939468938
 20
319.1815024725371
 30
0.0
  0
VERTEX
  5
19A
  8
1
  6
CONTINUOUS
 62
     9
 10
-218.8963160260123
 20
319.1767599398809
 30
0.0
  0
VERTEX
  5
19B
  8
1
  6
CONTINUOUS
 62
     9
 10
-218.896149270115
 20
319.1720126106824
 30
0.0
  0
VERTEX
  5
19C
  8
1
  6
CONTINUOUS
 62
     9
 10
-218.8957866473475
 20
319.1672038300052
 30
0.0
  0
VERTEX
  5
19D
  8
1
  6
CONTINUOUS
 62
     9
 10
-218.8952287295983
 20
319.1623992311127
 30
0.0
  0
VERTEX
  5
19E
  8
1
  6
CONTINUOUS
 62
     9
 10
-218.8944453060671
 20
319.1574330250841
 30
0.0
  0
VERTEX
  5
19F
  8
1
  6
CONTINUOUS
 62
     9
 10
-218.8934556435618
 20
319.1524911111788
 30
0.0
  0
VERTEX
  5
1A0
  8
1
  6
CONTINUOUS
 62
     9
 10
-218.8922471167101
 20
319.1475206261788
 30
0.0
  0
VERTEX
  5
1A1
  8
1
  6
CONTINUOUS
 62
     9
 10
-218.8908397625966
 20
319.1426038946964
 30
0.0
  0
VERTEX
  5
1A2
  8
1
  6
CONTINUOUS
 62
     9
 10
-218.8892281568085
 20
319.1377124456657
 30
0.0
  0
VERTEX
  5
1A3
  8
1
  6
CONTINUOUS
 62
     9
 10
-218.8874310740542
 20
319.1328904401824
 30
0.0
  0
VERTEX
  5
1A4
  8
1
  6
CONTINUOUS
 62
     9
 10
-218.8854290821086
 20
319.1280787832271
 30
0.0
  0
VERTEX
  5
1A5
  8
1
  6
CONTINUOUS
 62
     9
 10
-218.8832521049506
 20
319.1233419634195
 30
0.0
  0
VERTEX
  5
1A6
  8
1
  6
CONTINUOUS
 62
     9
 10
-218.8812014764154
 20
319.1192435985272
 30
0.0
  0
VERTEX
  5
1A7
  8
1
  6
CONTINUOUS
 62
     9
 10
-218.8790299053959
 20
319.1152098215304
 30
0.0
  0
VERTEX
  5
1A8
  8
1
  6
CONTINUOUS
 62
     9
 10
-218.8767297202448
 20
319.1112186228697
 30
0.0
  0
VERTEX
  5
1A9
  8
1
  6
CONTINUOUS
 62
     9
 10
-218.874322528642
 20
319.1072995172403
 30
0.0
  0
VERTEX
  5
1AA
  8
1
  6
CONTINUOUS
 62
     9
 10
-218.8718060179704
 20
319.1034399098426
 30
0.0
  0
VERTEX
  5
1AB
  8
1
  6
CONTINUOUS
 62
     9
 10
-218.8691944716481
 20
319.0996532772152
 30
0.0
  0
VERTEX
  5
1AC
  8
1
  6
CONTINUOUS
 62
     9
 10
-218.8636728755271
 20
319.0922503996785
 30
0.0
  0
VERTEX
  5
1AD
  8
1
  6
CONTINUOUS
 62
     9
 10
-218.8594511127924
 20
319.0870424431384
 30
0.0
  0
VERTEX
  5
1AE
  8
1
  6
CONTINUOUS
 62
     9
 10
-218.855071663577
 20
319.0819781164865
 30
0.0
  0
VERTEX
  5
1AF
  8
1
  6
CONTINUOUS
 62
     9
 10
-218.8505208278183
 20
319.0770251255107
 30
0.0
  0
VERTEX
  5
1B0
  8
1
  6
CONTINUOUS
 62
     9
 10
-218.8458417878294
 20
319.0722152041668
 30
0.0
  0
VERTEX
  5
1B1
  8
1
  6
CONTINUOUS
 62
     9
 10
-218.841030523768
 20
319.0675286601335
 30
0.0
  0
VERTEX
  5
1B2
  8
1
  6
CONTINUOUS
 62
     9
 10
-218.8361123648146
 20
319.0629763471545
 30
0.0
  0
VERTEX
  5
1B3
  8
1
  6
CONTINUOUS
 62
     9
 10
-218.8259298430773
 20
319.0542032014865
 30
0.0
  0
VERTEX
  5
1B4
  8
1
  6
CONTINUOUS
 62
     9
 10
-218.8190279167451
 20
319.0486825492598
 30
0.0
  0
VERTEX
  5
1B5
  8
1
  6
CONTINUOUS
 62
     9
 10
-218.8119980658931
 20
319.0433617271503
 30
0.0
  0
VERTEX
  5
1B6
  8
1
  6
CONTINUOUS
 62
     9
 10
-218.7975685216394
 20
319.0332529342133
 30
0.0
  0
VERTEX
  5
1B7
  8
1
  6
CONTINUOUS
 62
     9
 10
-218.7825612497799
 20
319.0237055078046
 30
0.0
  0
VERTEX
  5
1B8
  8
1
  6
CONTINUOUS
 62
     9
 10
-218.7672423174344
 20
319.0147966785568
 30
0.0
  0
VERTEX
  5
1B9
  8
1
  6
CONTINUOUS
 62
     9
 10
-218.7515845981264
 20
319.0064224903537
 30
0.0
  0
VERTEX
  5
1BA
  8
1
  6
CONTINUOUS
 62
     9
 10
-218.735712166432
 20
318.9985816971899
 30
0.0
  0
VERTEX
  5
1BB
  8
1
  6
CONTINUOUS
 62
     9
 10
-218.7195063846467
 20
318.9911604244155
 30
0.0
  0
VERTEX
  5
1BC
  8
1
  6
CONTINUOUS
 62
     9
 10
-218.7031350881888
 20
318.9841917871142
 30
0.0
  0
VERTEX
  5
1BD
  8
1
  6
CONTINUOUS
 62
     9
 10
-218.677011390222
 20
318.9740326507375
 30
0.0
  0
VERTEX
  5
1BE
  8
1
  6
CONTINUOUS
 62
     9
 10
-218.6506012409261
 20
318.964805876471
 30
0.0
  0
VERTEX
  5
1BF
  8
1
  6
CONTINUOUS
 62
     9
 10
-218.6239110829094
 20
318.9564063984367
 30
0.0
  0
VERTEX
  5
1C0
  8
1
  6
CONTINUOUS
 62
     9
 10
-218.5970387576506
 20
318.9487787498921
 30
0.0
  0
VERTEX
  5
1C1
  8
1
  6
CONTINUOUS
 62
     9
 10
-218.5424844163569
 20
318.9355114220809
 30
0.0
  0
VERTEX
  5
1C2
  8
1
  6
CONTINUOUS
 62
     9
 10
-218.4874851482627
 20
318.9247215364327
 30
0.0
  0
VERTEX
  5
1C3
  8
1
  6
CONTINUOUS
 62
     9
 10
-218.4123483179945
 20
318.9135378516427
 30
0.0
  0
VERTEX
  5
1C4
  8
1
  6
CONTINUOUS
 62
     9
 10
-218.3368764689612
 20
318.9058959650759
 30
0.0
  0
VERTEX
  5
1C5
  8
1
  6
CONTINUOUS
 62
     9
 10
-218.260984162388
 20
318.9014478704036
 30
0.0
  0
VERTEX
  5
1C6
  8
1
  6
CONTINUOUS
 62
     9
 10
-218.1850603568595
 20
318.9
 30
0.0
  0
SEQEND
  5
4A7
  8
1
  6
CONTINUOUS
 62
     9
  0
LINE
  5
79
  8
1
  6
CONTINUOUS
 62
     7
 10
-242.0413234293505
 20
302.3504395396628
 30
0.0
 11
-242.0877241840305
 21
302.4364441538934
 31
0.0
  0
LINE
  5
7A
  8
1
  6
CONTINUOUS
 62
     7
 10
-240.5413998351171
 20
338.9494993741097
 30
0.0
 11
-240.5877081760134
 21
338.8637959733564
 31
0.0
  0
LINE
  5
7B
  8
1
  6
CONTINUOUS
 62
     7
 10
-239.0414763135261
 20
302.3504395394244
 30
0.0
 11
-239.0877356748068
 21
302.4361412041259
 31
0.0
  0
LINE
  5
7C
  8
1
  6
CONTINUOUS
 62
     7
 10
-236.041506625994
 20
302.3500949203196
 30
0.0
 11
-236.0878063267045
 21
302.4365374808338
 31
0.0
  0
LINE
  5
7D
  8
1
  6
CONTINUOUS
 62
     7
 10
-235.1434304146419
 20
302.3500949206511
 30
0.0
 11
-235.0969623637941
 21
302.4366770776836
 31
0.0
  0
LINE
  5
7E
  8
1
  6
CONTINUOUS
 62
     7
 10
-236.6434458550668
 20
338.9497195814607
 30
0.0
 11
-236.5969747440271
 21
338.863358227808
 31
0.0
  0
LINE
  5
7F
  8
1
  6
CONTINUOUS
 62
     7
 10
-238.1434001021739
 20
302.3504395396623
 30
0.0
 11
-238.0969993094797
 21
302.4364441525876
 31
0.0
  0
LINE
  5
80
  8
1
  6
CONTINUOUS
 62
     7
 10
-239.643323623765
 20
338.9494993741098
 30
0.0
 11
-239.5970153175027
 21
338.8637959746831
 31
0.0
  0
LINE
  5
81
  8
1
  6
CONTINUOUS
 62
     7
 10
-234.5413998522555
 20
338.9499999999999
 30
0.0
 11
-234.6085374926811
 21
338.7689035664444
 31
0.0
  0
LINE
  5
82
  8
1
  6
CONTINUOUS
 62
     7
 10
-234.5413998522555
 20
338.95
 30
0.0
 11
-233.6433236409021
 21
338.95
 31
0.0
  0
POLYLINE
  5
83
  8
1
  6
CONTINUOUS
 62
     7
 66
     1
 10
0.0
 20
0.0
 30
0.0
  0
VERTEX
  5
1C7
  8
1
  6
CONTINUOUS
 62
     7
 10
-236.5969747440271
 20
338.863358227808
 30
0.0
  0
VERTEX
  5
1C8
  8
1
  6
CONTINUOUS
 62
     7
 10
-236.5829983562445
 20
338.8037135111827
 30
0.0
  0
VERTEX
  5
1C9
  8
1
  6
CONTINUOUS
 62
     7
 10
-236.569021968462
 20
338.7285632182126
 30
0.0
  0
VERTEX
  5
1CA
  8
1
  6
CONTINUOUS
 62
     7
 10
-236.5550455806794
 20
338.6379439701366
 30
0.0
  0
VERTEX
  5
1CB
  8
1
  6
CONTINUOUS
 62
     7
 10
-236.5410691928969
 20
338.5318923881939
 30
0.0
  0
VERTEX
  5
1CC
  8
1
  6
CONTINUOUS
 62
     7
 10
-236.5270928051143
 20
338.4104451999453
 30
0.0
  0
VERTEX
  5
1CD
  8
1
  6
CONTINUOUS
 62
     7
 10
-236.5131164173318
 20
338.2736761030259
 30
0.0
  0
VERTEX
  5
1CE
  8
1
  6
CONTINUOUS
 62
     7
 10
-236.4991400295492
 20
338.1217498389789
 30
0.0
  0
VERTEX
  5
1CF
  8
1
  6
CONTINUOUS
 62
     7
 10
-236.4851636417667
 20
337.9548449141137
 30
0.0
  0
VERTEX
  5
1D0
  8
1
  6
CONTINUOUS
 62
     7
 10
-236.4711872539841
 20
337.7731398347395
 30
0.0
  0
VERTEX
  5
1D1
  8
1
  6
CONTINUOUS
 62
     7
 10
-236.4572108662016
 20
337.5768131071654
 30
0.0
  0
VERTEX
  5
1D2
  8
1
  6
CONTINUOUS
 62
     7
 10
-236.443234478419
 20
337.3660432377009
 30
0.0
  0
VERTEX
  5
1D3
  8
1
  6
CONTINUOUS
 62
     7
 10
-236.4292580906365
 20
337.1410087326553
 30
0.0
  0
VERTEX
  5
1D4
  8
1
  6
CONTINUOUS
 62
     7
 10
-236.4152817028539
 20
336.9018880983375
 30
0.0
  0
VERTEX
  5
1D5
  8
1
  6
CONTINUOUS
 62
     7
 10
-236.4013053150714
 20
336.6488598410571
 30
0.0
  0
VERTEX
  5
1D6
  8
1
  6
CONTINUOUS
 62
     7
 10
-236.3873289272888
 20
336.3821024671232
 30
0.0
  0
VERTEX
  5
1D7
  8
1
  6
CONTINUOUS
 62
     7
 10
-236.3733525395063
 20
336.1017950230981
 30
0.0
  0
VERTEX
  5
1D8
  8
1
  6
CONTINUOUS
 62
     7
 10
-236.3593761517238
 20
335.8081594548349
 30
0.0
  0
VERTEX
  5
1D9
  8
1
  6
CONTINUOUS
 62
     7
 10
-236.3453997639412
 20
335.5014910545386
 30
0.0
  0
VERTEX
  5
1DA
  8
1
  6
CONTINUOUS
 62
     7
 10
-236.3314233761586
 20
335.1820922987424
 30
0.0
  0
VERTEX
  5
1DB
  8
1
  6
CONTINUOUS
 62
     7
 10
-236.3174469883761
 20
334.8502656639794
 30
0.0
  0
VERTEX
  5
1DC
  8
1
  6
CONTINUOUS
 62
     7
 10
-236.3034706005935
 20
334.506313626783
 30
0.0
  0
VERTEX
  5
1DD
  8
1
  6
CONTINUOUS
 62
     7
 10
-236.289494212811
 20
334.1505386636862
 30
0.0
  0
VERTEX
  5
1DE
  8
1
  6
CONTINUOUS
 62
     7
 10
-236.2755178250284
 20
333.7832432512225
 30
0.0
  0
VERTEX
  5
1DF
  8
1
  6
CONTINUOUS
 62
     7
 10
-236.2615414372459
 20
333.404729865925
 30
0.0
  0
VERTEX
  5
1E0
  8
1
  6
CONTINUOUS
 62
     7
 10
-236.2475650494633
 20
333.0153009843269
 30
0.0
  0
VERTEX
  5
1E1
  8
1
  6
CONTINUOUS
 62
     7
 10
-236.2335886616808
 20
332.6152590829615
 30
0.0
  0
VERTEX
  5
1E2
  8
1
  6
CONTINUOUS
 62
     7
 10
-236.2196122738982
 20
332.204907866511
 30
0.0
  0
VERTEX
  5
1E3
  8
1
  6
CONTINUOUS
 62
     7
 10
-236.2056358861157
 20
331.7845916145749
 30
0.0
  0
VERTEX
  5
1E4
  8
1
  6
CONTINUOUS
 62
     7
 10
-236.1916594983331
 20
331.3547035061951
 30
0.0
  0
VERTEX
  5
1E5
  8
1
  6
CONTINUOUS
 62
     7
 10
-236.1776831105506
 20
330.9156396316633
 30
0.0
  0
VERTEX
  5
1E6
  8
1
  6
CONTINUOUS
 62
     7
 10
-236.163706722768
 20
330.4677960812717
 30
0.0
  0
VERTEX
  5
1E7
  8
1
  6
CONTINUOUS
 62
     7
 10
-236.1497303349855
 20
330.0115689453121
 30
0.0
  0
VERTEX
  5
1E8
  8
1
  6
CONTINUOUS
 62
     7
 10
-236.1357539472029
 20
329.5473543140768
 30
0.0
  0
VERTEX
  5
1E9
  8
1
  6
CONTINUOUS
 62
     7
 10
-236.1217775594204
 20
329.0755482778575
 30
0.0
  0
VERTEX
  5
1EA
  8
1
  6
CONTINUOUS
 62
     7
 10
-236.1078011716378
 20
328.5965469269465
 30
0.0
  0
VERTEX
  5
1EB
  8
1
  6
CONTINUOUS
 62
     7
 10
-236.0938247838553
 20
328.1107463516358
 30
0.0
  0
VERTEX
  5
1EC
  8
1
  6
CONTINUOUS
 62
     7
 10
-236.0798483960727
 20
327.6185426422173
 30
0.0
  0
VERTEX
  5
1ED
  8
1
  6
CONTINUOUS
 62
     7
 10
-236.0658720082901
 20
327.1203334682775
 30
0.0
  0
VERTEX
  5
1EE
  8
1
  6
CONTINUOUS
 62
     7
 10
-236.0518956205077
 20
326.6165442843902
 30
0.0
  0
VERTEX
  5
1EF
  8
1
  6
CONTINUOUS
 62
     7
 10
-236.0379192327251
 20
326.1076242801041
 30
0.0
  0
VERTEX
  5
1F0
  8
1
  6
CONTINUOUS
 62
     7
 10
-236.0239428449426
 20
325.5940234079528
 30
0.0
  0
VERTEX
  5
1F1
  8
1
  6
CONTINUOUS
 62
     7
 10
-236.00996645716
 20
325.0761916204698
 30
0.0
  0
VERTEX
  5
1F2
  8
1
  6
CONTINUOUS
 62
     7
 10
-235.9959900693775
 20
324.5545788701884
 30
0.0
  0
VERTEX
  5
1F3
  8
1
  6
CONTINUOUS
 62
     7
 10
-235.9820136815949
 20
324.0296351096422
 30
0.0
  0
VERTEX
  5
1F4
  8
1
  6
CONTINUOUS
 62
     7
 10
-235.9680372938124
 20
323.5018102913647
 30
0.0
  0
VERTEX
  5
1F5
  8
1
  6
CONTINUOUS
 62
     7
 10
-235.9540609060298
 20
322.9715543678892
 30
0.0
  0
VERTEX
  5
1F6
  8
1
  6
CONTINUOUS
 62
     7
 10
-235.9400845182472
 20
322.4393172917494
 30
0.0
  0
VERTEX
  5
1F7
  8
1
  6
CONTINUOUS
 62
     7
 10
-235.9261081304647
 20
321.9055490154786
 30
0.0
  0
VERTEX
  5
1F8
  8
1
  6
CONTINUOUS
 62
     7
 10
-235.9121317426822
 20
321.3706999725721
 30
0.0
  0
VERTEX
  5
1F9
  8
1
  6
CONTINUOUS
 62
     7
 10
-235.8981553548996
 20
320.8352257016803
 30
0.0
  0
VERTEX
  5
1FA
  8
1
  6
CONTINUOUS
 62
     7
 10
-235.884178967117
 20
320.299584818106
 30
0.0
  0
VERTEX
  5
1FB
  8
1
  6
CONTINUOUS
 62
     7
 10
-235.8702025793345
 20
319.7642359795065
 30
0.0
  0
VERTEX
  5
1FC
  8
1
  6
CONTINUOUS
 62
     7
 10
-235.856226191552
 20
319.2296378435389
 30
0.0
  0
VERTEX
  5
1FD
  8
1
  6
CONTINUOUS
 62
     7
 10
-235.8422498037694
 20
318.6962490678601
 30
0.0
  0
VERTEX
  5
1FE
  8
1
  6
CONTINUOUS
 62
     7
 10
-235.8282734159869
 20
318.1645283101274
 30
0.0
  0
VERTEX
  5
1FF
  8
1
  6
CONTINUOUS
 62
     7
 10
-235.8142970282043
 20
317.6349342279978
 30
0.0
  0
VERTEX
  5
200
  8
1
  6
CONTINUOUS
 62
     7
 10
-235.8003206404217
 20
317.1079254791285
 30
0.0
  0
VERTEX
  5
201
  8
1
  6
CONTINUOUS
 62
     7
 10
-235.7863442526392
 20
316.5839607211767
 30
0.0
  0
VERTEX
  5
202
  8
1
  6
CONTINUOUS
 62
     7
 10
-235.7723678648567
 20
316.0634986117994
 30
0.0
  0
VERTEX
  5
203
  8
1
  6
CONTINUOUS
 62
     7
 10
-235.7583914770741
 20
315.5469943300906
 30
0.0
  0
VERTEX
  5
204
  8
1
  6
CONTINUOUS
 62
     7
 10
-235.7444150892916
 20
315.0348792275546
 30
0.0
  0
VERTEX
  5
205
  8
1
  6
CONTINUOUS
 62
     7
 10
-235.730438701509
 20
314.5275746702128
 30
0.0
  0
VERTEX
  5
206
  8
1
  6
CONTINUOUS
 62
     7
 10
-235.7164623137264
 20
314.0255019900849
 30
0.0
  0
VERTEX
  5
207
  8
1
  6
CONTINUOUS
 62
     7
 10
-235.7024859259439
 20
313.5290825191902
 30
0.0
  0
VERTEX
  5
208
  8
1
  6
CONTINUOUS
 62
     7
 10
-235.6885095381614
 20
313.0387375895482
 30
0.0
  0
VERTEX
  5
209
  8
1
  6
CONTINUOUS
 62
     7
 10
-235.6745331503788
 20
312.5548885331784
 30
0.0
  0
VERTEX
  5
20A
  8
1
  6
CONTINUOUS
 62
     7
 10
-235.6605567625962
 20
312.0779566821001
 30
0.0
  0
VERTEX
  5
20B
  8
1
  6
CONTINUOUS
 62
     7
 10
-235.6465803748137
 20
311.6083633683328
 30
0.0
  0
VERTEX
  5
20C
  8
1
  6
CONTINUOUS
 62
     7
 10
-235.6326039870311
 20
311.1465299238961
 30
0.0
  0
VERTEX
  5
20D
  8
1
  6
CONTINUOUS
 62
     7
 10
-235.6186275992486
 20
310.6928776808094
 30
0.0
  0
VERTEX
  5
20E
  8
1
  6
CONTINUOUS
 62
     7
 10
-235.604651211466
 20
310.2478163923748
 30
0.0
  0
VERTEX
  5
20F
  8
1
  6
CONTINUOUS
 62
     7
 10
-235.5906748236835
 20
309.8117028916777
 30
0.0
  0
VERTEX
  5
210
  8
1
  6
CONTINUOUS
 62
     7
 10
-235.5766984359009
 20
309.384878901489
 30
0.0
  0
VERTEX
  5
211
  8
1
  6
CONTINUOUS
 62
     7
 10
-235.5627220481184
 20
308.9676861434189
 30
0.0
  0
VERTEX
  5
212
  8
1
  6
CONTINUOUS
 62
     7
 10
-235.5487456603358
 20
308.5604663390778
 30
0.0
  0
VERTEX
  5
213
  8
1
  6
CONTINUOUS
 62
     7
 10
-235.5347692725533
 20
308.1635612100756
 30
0.0
  0
VERTEX
  5
214
  8
1
  6
CONTINUOUS
 62
     7
 10
-235.5207928847707
 20
307.7773124780227
 30
0.0
  0
VERTEX
  5
215
  8
1
  6
CONTINUOUS
 62
     7
 10
-235.5068164969882
 20
307.4020618645295
 30
0.0
  0
VERTEX
  5
216
  8
1
  6
CONTINUOUS
 62
     7
 10
-235.4928401092056
 20
307.0381510912059
 30
0.0
  0
VERTEX
  5
217
  8
1
  6
CONTINUOUS
 62
     7
 10
-235.4788637214231
 20
306.6859218796624
 30
0.0
  0
VERTEX
  5
218
  8
1
  6
CONTINUOUS
 62
     7
 10
-235.4648873336406
 20
306.3457159388477
 30
0.0
  0
VERTEX
  5
219
  8
1
  6
CONTINUOUS
 62
     7
 10
-235.450910945858
 20
306.0178506207322
 30
0.0
  0
VERTEX
  5
21A
  8
1
  6
CONTINUOUS
 62
     7
 10
-235.4369345580754
 20
305.7025681718047
 30
0.0
  0
VERTEX
  5
21B
  8
1
  6
CONTINUOUS
 62
     7
 10
-235.4229581702929
 20
305.4000964081793
 30
0.0
  0
VERTEX
  5
21C
  8
1
  6
CONTINUOUS
 62
     7
 10
-235.4089817825104
 20
305.11066314597
 30
0.0
  0
VERTEX
  5
21D
  8
1
  6
CONTINUOUS
 62
     7
 10
-235.3950053947278
 20
304.8344962012906
 30
0.0
  0
VERTEX
  5
21E
  8
1
  6
CONTINUOUS
 62
     7
 10
-235.3810290069453
 20
304.5718233902552
 30
0.0
  0
VERTEX
  5
21F
  8
1
  6
CONTINUOUS
 62
     7
 10
-235.3670526191627
 20
304.3228725289779
 30
0.0
  0
VERTEX
  5
220
  8
1
  6
CONTINUOUS
 62
     7
 10
-235.3530762313801
 20
304.0878714335724
 30
0.0
  0
VERTEX
  5
221
  8
1
  6
CONTINUOUS
 62
     7
 10
-235.3390998435976
 20
303.867047920153
 30
0.0
  0
VERTEX
  5
222
  8
1
  6
CONTINUOUS
 62
     7
 10
-235.3251234558151
 20
303.6606298048335
 30
0.0
  0
VERTEX
  5
223
  8
1
  6
CONTINUOUS
 62
     7
 10
-235.3111470680325
 20
303.4688446638758
 30
0.0
  0
VERTEX
  5
224
  8
1
  6
CONTINUOUS
 62
     7
 10
-235.2971706802499
 20
303.2918797294419
 30
0.0
  0
VERTEX
  5
225
  8
1
  6
CONTINUOUS
 62
     7
 10
-235.2831942924674
 20
303.1298369021387
 30
0.0
  0
VERTEX
  5
226
  8
1
  6
CONTINUOUS
 62
     7
 10
-235.2692179046849
 20
302.9828072290051
 30
0.0
  0
VERTEX
  5
227
  8
1
  6
CONTINUOUS
 62
     7
 10
-235.2552415169023
 20
302.8508817570804
 30
0.0
  0
VERTEX
  5
228
  8
1
  6
CONTINUOUS
 62
     7
 10
-235.2412651291198
 20
302.7341515334036
 30
0.0
  0
VERTEX
  5
229
  8
1
  6
CONTINUOUS
 62
     7
 10
-235.2272887413372
 20
302.6327076050137
 30
0.0
  0
VERTEX
  5
22A
  8
1
  6
CONTINUOUS
 62
     7
 10
-235.2133123535547
 20
302.54664101895
 30
0.0
  0
VERTEX
  5
22B
  8
1
  6
CONTINUOUS
 62
     7
 10
-235.1993359657721
 20
302.4760428222514
 30
0.0
  0
VERTEX
  5
22C
  8
1
  6
CONTINUOUS
 62
     7
 10
-235.1853595779896
 20
302.4210040619571
 30
0.0
  0
VERTEX
  5
22D
  8
1
  6
CONTINUOUS
 62
     7
 10
-235.171383190207
 20
302.3816157851062
 30
0.0
  0
VERTEX
  5
22E
  8
1
  6
CONTINUOUS
 62
     7
 10
-235.1574068024244
 20
302.3579679881367
 30
0.0
  0
VERTEX
  5
22F
  8
1
  6
CONTINUOUS
 62
     7
 10
-235.1434304146419
 20
302.3500949206511
 30
0.0
  0
SEQEND
  5
4A8
  8
1
  6
CONTINUOUS
 62
     7
  0
POLYLINE
  5
84
  8
1
  6
CONTINUOUS
 62
     7
 66
     1
 10
0.0
 20
0.0
 30
0.0
  0
VERTEX
  5
230
  8
1
  6
CONTINUOUS
 62
     7
 10
-239.5970153175027
 20
338.8637959746831
 30
0.0
  0
VERTEX
  5
231
  8
1
  6
CONTINUOUS
 62
     7
 10
-239.5830382481245
 20
338.8042533654364
 30
0.0
  0
VERTEX
  5
232
  8
1
  6
CONTINUOUS
 62
     7
 10
-239.5690611787463
 20
338.7290957365968
 30
0.0
  0
VERTEX
  5
233
  8
1
  6
CONTINUOUS
 62
     7
 10
-239.5550841093681
 20
338.6383394275977
 30
0.0
  0
VERTEX
  5
234
  8
1
  6
CONTINUOUS
 62
     7
 10
-239.54110703999
 20
338.5320949372291
 30
0.0
  0
VERTEX
  5
235
  8
1
  6
CONTINUOUS
 62
     7
 10
-239.5271299706118
 20
338.4105064228076
 30
0.0
  0
VERTEX
  5
236
  8
1
  6
CONTINUOUS
 62
     7
 10
-239.5131529012336
 20
338.2737180839001
 30
0.0
  0
VERTEX
  5
237
  8
1
  6
CONTINUOUS
 62
     7
 10
-239.4991758318555
 20
338.1218741200741
 30
0.0
  0
VERTEX
  5
238
  8
1
  6
CONTINUOUS
 62
     7
 10
-239.4851987624774
 20
337.9551187308967
 30
0.0
  0
VERTEX
  5
239
  8
1
  6
CONTINUOUS
 62
     7
 10
-239.4712216930992
 20
337.7735961159353
 30
0.0
  0
VERTEX
  5
23A
  8
1
  6
CONTINUOUS
 62
     7
 10
-239.457244623721
 20
337.577450474757
 30
0.0
  0
VERTEX
  5
23B
  8
1
  6
CONTINUOUS
 62
     7
 10
-239.4432675543429
 20
337.3668260069291
 30
0.0
  0
VERTEX
  5
23C
  8
1
  6
CONTINUOUS
 62
     7
 10
-239.4292904849647
 20
337.1418669120188
 30
0.0
  0
VERTEX
  5
23D
  8
1
  6
CONTINUOUS
 62
     7
 10
-239.4153134155865
 20
336.9027173896273
 30
0.0
  0
VERTEX
  5
23E
  8
1
  6
CONTINUOUS
 62
     7
 10
-239.4013363462084
 20
336.6495440216485
 30
0.0
  0
VERTEX
  5
23F
  8
1
  6
CONTINUOUS
 62
     7
 10
-239.3873592768302
 20
336.3825998577938
 30
0.0
  0
VERTEX
  5
240
  8
1
  6
CONTINUOUS
 62
     7
 10
-239.373382207452
 20
336.1021588253857
 30
0.0
  0
VERTEX
  5
241
  8
1
  6
CONTINUOUS
 62
     7
 10
-239.3594051380739
 20
335.8084948517466
 30
0.0
  0
VERTEX
  5
242
  8
1
  6
CONTINUOUS
 62
     7
 10
-239.3454280686957
 20
335.501881864199
 30
0.0
  0
VERTEX
  5
243
  8
1
  6
CONTINUOUS
 62
     7
 10
-239.3314509993176
 20
335.1825937900651
 30
0.0
  0
VERTEX
  5
244
  8
1
  6
CONTINUOUS
 62
     7
 10
-239.3174739299394
 20
334.8509045566677
 30
0.0
  0
VERTEX
  5
245
  8
1
  6
CONTINUOUS
 62
     7
 10
-239.3034968605613
 20
334.5070880913287
 30
0.0
  0
VERTEX
  5
246
  8
1
  6
CONTINUOUS
 62
     7
 10
-239.2895197911831
 20
334.1514183213711
 30
0.0
  0
VERTEX
  5
247
  8
1
  6
CONTINUOUS
 62
     7
 10
-239.275542721805
 20
333.7841691741169
 30
0.0
  0
VERTEX
  5
248
  8
1
  6
CONTINUOUS
 62
     7
 10
-239.2615656524268
 20
333.4056146276509
 30
0.0
  0
VERTEX
  5
249
  8
1
  6
CONTINUOUS
 62
     7
 10
-239.2475885830487
 20
333.0160539609222
 30
0.0
  0
VERTEX
  5
24A
  8
1
  6
CONTINUOUS
 62
     7
 10
-239.2336115136705
 20
332.6158526460981
 30
0.0
  0
VERTEX
  5
24B
  8
1
  6
CONTINUOUS
 62
     7
 10
-239.2196344442923
 20
332.2053868469822
 30
0.0
  0
VERTEX
  5
24C
  8
1
  6
CONTINUOUS
 62
     7
 10
-239.2056573749141
 20
331.7850327273784
 30
0.0
  0
VERTEX
  5
24D
  8
1
  6
CONTINUOUS
 62
     7
 10
-239.191680305536
 20
331.3551664510903
 30
0.0
  0
VERTEX
  5
24E
  8
1
  6
CONTINUOUS
 62
     7
 10
-239.1777032361578
 20
330.9161641819217
 30
0.0
  0
VERTEX
  5
24F
  8
1
  6
CONTINUOUS
 62
     7
 10
-239.1637261667796
 20
330.468402083676
 30
0.0
  0
VERTEX
  5
250
  8
1
  6
CONTINUOUS
 62
     7
 10
-239.1497490974015
 20
330.0122563201573
 30
0.0
  0
VERTEX
  5
251
  8
1
  6
CONTINUOUS
 62
     7
 10
-239.1357720280233
 20
329.548103055169
 30
0.0
  0
VERTEX
  5
252
  8
1
  6
CONTINUOUS
 62
     7
 10
-239.1217949586452
 20
329.0763184525148
 30
0.0
  0
VERTEX
  5
253
  8
1
  6
CONTINUOUS
 62
     7
 10
-239.107817889267
 20
328.5972789024008
 30
0.0
  0
VERTEX
  5
254
  8
1
  6
CONTINUOUS
 62
     7
 10
-239.0938408198888
 20
328.111382227276
 30
0.0
  0
VERTEX
  5
255
  8
1
  6
CONTINUOUS
 62
     7
 10
-239.0798637505107
 20
327.6190650000611
 30
0.0
  0
VERTEX
  5
256
  8
1
  6
CONTINUOUS
 62
     7
 10
-239.0658866811325
 20
327.1207678693409
 30
0.0
  0
VERTEX
  5
257
  8
1
  6
CONTINUOUS
 62
     7
 10
-239.0519096117544
 20
326.6169314837002
 30
0.0
  0
VERTEX
  5
258
  8
1
  6
CONTINUOUS
 62
     7
 10
-239.0379325423762
 20
326.1079964917236
 30
0.0
  0
VERTEX
  5
259
  8
1
  6
CONTINUOUS
 62
     7
 10
-239.023955472998
 20
325.5944035419957
 30
0.0
  0
VERTEX
  5
25A
  8
1
  6
CONTINUOUS
 62
     7
 10
-239.0099784036199
 20
325.0765932831015
 30
0.0
  0
VERTEX
  5
25B
  8
1
  6
CONTINUOUS
 62
     7
 10
-238.9960013342417
 20
324.5550063636255
 30
0.0
  0
VERTEX
  5
25C
  8
1
  6
CONTINUOUS
 62
     7
 10
-238.9820242648636
 20
324.0300834321525
 30
0.0
  0
VERTEX
  5
25D
  8
1
  6
CONTINUOUS
 62
     7
 10
-238.9680471954854
 20
323.5022651372672
 30
0.0
  0
VERTEX
  5
25E
  8
1
  6
CONTINUOUS
 62
     7
 10
-238.9540701261072
 20
322.9719923576975
 30
0.0
  0
VERTEX
  5
25F
  8
1
  6
CONTINUOUS
 62
     7
 10
-238.940093056729
 20
322.4397144870121
 30
0.0
  0
VERTEX
  5
260
  8
1
  6
CONTINUOUS
 62
     7
 10
-238.9261159873509
 20
321.9058917362463
 30
0.0
  0
VERTEX
  5
261
  8
1
  6
CONTINUOUS
 62
     7
 10
-238.9121389179727
 20
321.3709850153898
 30
0.0
  0
VERTEX
  5
262
  8
1
  6
CONTINUOUS
 62
     7
 10
-238.8981618485946
 20
320.8354552344325
 30
0.0
  0
VERTEX
  5
263
  8
1
  6
CONTINUOUS
 62
     7
 10
-238.8841847792164
 20
320.2997633033644
 30
0.0
  0
VERTEX
  5
264
  8
1
  6
CONTINUOUS
 62
     7
 10
-238.8702077098382
 20
319.7643701321753
 30
0.0
  0
VERTEX
  5
265
  8
1
  6
CONTINUOUS
 62
     7
 10
-238.8562306404601
 20
319.2297366308549
 30
0.0
  0
VERTEX
  5
266
  8
1
  6
CONTINUOUS
 62
     7
 10
-238.842253571082
 20
318.6963237093934
 30
0.0
  0
VERTEX
  5
267
  8
1
  6
CONTINUOUS
 62
     7
 10
-238.8282765017038
 20
318.1645922777804
 30
0.0
  0
VERTEX
  5
268
  8
1
  6
CONTINUOUS
 62
     7
 10
-238.8142994323256
 20
317.6350032460058
 30
0.0
  0
VERTEX
  5
269
  8
1
  6
CONTINUOUS
 62
     7
 10
-238.8003223629474
 20
317.1080168389518
 30
0.0
  0
VERTEX
  5
26A
  8
1
  6
CONTINUOUS
 62
     7
 10
-238.7863452935693
 20
316.5840801748157
 30
0.0
  0
VERTEX
  5
26B
  8
1
  6
CONTINUOUS
 62
     7
 10
-238.7723682241912
 20
316.0636285878153
 30
0.0
  0
VERTEX
  5
26C
  8
1
  6
CONTINUOUS
 62
     7
 10
-238.7583911548129
 20
315.5470969925403
 30
0.0
  0
VERTEX
  5
26D
  8
1
  6
CONTINUOUS
 62
     7
 10
-238.7444140854348
 20
315.0349203035809
 30
0.0
  0
VERTEX
  5
26E
  8
1
  6
CONTINUOUS
 62
     7
 10
-238.7304370160567
 20
314.5275334355268
 30
0.0
  0
VERTEX
  5
26F
  8
1
  6
CONTINUOUS
 62
     7
 10
-238.7164599466785
 20
314.025371302968
 30
0.0
  0
VERTEX
  5
270
  8
1
  6
CONTINUOUS
 62
     7
 10
-238.7024828773003
 20
313.528868820494
 30
0.0
  0
VERTEX
  5
271
  8
1
  6
CONTINUOUS
 62
     7
 10
-238.6885058079222
 20
313.0384609026951
 30
0.0
  0
VERTEX
  5
272
  8
1
  6
CONTINUOUS
 62
     7
 10
-238.674528738544
 20
312.554582464161
 30
0.0
  0
VERTEX
  5
273
  8
1
  6
CONTINUOUS
 62
     7
 10
-238.6605516691658
 20
312.0776684194815
 30
0.0
  0
VERTEX
  5
274
  8
1
  6
CONTINUOUS
 62
     7
 10
-238.6465745997876
 20
311.6081501443286
 30
0.0
  0
VERTEX
  5
275
  8
1
  6
CONTINUOUS
 62
     7
 10
-238.6325975304095
 20
311.1464188130972
 30
0.0
  0
VERTEX
  5
276
  8
1
  6
CONTINUOUS
 62
     7
 10
-238.6186204610314
 20
310.6928401027321
 30
0.0
  0
VERTEX
  5
277
  8
1
  6
CONTINUOUS
 62
     7
 10
-238.6046433916532
 20
310.2477792845096
 30
0.0
  0
VERTEX
  5
278
  8
1
  6
CONTINUOUS
 62
     7
 10
-238.590666322275
 20
309.8116016297059
 30
0.0
  0
VERTEX
  5
279
  8
1
  6
CONTINUOUS
 62
     7
 10
-238.5766892528969
 20
309.3846724095972
 30
0.0
  0
VERTEX
  5
27A
  8
1
  6
CONTINUOUS
 62
     7
 10
-238.5627121835187
 20
308.9673568954597
 30
0.0
  0
VERTEX
  5
27B
  8
1
  6
CONTINUOUS
 62
     7
 10
-238.5487351141406
 20
308.5600203585695
 30
0.0
  0
VERTEX
  5
27C
  8
1
  6
CONTINUOUS
 62
     7
 10
-238.5347580447624
 20
308.1630280702031
 30
0.0
  0
VERTEX
  5
27D
  8
1
  6
CONTINUOUS
 62
     7
 10
-238.5207809753843
 20
307.7767453016367
 30
0.0
  0
VERTEX
  5
27E
  8
1
  6
CONTINUOUS
 62
     7
 10
-238.506803906006
 20
307.4015373241461
 30
0.0
  0
VERTEX
  5
27F
  8
1
  6
CONTINUOUS
 62
     7
 10
-238.4928268366279
 20
307.0377601550417
 30
0.0
  0
VERTEX
  5
280
  8
1
  6
CONTINUOUS
 62
     7
 10
-238.4788497672497
 20
306.6857025797199
 30
0.0
  0
VERTEX
  5
281
  8
1
  6
CONTINUOUS
 62
     7
 10
-238.4648726978716
 20
306.3456236982971
 30
0.0
  0
VERTEX
  5
282
  8
1
  6
CONTINUOUS
 62
     7
 10
-238.4508956284934
 20
306.0177824802065
 30
0.0
  0
VERTEX
  5
283
  8
1
  6
CONTINUOUS
 62
     7
 10
-238.4369185591152
 20
305.7024378948819
 30
0.0
  0
VERTEX
  5
284
  8
1
  6
CONTINUOUS
 62
     7
 10
-238.4229414897371
 20
305.3998489117565
 30
0.0
  0
VERTEX
  5
285
  8
1
  6
CONTINUOUS
 62
     7
 10
-238.4089644203589
 20
305.1102745002642
 30
0.0
  0
VERTEX
  5
286
  8
1
  6
CONTINUOUS
 62
     7
 10
-238.3949873509808
 20
304.8339736298381
 30
0.0
  0
VERTEX
  5
287
  8
1
  6
CONTINUOUS
 62
     7
 10
-238.3810102816026
 20
304.571205269912
 30
0.0
  0
VERTEX
  5
288
  8
1
  6
CONTINUOUS
 62
     7
 10
-238.3670332122245
 20
304.3222283899194
 30
0.0
  0
VERTEX
  5
289
  8
1
  6
CONTINUOUS
 62
     7
 10
-238.3530561428463
 20
304.0873019592937
 30
0.0
  0
VERTEX
  5
28A
  8
1
  6
CONTINUOUS
 62
     7
 10
-238.3390790734682
 20
303.8666667723448
 30
0.0
  0
VERTEX
  5
28B
  8
1
  6
CONTINUOUS
 62
     7
 10
-238.32510200409
 20
303.6604759273126
 30
0.0
  0
VERTEX
  5
28C
  8
1
  6
CONTINUOUS
 62
     7
 10
-238.3111249347118
 20
303.4688561070335
 30
0.0
  0
VERTEX
  5
28D
  8
1
  6
CONTINUOUS
 62
     7
 10
-238.2971478653336
 20
303.2919339889937
 30
0.0
  0
VERTEX
  5
28E
  8
1
  6
CONTINUOUS
 62
     7
 10
-238.2831707959555
 20
303.1298362506802
 30
0.0
  0
VERTEX
  5
28F
  8
1
  6
CONTINUOUS
 62
     7
 10
-238.2691937265773
 20
302.9826895695796
 30
0.0
  0
VERTEX
  5
290
  8
1
  6
CONTINUOUS
 62
     7
 10
-238.2552166571992
 20
302.8506206231785
 30
0.0
  0
VERTEX
  5
291
  8
1
  6
CONTINUOUS
 62
     7
 10
-238.241239587821
 20
302.7337560889638
 30
0.0
  0
VERTEX
  5
292
  8
1
  6
CONTINUOUS
 62
     7
 10
-238.2272625184428
 20
302.6322226444219
 30
0.0
  0
VERTEX
  5
293
  8
1
  6
CONTINUOUS
 62
     7
 10
-238.2132854490647
 20
302.5461469670397
 30
0.0
  0
VERTEX
  5
294
  8
1
  6
CONTINUOUS
 62
     7
 10
-238.1993083796866
 20
302.4756557260425
 30
0.0
  0
VERTEX
  5
295
  8
1
  6
CONTINUOUS
 62
     7
 10
-238.1853313103084
 20
302.4208460240017
 30
0.0
  0
VERTEX
  5
296
  8
1
  6
CONTINUOUS
 62
     7
 10
-238.1713542409302
 20
302.3817189774443
 30
0.0
  0
VERTEX
  5
297
  8
1
  6
CONTINUOUS
 62
     7
 10
-238.1573771715521
 20
302.3582562585909
 30
0.0
  0
VERTEX
  5
298
  8
1
  6
CONTINUOUS
 62
     7
 10
-238.1434001021739
 20
302.3504395396623
 30
0.0
  0
SEQEND
  5
4A9
  8
1
  6
CONTINUOUS
 62
     7
  0
LINE
  5
85
  8
1
  6
CONTINUOUS
 62
     7
 10
-242.5969453805344
 20
338.8637169535958
 30
0.0
 11
-242.5535819816805
 21
338.627320257938
 31
0.0
  0
POLYLINE
  5
86
  8
1
  6
CONTINUOUS
 62
     7
 66
     1
 10
0.0
 20
0.0
 30
0.0
  0
VERTEX
  5
299
  8
1
  6
CONTINUOUS
 62
     7
 10
-242.5535819816805
 20
338.627320257938
 30
0.0
  0
VERTEX
  5
29A
  8
1
  6
CONTINUOUS
 62
     7
 10
-242.5388909945588
 20
338.5135382664601
 30
0.0
  0
VERTEX
  5
29B
  8
1
  6
CONTINUOUS
 62
     7
 10
-242.5242000074371
 20
338.3829123459856
 30
0.0
  0
VERTEX
  5
29C
  8
1
  6
CONTINUOUS
 62
     7
 10
-242.5095090203154
 20
338.2355690143823
 30
0.0
  0
VERTEX
  5
29D
  8
1
  6
CONTINUOUS
 62
     7
 10
-242.4948180331937
 20
338.0716347895177
 30
0.0
  0
VERTEX
  5
29E
  8
1
  6
CONTINUOUS
 62
     7
 10
-242.480127046072
 20
337.8912361892594
 30
0.0
  0
VERTEX
  5
29F
  8
1
  6
CONTINUOUS
 62
     7
 10
-242.4654360589503
 20
337.694499731475
 30
0.0
  0
VERTEX
  5
2A0
  8
1
  6
CONTINUOUS
 62
     7
 10
-242.4507450718287
 20
337.4815520967262
 30
0.0
  0
VERTEX
  5
2A1
  8
1
  6
CONTINUOUS
 62
     7
 10
-242.4360540847069
 20
337.2525625816738
 30
0.0
  0
VERTEX
  5
2A2
  8
1
  6
CONTINUOUS
 62
     7
 10
-242.4213630975853
 20
337.0077999038778
 30
0.0
  0
VERTEX
  5
2A3
  8
1
  6
CONTINUOUS
 62
     7
 10
-242.4066721104636
 20
336.7475469323806
 30
0.0
  0
VERTEX
  5
2A4
  8
1
  6
CONTINUOUS
 62
     7
 10
-242.3919811233418
 20
336.4720865362244
 30
0.0
  0
VERTEX
  5
2A5
  8
1
  6
CONTINUOUS
 62
     7
 10
-242.3772901362202
 20
336.1817015844518
 30
0.0
  0
VERTEX
  5
2A6
  8
1
  6
CONTINUOUS
 62
     7
 10
-242.3625991490985
 20
335.8766749461049
 30
0.0
  0
VERTEX
  5
2A7
  8
1
  6
CONTINUOUS
 62
     7
 10
-242.3479081619768
 20
335.5572894902263
 30
0.0
  0
VERTEX
  5
2A8
  8
1
  6
CONTINUOUS
 62
     7
 10
-242.3332171748551
 20
335.223828085858
 30
0.0
  0
VERTEX
  5
2A9
  8
1
  6
CONTINUOUS
 62
     7
 10
-242.3185261877335
 20
334.8765736020426
 30
0.0
  0
VERTEX
  5
2AA
  8
1
  6
CONTINUOUS
 62
     7
 10
-242.3038352006117
 20
334.5158089078224
 30
0.0
  0
VERTEX
  5
2AB
  8
1
  6
CONTINUOUS
 62
     7
 10
-242.28914421349
 20
334.141829719421
 30
0.0
  0
VERTEX
  5
2AC
  8
1
  6
CONTINUOUS
 62
     7
 10
-242.2744532263684
 20
333.7550142095724
 30
0.0
  0
VERTEX
  5
2AD
  8
1
  6
CONTINUOUS
 62
     7
 10
-242.2597622392466
 20
333.355773129718
 30
0.0
  0
VERTEX
  5
2AE
  8
1
  6
CONTINUOUS
 62
     7
 10
-242.2450712521251
 20
332.9445173114128
 30
0.0
  0
VERTEX
  5
2AF
  8
1
  6
CONTINUOUS
 62
     7
 10
-242.2303802650033
 20
332.5216575862108
 30
0.0
  0
VERTEX
  5
2B0
  8
1
  6
CONTINUOUS
 62
     7
 10
-242.2156892778816
 20
332.0876047856668
 30
0.0
  0
VERTEX
  5
2B1
  8
1
  6
CONTINUOUS
 62
     7
 10
-242.2009982907599
 20
331.6427697413352
 30
0.0
  0
VERTEX
  5
2B2
  8
1
  6
CONTINUOUS
 62
     7
 10
-242.1863073036382
 20
331.1875632847706
 30
0.0
  0
VERTEX
  5
2B3
  8
1
  6
CONTINUOUS
 62
     7
 10
-242.1716163165165
 20
330.7223962475274
 30
0.0
  0
VERTEX
  5
2B4
  8
1
  6
CONTINUOUS
 62
     7
 10
-242.1569253293949
 20
330.2476794611602
 30
0.0
  0
VERTEX
  5
2B5
  8
1
  6
CONTINUOUS
 62
     7
 10
-242.1422343422732
 20
329.7638256184787
 30
0.0
  0
VERTEX
  5
2B6
  8
1
  6
CONTINUOUS
 62
     7
 10
-242.1275433551515
 20
329.2712892396871
 30
0.0
  0
VERTEX
  5
2B7
  8
1
  6
CONTINUOUS
 62
     7
 10
-242.1128523680298
 20
328.770566134277
 30
0.0
  0
VERTEX
  5
2B8
  8
1
  6
CONTINUOUS
 62
     7
 10
-242.0981613809081
 20
328.2621538653688
 30
0.0
  0
VERTEX
  5
2B9
  8
1
  6
CONTINUOUS
 62
     7
 10
-242.0834703937864
 20
327.7465499960824
 30
0.0
  0
VERTEX
  5
2BA
  8
1
  6
CONTINUOUS
 62
     7
 10
-242.0687794066648
 20
327.2242520895378
 30
0.0
  0
VERTEX
  5
2BB
  8
1
  6
CONTINUOUS
 62
     7
 10
-242.054088419543
 20
326.6957577088553
 30
0.0
  0
VERTEX
  5
2BC
  8
1
  6
CONTINUOUS
 62
     7
 10
-242.0393974324214
 20
326.161564417155
 30
0.0
  0
VERTEX
  5
2BD
  8
1
  6
CONTINUOUS
 62
     7
 10
-242.0247064452997
 20
325.6221697775568
 30
0.0
  0
VERTEX
  5
2BE
  8
1
  6
CONTINUOUS
 62
     7
 10
-242.010015458178
 20
325.0780713531809
 30
0.0
  0
VERTEX
  5
2BF
  8
1
  6
CONTINUOUS
 62
     7
 10
-241.9953244710563
 20
324.5297667348856
 30
0.0
  0
VERTEX
  5
2C0
  8
1
  6
CONTINUOUS
 62
     7
 10
-241.9806334839346
 20
323.9777631088305
 30
0.0
  0
VERTEX
  5
2C1
  8
1
  6
CONTINUOUS
 62
     7
 10
-241.9659424968129
 20
323.4225912688708
 30
0.0
  0
VERTEX
  5
2C2
  8
1
  6
CONTINUOUS
 62
     7
 10
-241.9512515096912
 20
322.8647855743886
 30
0.0
  0
VERTEX
  5
2C3
  8
1
  6
CONTINUOUS
 62
     7
 10
-241.9365605225695
 20
322.304880384766
 30
0.0
  0
VERTEX
  5
2C4
  8
1
  6
CONTINUOUS
 62
     7
 10
-241.9218695354479
 20
321.743410059385
 30
0.0
  0
VERTEX
  5
2C5
  8
1
  6
CONTINUOUS
 62
     7
 10
-241.9071785483262
 20
321.1809089576278
 30
0.0
  0
VERTEX
  5
2C6
  8
1
  6
CONTINUOUS
 62
     7
 10
-241.8924875612045
 20
320.6179114388762
 30
0.0
  0
VERTEX
  5
2C7
  8
1
  6
CONTINUOUS
 62
     7
 10
-241.8777965740828
 20
320.0549518625123
 30
0.0
  0
VERTEX
  5
2C8
  8
1
  6
CONTINUOUS
 62
     7
 10
-241.8631055869611
 20
319.4925645879183
 30
0.0
  0
VERTEX
  5
2C9
  8
1
  6
CONTINUOUS
 62
     7
 10
-241.8484145998394
 20
318.9312839744761
 30
0.0
  0
VERTEX
  5
2CA
  8
1
  6
CONTINUOUS
 62
     7
 10
-241.8337236127177
 20
318.3716428018072
 30
0.0
  0
VERTEX
  5
2CB
  8
1
  6
CONTINUOUS
 62
     7
 10
-241.819032625596
 20
317.8141630945995
 30
0.0
  0
VERTEX
  5
2CC
  8
1
  6
CONTINUOUS
 62
     7
 10
-241.8043416384743
 20
317.2593623951623
 30
0.0
  0
VERTEX
  5
2CD
  8
1
  6
CONTINUOUS
 62
     7
 10
-241.7896506513526
 20
316.7077582309726
 30
0.0
  0
VERTEX
  5
2CE
  8
1
  6
CONTINUOUS
 62
     7
 10
-241.7749596642309
 20
316.1598681295076
 30
0.0
  0
VERTEX
  5
2CF
  8
1
  6
CONTINUOUS
 62
     7
 10
-241.7602686771092
 20
315.6162096182445
 30
0.0
  0
VERTEX
  5
2D0
  8
1
  6
CONTINUOUS
 62
     7
 10
-241.7455776899876
 20
315.0773002246605
 30
0.0
  0
VERTEX
  5
2D1
  8
1
  6
CONTINUOUS
 62
     7
 10
-241.7308867028659
 20
314.5436574762328
 30
0.0
  0
VERTEX
  5
2D2
  8
1
  6
CONTINUOUS
 62
     7
 10
-241.7161957157442
 20
314.0157989004385
 30
0.0
  0
VERTEX
  5
2D3
  8
1
  6
CONTINUOUS
 62
     7
 10
-241.7015047286226
 20
313.494242024755
 30
0.0
  0
VERTEX
  5
2D4
  8
1
  6
CONTINUOUS
 62
     7
 10
-241.6868137415008
 20
312.9795030592901
 30
0.0
  0
VERTEX
  5
2D5
  8
1
  6
CONTINUOUS
 62
     7
 10
-241.6721227543791
 20
312.4720658576402
 30
0.0
  0
VERTEX
  5
2D6
  8
1
  6
CONTINUOUS
 62
     7
 10
-241.6574317672575
 20
311.9723807310834
 30
0.0
  0
VERTEX
  5
2D7
  8
1
  6
CONTINUOUS
 62
     7
 10
-241.6427407801358
 20
311.4808964362707
 30
0.0
  0
VERTEX
  5
2D8
  8
1
  6
CONTINUOUS
 62
     7
 10
-241.6280497930141
 20
310.9980617298529
 30
0.0
  0
VERTEX
  5
2D9
  8
1
  6
CONTINUOUS
 62
     7
 10
-241.6133588058924
 20
310.5243253684814
 30
0.0
  0
VERTEX
  5
2DA
  8
1
  6
CONTINUOUS
 62
     7
 10
-241.5986678187707
 20
310.0601361088071
 30
0.0
  0
VERTEX
  5
2DB
  8
1
  6
CONTINUOUS
 62
     7
 10
-241.583976831649
 20
309.6059427074811
 30
0.0
  0
VERTEX
  5
2DC
  8
1
  6
CONTINUOUS
 62
     7
 10
-241.5692858445273
 20
309.1621939211544
 30
0.0
  0
VERTEX
  5
2DD
  8
1
  6
CONTINUOUS
 62
     7
 10
-241.5545948574057
 20
308.7293385064782
 30
0.0
  0
VERTEX
  5
2DE
  8
1
  6
CONTINUOUS
 62
     7
 10
-241.539903870284
 20
308.307825160321
 30
0.0
  0
VERTEX
  5
2DF
  8
1
  6
CONTINUOUS
 62
     7
 10
-241.5252128831623
 20
307.8980742245874
 30
0.0
  0
VERTEX
  5
2E0
  8
1
  6
CONTINUOUS
 62
     7
 10
-241.5105218960406
 20
307.5004324363603
 30
0.0
  0
VERTEX
  5
2E1
  8
1
  6
CONTINUOUS
 62
     7
 10
-241.4958309089189
 20
307.1152347443651
 30
0.0
  0
VERTEX
  5
2E2
  8
1
  6
CONTINUOUS
 62
     7
 10
-241.4811399217973
 20
306.742816097328
 30
0.0
  0
VERTEX
  5
2E3
  8
1
  6
CONTINUOUS
 62
     7
 10
-241.4664489346755
 20
306.383511443974
 30
0.0
  0
VERTEX
  5
2E4
  8
1
  6
CONTINUOUS
 62
     7
 10
-241.4517579475538
 20
306.0376557330292
 30
0.0
  0
VERTEX
  5
2E5
  8
1
  6
CONTINUOUS
 62
     7
 10
-241.4370669604322
 20
305.7055839132192
 30
0.0
  0
VERTEX
  5
2E6
  8
1
  6
CONTINUOUS
 62
     7
 10
-241.4223759733104
 20
305.3876309332696
 30
0.0
  0
VERTEX
  5
2E7
  8
1
  6
CONTINUOUS
 62
     7
 10
-241.4076849861887
 20
305.0841317419061
 30
0.0
  0
VERTEX
  5
2E8
  8
1
  6
CONTINUOUS
 62
     7
 10
-241.392993999067
 20
304.7954212878543
 30
0.0
  0
VERTEX
  5
2E9
  8
1
  6
CONTINUOUS
 62
     7
 10
-241.3783030119454
 20
304.5218216051376
 30
0.0
  0
VERTEX
  5
2EA
  8
1
  6
CONTINUOUS
 62
     7
 10
-241.3636120248237
 20
304.2635614055625
 30
0.0
  0
VERTEX
  5
2EB
  8
1
  6
CONTINUOUS
 62
     7
 10
-241.348921037702
 20
304.0208283911194
 30
0.0
  0
VERTEX
  5
2EC
  8
1
  6
CONTINUOUS
 62
     7
 10
-241.3342300505803
 20
303.7938100872428
 30
0.0
  0
VERTEX
  5
2ED
  8
1
  6
CONTINUOUS
 62
     7
 10
-241.3195390634586
 20
303.5826940193669
 30
0.0
  0
VERTEX
  5
2EE
  8
1
  6
CONTINUOUS
 62
     7
 10
-241.3048480763369
 20
303.3876677129262
 30
0.0
  0
VERTEX
  5
2EF
  8
1
  6
CONTINUOUS
 62
     7
 10
-241.2901570892153
 20
303.2089186933551
 30
0.0
  0
VERTEX
  5
2F0
  8
1
  6
CONTINUOUS
 62
     7
 10
-241.2754661020935
 20
303.0466344860881
 30
0.0
  0
VERTEX
  5
2F1
  8
1
  6
CONTINUOUS
 62
     7
 10
-241.2607751149719
 20
302.9010026165594
 30
0.0
  0
VERTEX
  5
2F2
  8
1
  6
CONTINUOUS
 62
     7
 10
-241.2460841278502
 20
302.7722106102034
 30
0.0
  0
VERTEX
  5
2F3
  8
1
  6
CONTINUOUS
 62
     7
 10
-241.2313931407285
 20
302.6604431624918
 30
0.0
  0
VERTEX
  5
2F4
  8
1
  6
CONTINUOUS
 62
     7
 10
-241.2167021536068
 20
302.5658087345023
 30
0.0
  0
VERTEX
  5
2F5
  8
1
  6
CONTINUOUS
 62
     7
 10
-241.2020111664851
 20
302.4883327933174
 30
0.0
  0
VERTEX
  5
2F6
  8
1
  6
CONTINUOUS
 62
     7
 10
-241.1873201793634
 20
302.4280366210773
 30
0.0
  0
VERTEX
  5
2F7
  8
1
  6
CONTINUOUS
 62
     7
 10
-241.1726291922417
 20
302.384941499922
 30
0.0
  0
VERTEX
  5
2F8
  8
1
  6
CONTINUOUS
 62
     7
 10
-241.15793820512
 20
302.3590687119912
 30
0.0
  0
VERTEX
  5
2F9
  8
1
  6
CONTINUOUS
 62
     7
 10
-241.1432472179983
 20
302.350439539425
 30
0.0
  0
SEQEND
  5
4AA
  8
1
  6
CONTINUOUS
 62
     7
  0
ARC
  5
87
  8
1
  6
CONTINUOUS
 62
     7
 10
-275.5176764462159
 20
332.9211974658884
 30
0.0
 40
33.62049409008889
 50
0.6910480065042407
 51
7.580987463120091
  0
LINE
  5
88
  8
1
  6
CONTINUOUS
 62
     7
 10
-241.7477289661806
 20
329.2421172450771
 30
0.0
 11
-241.8996277003579
 21
333.3266865320977
 31
0.0
  0
LINE
  5
89
  8
1
  6
CONTINUOUS
 62
     7
 10
-241.5958302320035
 20
324.2952453349868
 30
0.0
 11
-241.7477289661806
 21
329.2421172450771
 31
0.0
  0
LINE
  5
8A
  8
1
  6
CONTINUOUS
 62
     7
 10
-241.4439314978262
 20
318.9825375634299
 30
0.0
 11
-241.5958302320035
 21
324.2952453349868
 31
0.0
  0
LINE
  5
8B
  8
1
  6
CONTINUOUS
 62
     7
 10
-241.292032763649
 20
313.8371758827089
 30
0.0
 11
-241.4439314978262
 21
318.9825375634299
 31
0.0
  0
LINE
  5
8C
  8
1
  6
CONTINUOUS
 62
     7
 10
-241.1401340294718
 20
309.3755474355233
 30
0.0
 11
-241.292032763649
 21
313.8371758827089
 31
0.0
  0
LINE
  5
8D
  8
1
  6
CONTINUOUS
 62
     7
 10
-240.9882352952944
 20
306.0454200773875
 30
0.0
 11
-241.1401340294718
 21
309.3755474355233
 31
0.0
  0
LINE
  5
8E
  8
1
  6
CONTINUOUS
 62
     7
 10
-240.8363365611175
 20
304.1810045126335
 30
0.0
 11
-240.9882352952944
 21
306.0454200773875
 31
0.0
  0
LINE
  5
8F
  8
1
  6
CONTINUOUS
 62
     7
 10
-239.0135517509908
 20
335.5731485335098
 30
0.0
 11
-239.1911243952222
 21
337.3569520987071
 31
0.0
  0
LINE
  5
90
  8
1
  6
CONTINUOUS
 62
     7
 10
-238.8616530168137
 20
332.4107078467704
 30
0.0
 11
-239.0135517509908
 21
335.5731485335098
 31
0.0
  0
LINE
  5
91
  8
1
  6
CONTINUOUS
 62
     7
 10
-238.7097542826364
 20
328.0679656189495
 30
0.0
 11
-238.8616530168137
 21
332.4107078467704
 31
0.0
  0
LINE
  5
92
  8
1
  6
CONTINUOUS
 62
     7
 10
-238.5578555484592
 20
322.9807583159169
 30
0.0
 11
-238.7097542826364
 21
328.0679656189495
 31
0.0
  0
LINE
  5
93
  8
1
  6
CONTINUOUS
 62
     7
 10
-238.4059568142818
 20
317.6596367223446
 30
0.0
 11
-238.5578555484592
 21
322.9807583159169
 31
0.0
  0
LINE
  5
94
  8
1
  6
CONTINUOUS
 62
     7
 10
-238.2540580801048
 20
312.6386271995012
 30
0.0
 11
-238.4059568142818
 21
317.6596367223446
 31
0.0
  0
LINE
  5
95
  8
1
  6
CONTINUOUS
 62
     7
 10
-238.1021593459275
 20
308.4216369402677
 30
0.0
 11
-238.2540580801048
 21
312.6386271995012
 31
0.0
  0
LINE
  5
96
  8
1
  6
CONTINUOUS
 62
     7
 10
-237.9502606117503
 20
305.4318819760813
 30
0.0
 11
-238.1021593459275
 21
308.4216369402677
 31
0.0
  0
LINE
  5
97
  8
1
  6
CONTINUOUS
 62
     7
 10
-237.7983618775732
 20
303.9694133274762
 30
0.0
 11
-237.9502606117503
 21
305.4318819760813
 31
0.0
  0
LINE
  5
98
  8
1
  6
CONTINUOUS
 62
     7
 10
-236.1274758016236
 20
336.9740452416602
 30
0.0
 11
-236.1910655174058
 21
337.356734235271
 31
0.0
  0
LINE
  5
99
  8
1
  6
CONTINUOUS
 62
     7
 10
-235.9755770674465
 20
334.9129212186738
 30
0.0
 11
-236.1274758016236
 21
336.9740452416602
 31
0.0
  0
LINE
  5
9A
  8
1
  6
CONTINUOUS
 62
     7
 10
-235.8236783332698
 20
331.4203741798398
 30
0.0
 11
-235.9755770674465
 21
334.9129212186738
 31
0.0
  0
LINE
  5
9B
  8
1
  6
CONTINUOUS
 62
     7
 10
-235.6717795990902
 20
326.8469152257462
 30
0.0
 11
-235.8236783332698
 21
331.4203741798398
 31
0.0
  0
LINE
  5
9C
  8
1
  6
CONTINUOUS
 62
     7
 10
-235.5198808649225
 20
321.6515354926076
 30
0.0
 11
-235.6717795990902
 21
326.8469152257462
 31
0.0
  0
LINE
  5
9D
  8
1
  6
CONTINUOUS
 62
     7
 10
-235.3679821307097
 20
316.3556419197689
 30
0.0
 11
-235.5198808649225
 21
321.6515354926076
 31
0.0
  0
LINE
  5
9E
  8
1
  6
CONTINUOUS
 62
     7
 10
-235.2190028648791
 20
311.5769886010108
 30
0.0
 11
-235.3679821307097
 21
316.3556419197689
 31
0.0
  0
LINE
  5
9F
  8
1
  6
CONTINUOUS
 62
     7
 10
-234.7603871937856
 20
303.8632821815808
 30
0.0
 11
-234.8037868321202
 21
303.9932079123443
 31
0.0
  0
ARC
  5
A0
  8
1
  6
CONTINUOUS
 62
     7
 10
-200.9513908922423
 20
308.2605129374009
 30
0.0
 40
34.12029605743678
 50
181.2015339478157
 51
187.1845944256658
  0
ARC
  5
A1
  8
1
  6
CONTINUOUS
 62
     7
 10
-95.80139718800892
 20
314.6830341420451
 30
0.0
 40
146.7980532307048
 50
180.5630690738519
 51
184.7854475848681
  0
POLYLINE
  5
A2
  8
1
  6
CONTINUOUS
 62
     7
 66
     1
 10
0.0
 20
0.0
 30
0.0
  0
VERTEX
  5
2FA
  8
1
  6
CONTINUOUS
 62
     7
 10
-239.0877356748068
 20
302.4361412041259
 30
0.0
  0
VERTEX
  5
2FB
  8
1
  6
CONTINUOUS
 62
     7
 10
-239.1017132148097
 20
302.4958128268258
 30
0.0
  0
VERTEX
  5
2FC
  8
1
  6
CONTINUOUS
 62
     7
 10
-239.1156907548127
 20
302.5711467760258
 30
0.0
  0
VERTEX
  5
2FD
  8
1
  6
CONTINUOUS
 62
     7
 10
-239.1296682948157
 20
302.6620269813302
 30
0.0
  0
VERTEX
  5
2FE
  8
1
  6
CONTINUOUS
 62
     7
 10
-239.1436458348187
 20
302.7683267524913
 30
0.0
  0
VERTEX
  5
2FF
  8
1
  6
CONTINUOUS
 62
     7
 10
-239.1576233748217
 20
302.8899193992615
 30
0.0
  0
VERTEX
  5
300
  8
1
  6
CONTINUOUS
 62
     7
 10
-239.1716009148247
 20
303.026678231393
 30
0.0
  0
VERTEX
  5
301
  8
1
  6
CONTINUOUS
 62
     7
 10
-239.1855784548276
 20
303.178476558638
 30
0.0
  0
VERTEX
  5
302
  8
1
  6
CONTINUOUS
 62
     7
 10
-239.1995559948307
 20
303.3451876907492
 30
0.0
  0
VERTEX
  5
303
  8
1
  6
CONTINUOUS
 62
     7
 10
-239.2135335348337
 20
303.5266849374785
 30
0.0
  0
VERTEX
  5
304
  8
1
  6
CONTINUOUS
 62
     7
 10
-239.2275110748366
 20
303.7228416085784
 30
0.0
  0
VERTEX
  5
305
  8
1
  6
CONTINUOUS
 62
     7
 10
-239.2414886148396
 20
303.9335310138013
 30
0.0
  0
VERTEX
  5
306
  8
1
  6
CONTINUOUS
 62
     7
 10
-239.2554661548426
 20
304.1586253238777
 30
0.0
  0
VERTEX
  5
307
  8
1
  6
CONTINUOUS
 62
     7
 10
-239.2694436948455
 20
304.3979442637638
 30
0.0
  0
VERTEX
  5
308
  8
1
  6
CONTINUOUS
 62
     7
 10
-239.2834212348485
 20
304.651234288307
 30
0.0
  0
VERTEX
  5
309
  8
1
  6
CONTINUOUS
 62
     7
 10
-239.2973987748516
 20
304.9182364019438
 30
0.0
  0
VERTEX
  5
30A
  8
1
  6
CONTINUOUS
 62
     7
 10
-239.3113763148545
 20
305.1986916091113
 30
0.0
  0
VERTEX
  5
30B
  8
1
  6
CONTINUOUS
 62
     7
 10
-239.3253538548575
 20
305.4923409142463
 30
0.0
  0
VERTEX
  5
30C
  8
1
  6
CONTINUOUS
 62
     7
 10
-239.3393313948605
 20
305.7989253217852
 30
0.0
  0
VERTEX
  5
30D
  8
1
  6
CONTINUOUS
 62
     7
 10
-239.3533089348635
 20
306.1181858361651
 30
0.0
  0
VERTEX
  5
30E
  8
1
  6
CONTINUOUS
 62
     7
 10
-239.3672864748664
 20
306.4498634618228
 30
0.0
  0
VERTEX
  5
30F
  8
1
  6
CONTINUOUS
 62
     7
 10
-239.3812640148694
 20
306.7936992031949
 30
0.0
  0
VERTEX
  5
310
  8
1
  6
CONTINUOUS
 62
     7
 10
-239.3952415548724
 20
307.1494340647184
 30
0.0
  0
VERTEX
  5
311
  8
1
  6
CONTINUOUS
 62
     7
 10
-239.4092190948754
 20
307.5168067678136
 30
0.0
  0
VERTEX
  5
312
  8
1
  6
CONTINUOUS
 62
     7
 10
-239.4231966348784
 20
307.8955047557307
 30
0.0
  0
VERTEX
  5
313
  8
1
  6
CONTINUOUS
 62
     7
 10
-239.4371741748814
 20
308.2851648683627
 30
0.0
  0
VERTEX
  5
314
  8
1
  6
CONTINUOUS
 62
     7
 10
-239.4511517148844
 20
308.6854217975576
 30
0.0
  0
VERTEX
  5
315
  8
1
  6
CONTINUOUS
 62
     7
 10
-239.4651292548873
 20
309.0959102351632
 30
0.0
  0
VERTEX
  5
316
  8
1
  6
CONTINUOUS
 62
     7
 10
-239.4791067948903
 20
309.516264873027
 30
0.0
  0
VERTEX
  5
317
  8
1
  6
CONTINUOUS
 62
     7
 10
-239.4930843348933
 20
309.9461204029971
 30
0.0
  0
VERTEX
  5
318
  8
1
  6
CONTINUOUS
 62
     7
 10
-239.5070618748963
 20
310.385111516921
 30
0.0
  0
VERTEX
  5
319
  8
1
  6
CONTINUOUS
 62
     7
 10
-239.5210394148993
 20
310.8328729066463
 30
0.0
  0
VERTEX
  5
31A
  8
1
  6
CONTINUOUS
 62
     7
 10
-239.5350169549023
 20
311.2890392640211
 30
0.0
  0
VERTEX
  5
31B
  8
1
  6
CONTINUOUS
 62
     7
 10
-239.5489944949052
 20
311.7532452808929
 30
0.0
  0
VERTEX
  5
31C
  8
1
  6
CONTINUOUS
 62
     7
 10
-239.5629720349083
 20
312.2251226382454
 30
0.0
  0
VERTEX
  5
31D
  8
1
  6
CONTINUOUS
 62
     7
 10
-239.5769495749112
 20
312.7042640684846
 30
0.0
  0
VERTEX
  5
31E
  8
1
  6
CONTINUOUS
 62
     7
 10
-239.5909271149142
 20
313.1902351649915
 30
0.0
  0
VERTEX
  5
31F
  8
1
  6
CONTINUOUS
 62
     7
 10
-239.6049046549172
 20
313.6826009692543
 30
0.0
  0
VERTEX
  5
320
  8
1
  6
CONTINUOUS
 62
     7
 10
-239.6188821949202
 20
314.180926522762
 30
0.0
  0
VERTEX
  5
321
  8
1
  6
CONTINUOUS
 62
     7
 10
-239.6328597349232
 20
314.6847768670032
 30
0.0
  0
VERTEX
  5
322
  8
1
  6
CONTINUOUS
 62
     7
 10
-239.6468372749262
 20
315.1937170434663
 30
0.0
  0
VERTEX
  5
323
  8
1
  6
CONTINUOUS
 62
     7
 10
-239.6608148149292
 20
315.70731209364
 30
0.0
  0
VERTEX
  5
324
  8
1
  6
CONTINUOUS
 62
     7
 10
-239.6747923549322
 20
316.2251270590131
 30
0.0
  0
VERTEX
  5
325
  8
1
  6
CONTINUOUS
 62
     7
 10
-239.6887698949351
 20
316.746726981074
 30
0.0
  0
VERTEX
  5
326
  8
1
  6
CONTINUOUS
 62
     7
 10
-239.7027474349381
 20
317.2716769013114
 30
0.0
  0
VERTEX
  5
327
  8
1
  6
CONTINUOUS
 62
     7
 10
-239.7167249749411
 20
317.7995398800442
 30
0.0
  0
VERTEX
  5
328
  8
1
  6
CONTINUOUS
 62
     7
 10
-239.7307025149441
 20
318.3298628588442
 30
0.0
  0
VERTEX
  5
329
  8
1
  6
CONTINUOUS
 62
     7
 10
-239.7446800549471
 20
318.8621849336142
 30
0.0
  0
VERTEX
  5
32A
  8
1
  6
CONTINUOUS
 62
     7
 10
-239.7586575949501
 20
319.3960451478052
 30
0.0
  0
VERTEX
  5
32B
  8
1
  6
CONTINUOUS
 62
     7
 10
-239.772635134953
 20
319.9309825448685
 30
0.0
  0
VERTEX
  5
32C
  8
1
  6
CONTINUOUS
 62
     7
 10
-239.7866126749559
 20
320.4665361682549
 30
0.0
  0
VERTEX
  5
32D
  8
1
  6
CONTINUOUS
 62
     7
 10
-239.800590214959
 20
321.002245061416
 30
0.0
  0
VERTEX
  5
32E
  8
1
  6
CONTINUOUS
 62
     7
 10
-239.814567754962
 20
321.5376482678025
 30
0.0
  0
VERTEX
  5
32F
  8
1
  6
CONTINUOUS
 62
     7
 10
-239.8285452949649
 20
322.0722848308656
 30
0.0
  0
VERTEX
  5
330
  8
1
  6
CONTINUOUS
 62
     7
 10
-239.842522834968
 20
322.6056937940565
 30
0.0
  0
VERTEX
  5
331
  8
1
  6
CONTINUOUS
 62
     7
 10
-239.8565003749709
 20
323.1374142008262
 30
0.0
  0
VERTEX
  5
332
  8
1
  6
CONTINUOUS
 62
     7
 10
-239.8704779149739
 20
323.6669875817191
 30
0.0
  0
VERTEX
  5
333
  8
1
  6
CONTINUOUS
 62
     7
 10
-239.8844554549769
 20
324.1939687949967
 30
0.0
  0
VERTEX
  5
334
  8
1
  6
CONTINUOUS
 62
     7
 10
-239.8984329949799
 20
324.7179171444727
 30
0.0
  0
VERTEX
  5
335
  8
1
  6
CONTINUOUS
 62
     7
 10
-239.9124105349829
 20
325.2383919370384
 30
0.0
  0
VERTEX
  5
336
  8
1
  6
CONTINUOUS
 62
     7
 10
-239.9263880749858
 20
325.7549524795851
 30
0.0
  0
VERTEX
  5
337
  8
1
  6
CONTINUOUS
 62
     7
 10
-239.9403656149888
 20
326.2671580790044
 30
0.0
  0
VERTEX
  5
338
  8
1
  6
CONTINUOUS
 62
     7
 10
-239.9543431549918
 20
326.7745680421876
 30
0.0
  0
VERTEX
  5
339
  8
1
  6
CONTINUOUS
 62
     7
 10
-239.9683206949948
 20
327.276741676026
 30
0.0
  0
VERTEX
  5
33A
  8
1
  6
CONTINUOUS
 62
     7
 10
-239.9822982349978
 20
327.7732382874111
 30
0.0
  0
VERTEX
  5
33B
  8
1
  6
CONTINUOUS
 62
     7
 10
-239.9962757750008
 20
328.2636171832344
 30
0.0
  0
VERTEX
  5
33C
  8
1
  6
CONTINUOUS
 62
     7
 10
-240.0102533150037
 20
328.7474376708763
 30
0.0
  0
VERTEX
  5
33D
  8
1
  6
CONTINUOUS
 62
     7
 10
-240.0242308550067
 20
329.224270997148
 30
0.0
  0
VERTEX
  5
33E
  8
1
  6
CONTINUOUS
 62
     7
 10
-240.0382083950097
 20
329.6937313223132
 30
0.0
  0
VERTEX
  5
33F
  8
1
  6
CONTINUOUS
 62
     7
 10
-240.0521859350127
 20
330.1554424445479
 30
0.0
  0
VERTEX
  5
340
  8
1
  6
CONTINUOUS
 62
     7
 10
-240.0661634750157
 20
330.609028162028
 30
0.0
  0
VERTEX
  5
341
  8
1
  6
CONTINUOUS
 62
     7
 10
-240.0801410150186
 20
331.0541122729294
 30
0.0
  0
VERTEX
  5
342
  8
1
  6
CONTINUOUS
 62
     7
 10
-240.0941185550217
 20
331.4903185754282
 30
0.0
  0
VERTEX
  5
343
  8
1
  6
CONTINUOUS
 62
     7
 10
-240.1080960950246
 20
331.9172708677003
 30
0.0
  0
VERTEX
  5
344
  8
1
  6
CONTINUOUS
 62
     7
 10
-240.1220736350276
 20
332.3345929479217
 30
0.0
  0
VERTEX
  5
345
  8
1
  6
CONTINUOUS
 62
     7
 10
-240.1360511750306
 20
332.7419086142684
 30
0.0
  0
VERTEX
  5
346
  8
1
  6
CONTINUOUS
 62
     7
 10
-240.1500287150336
 20
333.1388416649161
 30
0.0
  0
VERTEX
  5
347
  8
1
  6
CONTINUOUS
 62
     7
 10
-240.1640062550366
 20
333.5250159793625
 30
0.0
  0
VERTEX
  5
348
  8
1
  6
CONTINUOUS
 62
     7
 10
-240.1779837950396
 20
333.9000822904073
 30
0.0
  0
VERTEX
  5
349
  8
1
  6
CONTINUOUS
 62
     7
 10
-240.1919613350426
 20
334.2637568412038
 30
0.0
  0
VERTEX
  5
34A
  8
1
  6
CONTINUOUS
 62
     7
 10
-240.2059388750456
 20
334.6157656767285
 30
0.0
  0
VERTEX
  5
34B
  8
1
  6
CONTINUOUS
 62
     7
 10
-240.2199164150485
 20
334.9558348419578
 30
0.0
  0
VERTEX
  5
34C
  8
1
  6
CONTINUOUS
 62
     7
 10
-240.2338939550515
 20
335.2836903818683
 30
0.0
  0
VERTEX
  5
34D
  8
1
  6
CONTINUOUS
 62
     7
 10
-240.2478714950545
 20
335.5990583414364
 30
0.0
  0
VERTEX
  5
34E
  8
1
  6
CONTINUOUS
 62
     7
 10
-240.2618490350575
 20
335.9016647656384
 30
0.0
  0
VERTEX
  5
34F
  8
1
  6
CONTINUOUS
 62
     7
 10
-240.2758265750605
 20
336.1912356994511
 30
0.0
  0
VERTEX
  5
350
  8
1
  6
CONTINUOUS
 62
     7
 10
-240.2898041150634
 20
336.4674971878509
 30
0.0
  0
VERTEX
  5
351
  8
1
  6
CONTINUOUS
 62
     7
 10
-240.3037816550664
 20
336.7301752758142
 30
0.0
  0
VERTEX
  5
352
  8
1
  6
CONTINUOUS
 62
     7
 10
-240.3177591950694
 20
336.9789965980953
 30
0.0
  0
VERTEX
  5
353
  8
1
  6
CONTINUOUS
 62
     7
 10
-240.3317367350724
 20
337.2137330484356
 30
0.0
  0
VERTEX
  5
354
  8
1
  6
CONTINUOUS
 62
     7
 10
-240.3457142750754
 20
337.4342330280195
 30
0.0
  0
VERTEX
  5
355
  8
1
  6
CONTINUOUS
 62
     7
 10
-240.3596918150784
 20
337.6403523226775
 30
0.0
  0
VERTEX
  5
356
  8
1
  6
CONTINUOUS
 62
     7
 10
-240.3736693550814
 20
337.8319467182408
 30
0.0
  0
VERTEX
  5
357
  8
1
  6
CONTINUOUS
 62
     7
 10
-240.3876468950843
 20
338.0088720005401
 30
0.0
  0
VERTEX
  5
358
  8
1
  6
CONTINUOUS
 62
     7
 10
-240.4016244350873
 20
338.1709839554069
 30
0.0
  0
VERTEX
  5
359
  8
1
  6
CONTINUOUS
 62
     7
 10
-240.4156019750903
 20
338.3181383686716
 30
0.0
  0
VERTEX
  5
35A
  8
1
  6
CONTINUOUS
 62
     7
 10
-240.4295795150933
 20
338.4501910261656
 30
0.0
  0
VERTEX
  5
35B
  8
1
  6
CONTINUOUS
 62
     7
 10
-240.4435570550963
 20
338.5669977137198
 30
0.0
  0
VERTEX
  5
35C
  8
1
  6
CONTINUOUS
 62
     7
 10
-240.4575345950992
 20
338.668414217165
 30
0.0
  0
VERTEX
  5
35D
  8
1
  6
CONTINUOUS
 62
     7
 10
-240.4715121351022
 20
338.7542982826974
 30
0.0
  0
VERTEX
  5
35E
  8
1
  6
CONTINUOUS
 62
     7
 10
-240.4854896751052
 20
338.8245706430367
 30
0.0
  0
VERTEX
  5
35F
  8
1
  6
CONTINUOUS
 62
     7
 10
-240.4994672151082
 20
338.8792269323661
 30
0.0
  0
VERTEX
  5
360
  8
1
  6
CONTINUOUS
 62
     7
 10
-240.5134447551112
 20
338.9182671506671
 30
0.0
  0
VERTEX
  5
361
  8
1
  6
CONTINUOUS
 62
     7
 10
-240.5274222951142
 20
338.9416912979211
 30
0.0
  0
VERTEX
  5
362
  8
1
  6
CONTINUOUS
 62
     7
 10
-240.5413998351171
 20
338.9494993741097
 30
0.0
  0
SEQEND
  5
4AB
  8
1
  6
CONTINUOUS
 62
     7
  0
POLYLINE
  5
A3
  8
1
  6
CONTINUOUS
 62
     7
 66
     1
 10
0.0
 20
0.0
 30
0.0
  0
VERTEX
  5
363
  8
1
  6
CONTINUOUS
 62
     7
 10
-236.0878063267045
 20
302.4365374808338
 30
0.0
  0
VERTEX
  5
364
  8
1
  6
CONTINUOUS
 62
     7
 10
-236.1029491989931
 20
302.5021555119999
 30
0.0
  0
VERTEX
  5
365
  8
1
  6
CONTINUOUS
 62
     7
 10
-236.1180920712819
 20
302.5859962356431
 30
0.0
  0
VERTEX
  5
366
  8
1
  6
CONTINUOUS
 62
     7
 10
-236.1332349435705
 20
302.6879438525503
 30
0.0
  0
VERTEX
  5
367
  8
1
  6
CONTINUOUS
 62
     7
 10
-236.1483778158592
 20
302.807882563509
 30
0.0
  0
VERTEX
  5
368
  8
1
  6
CONTINUOUS
 62
     7
 10
-236.1635206881479
 20
302.9456965693062
 30
0.0
  0
VERTEX
  5
369
  8
1
  6
CONTINUOUS
 62
     7
 10
-236.1786635604366
 20
303.1012700707292
 30
0.0
  0
VERTEX
  5
36A
  8
1
  6
CONTINUOUS
 62
     7
 10
-236.1938064327253
 20
303.2744872685651
 30
0.0
  0
VERTEX
  5
36B
  8
1
  6
CONTINUOUS
 62
     7
 10
-236.208949305014
 20
303.4652323636011
 30
0.0
  0
VERTEX
  5
36C
  8
1
  6
CONTINUOUS
 62
     7
 10
-236.2240921773028
 20
303.6733758165948
 30
0.0
  0
VERTEX
  5
36D
  8
1
  6
CONTINUOUS
 62
     7
 10
-236.2392350495915
 20
303.8986796357705
 30
0.0
  0
VERTEX
  5
36E
  8
1
  6
CONTINUOUS
 62
     7
 10
-236.2543779218801
 20
304.1408543806875
 30
0.0
  0
VERTEX
  5
36F
  8
1
  6
CONTINUOUS
 62
     7
 10
-236.2695207941688
 20
304.3996103007544
 30
0.0
  0
VERTEX
  5
370
  8
1
  6
CONTINUOUS
 62
     7
 10
-236.2846636664575
 20
304.6746576453795
 30
0.0
  0
VERTEX
  5
371
  8
1
  6
CONTINUOUS
 62
     7
 10
-236.2998065387462
 20
304.965706663971
 30
0.0
  0
VERTEX
  5
372
  8
1
  6
CONTINUOUS
 62
     7
 10
-236.3149494110349
 20
305.2724676059374
 30
0.0
  0
VERTEX
  5
373
  8
1
  6
CONTINUOUS
 62
     7
 10
-236.3300922833236
 20
305.5946507206868
 30
0.0
  0
VERTEX
  5
374
  8
1
  6
CONTINUOUS
 62
     7
 10
-236.3452351556122
 20
305.9319662576278
 30
0.0
  0
VERTEX
  5
375
  8
1
  6
CONTINUOUS
 62
     7
 10
-236.360378027901
 20
306.2841244661686
 30
0.0
  0
VERTEX
  5
376
  8
1
  6
CONTINUOUS
 62
     7
 10
-236.3755209001896
 20
306.6508254655769
 30
0.0
  0
VERTEX
  5
377
  8
1
  6
CONTINUOUS
 62
     7
 10
-236.3906637724783
 20
307.0316807978987
 30
0.0
  0
VERTEX
  5
378
  8
1
  6
CONTINUOUS
 62
     7
 10
-236.405806644767
 20
307.4262562240328
 30
0.0
  0
VERTEX
  5
379
  8
1
  6
CONTINUOUS
 62
     7
 10
-236.4209495170557
 20
307.8341171213186
 30
0.0
  0
VERTEX
  5
37A
  8
1
  6
CONTINUOUS
 62
     7
 10
-236.4360923893444
 20
308.254828867096
 30
0.0
  0
VERTEX
  5
37B
  8
1
  6
CONTINUOUS
 62
     7
 10
-236.4512352616331
 20
308.6879568387043
 30
0.0
  0
VERTEX
  5
37C
  8
1
  6
CONTINUOUS
 62
     7
 10
-236.4663781339218
 20
309.1330664134834
 30
0.0
  0
VERTEX
  5
37D
  8
1
  6
CONTINUOUS
 62
     7
 10
-236.4815210062105
 20
309.589722968773
 30
0.0
  0
VERTEX
  5
37E
  8
1
  6
CONTINUOUS
 62
     7
 10
-236.4966638784991
 20
310.0574918819124
 30
0.0
  0
VERTEX
  5
37F
  8
1
  6
CONTINUOUS
 62
     7
 10
-236.5118067507879
 20
310.5359385302415
 30
0.0
  0
VERTEX
  5
380
  8
1
  6
CONTINUOUS
 62
     7
 10
-236.5269496230766
 20
311.024622055617
 30
0.0
  0
VERTEX
  5
381
  8
1
  6
CONTINUOUS
 62
     7
 10
-236.5420924953653
 20
311.5230410332368
 30
0.0
  0
VERTEX
  5
382
  8
1
  6
CONTINUOUS
 62
     7
 10
-236.5572353676539
 20
312.0306599671228
 30
0.0
  0
VERTEX
  5
383
  8
1
  6
CONTINUOUS
 62
     7
 10
-236.5723782399427
 20
312.546942981157
 30
0.0
  0
VERTEX
  5
384
  8
1
  6
CONTINUOUS
 62
     7
 10
-236.5875211122313
 20
313.0713541992213
 30
0.0
  0
VERTEX
  5
385
  8
1
  6
CONTINUOUS
 62
     7
 10
-236.60266398452
 20
313.6033577451973
 30
0.0
  0
VERTEX
  5
386
  8
1
  6
CONTINUOUS
 62
     7
 10
-236.6178068568087
 20
314.1424177429672
 30
0.0
  0
VERTEX
  5
387
  8
1
  6
CONTINUOUS
 62
     7
 10
-236.6329497290974
 20
314.6879983164127
 30
0.0
  0
VERTEX
  5
388
  8
1
  6
CONTINUOUS
 62
     7
 10
-236.6480926013861
 20
315.2395635894155
 30
0.0
  0
VERTEX
  5
389
  8
1
  6
CONTINUOUS
 62
     7
 10
-236.6632354736748
 20
315.7965776858576
 30
0.0
  0
VERTEX
  5
38A
  8
1
  6
CONTINUOUS
 62
     7
 10
-236.6783783459635
 20
316.3585021692842
 30
0.0
  0
VERTEX
  5
38B
  8
1
  6
CONTINUOUS
 62
     7
 10
-236.6935212182522
 20
316.924770887977
 30
0.0
  0
VERTEX
  5
38C
  8
1
  6
CONTINUOUS
 62
     7
 10
-236.7086640905409
 20
317.4948007364356
 30
0.0
  0
VERTEX
  5
38D
  8
1
  6
CONTINUOUS
 62
     7
 10
-236.7238069628296
 20
318.0680083654718
 30
0.0
  0
VERTEX
  5
38E
  8
1
  6
CONTINUOUS
 62
     7
 10
-236.7389498351183
 20
318.643810425897
 30
0.0
  0
VERTEX
  5
38F
  8
1
  6
CONTINUOUS
 62
     7
 10
-236.754092707407
 20
319.2216235685226
 30
0.0
  0
VERTEX
  5
390
  8
1
  6
CONTINUOUS
 62
     7
 10
-236.7692355796956
 20
319.8008644441601
 30
0.0
  0
VERTEX
  5
391
  8
1
  6
CONTINUOUS
 62
     7
 10
-236.7843784519843
 20
320.3809497036211
 30
0.0
  0
VERTEX
  5
392
  8
1
  6
CONTINUOUS
 62
     7
 10
-236.7995213242731
 20
320.9612959977172
 30
0.0
  0
VERTEX
  5
393
  8
1
  6
CONTINUOUS
 62
     7
 10
-236.8146641965617
 20
321.5413199772596
 30
0.0
  0
VERTEX
  5
394
  8
1
  6
CONTINUOUS
 62
     7
 10
-236.8298070688504
 20
322.1204388128021
 30
0.0
  0
VERTEX
  5
395
  8
1
  6
CONTINUOUS
 62
     7
 10
-236.8449499411392
 20
322.6980759683936
 30
0.0
  0
VERTEX
  5
396
  8
1
  6
CONTINUOUS
 62
     7
 10
-236.8600928134278
 20
323.273659091103
 30
0.0
  0
VERTEX
  5
397
  8
1
  6
CONTINUOUS
 62
     7
 10
-236.8752356857165
 20
323.8466159034419
 30
0.0
  0
VERTEX
  5
398
  8
1
  6
CONTINUOUS
 62
     7
 10
-236.8903785580052
 20
324.4163741279218
 30
0.0
  0
VERTEX
  5
399
  8
1
  6
CONTINUOUS
 62
     7
 10
-236.9055214302939
 20
324.9823614870543
 30
0.0
  0
VERTEX
  5
39A
  8
1
  6
CONTINUOUS
 62
     7
 10
-236.9206643025826
 20
325.544005703351
 30
0.0
  0
VERTEX
  5
39B
  8
1
  6
CONTINUOUS
 62
     7
 10
-236.9358071748713
 20
326.1007344993236
 30
0.0
  0
VERTEX
  5
39C
  8
1
  6
CONTINUOUS
 62
     7
 10
-236.9509500471599
 20
326.6519755974836
 30
0.0
  0
VERTEX
  5
39D
  8
1
  6
CONTINUOUS
 62
     7
 10
-236.9660929194487
 20
327.1971567203425
 30
0.0
  0
VERTEX
  5
39E
  8
1
  6
CONTINUOUS
 62
     7
 10
-236.9812357917373
 20
327.7357083707475
 30
0.0
  0
VERTEX
  5
39F
  8
1
  6
CONTINUOUS
 62
     7
 10
-236.9963786640261
 20
328.2670988747218
 30
0.0
  0
VERTEX
  5
3A0
  8
1
  6
CONTINUOUS
 62
     7
 10
-237.0115215363147
 20
328.7908238554167
 30
0.0
  0
VERTEX
  5
3A1
  8
1
  6
CONTINUOUS
 62
     7
 10
-237.0266644086035
 20
329.3063795406619
 30
0.0
  0
VERTEX
  5
3A2
  8
1
  6
CONTINUOUS
 62
     7
 10
-237.0418072808921
 20
329.813262158287
 30
0.0
  0
VERTEX
  5
3A3
  8
1
  6
CONTINUOUS
 62
     7
 10
-237.0569501531808
 20
330.3109679361222
 30
0.0
  0
VERTEX
  5
3A4
  8
1
  6
CONTINUOUS
 62
     7
 10
-237.0720930254695
 20
330.7989931019969
 30
0.0
  0
VERTEX
  5
3A5
  8
1
  6
CONTINUOUS
 62
     7
 10
-237.0872358977581
 20
331.2768338837412
 30
0.0
  0
VERTEX
  5
3A6
  8
1
  6
CONTINUOUS
 62
     7
 10
-237.1023787700468
 20
331.7439865091846
 30
0.0
  0
VERTEX
  5
3A7
  8
1
  6
CONTINUOUS
 62
     7
 10
-237.1175216423356
 20
332.1999472061571
 30
0.0
  0
VERTEX
  5
3A8
  8
1
  6
CONTINUOUS
 62
     7
 10
-237.1326645146243
 20
332.6442163494413
 30
0.0
  0
VERTEX
  5
3A9
  8
1
  6
CONTINUOUS
 62
     7
 10
-237.147807386913
 20
333.0763580091635
 30
0.0
  0
VERTEX
  5
3AA
  8
1
  6
CONTINUOUS
 62
     7
 10
-237.1629502592016
 20
333.4959861432524
 30
0.0
  0
VERTEX
  5
3AB
  8
1
  6
CONTINUOUS
 62
     7
 10
-237.1780931314903
 20
333.9027160432983
 30
0.0
  0
VERTEX
  5
3AC
  8
1
  6
CONTINUOUS
 62
     7
 10
-237.193236003779
 20
334.2961630008912
 30
0.0
  0
VERTEX
  5
3AD
  8
1
  6
CONTINUOUS
 62
     7
 10
-237.2083788760678
 20
334.6759423076216
 30
0.0
  0
VERTEX
  5
3AE
  8
1
  6
CONTINUOUS
 62
     7
 10
-237.2235217483565
 20
335.0416692550794
 30
0.0
  0
VERTEX
  5
3AF
  8
1
  6
CONTINUOUS
 62
     7
 10
-237.2386646206451
 20
335.3929591348551
 30
0.0
  0
VERTEX
  5
3B0
  8
1
  6
CONTINUOUS
 62
     7
 10
-237.2538074929338
 20
335.7294272385387
 30
0.0
  0
VERTEX
  5
3B1
  8
1
  6
CONTINUOUS
 62
     7
 10
-237.2689503652225
 20
336.0506888577207
 30
0.0
  0
VERTEX
  5
3B2
  8
1
  6
CONTINUOUS
 62
     7
 10
-237.2840932375112
 20
336.3563639582661
 30
0.0
  0
VERTEX
  5
3B3
  8
1
  6
CONTINUOUS
 62
     7
 10
-237.2992361097999
 20
336.6461540331804
 30
0.0
  0
VERTEX
  5
3B4
  8
1
  6
CONTINUOUS
 62
     7
 10
-237.3143789820886
 20
336.9198298447633
 30
0.0
  0
VERTEX
  5
3B5
  8
1
  6
CONTINUOUS
 62
     7
 10
-237.3295218543773
 20
337.1771643576
 30
0.0
  0
VERTEX
  5
3B6
  8
1
  6
CONTINUOUS
 62
     7
 10
-237.344664726666
 20
337.417930536276
 30
0.0
  0
VERTEX
  5
3B7
  8
1
  6
CONTINUOUS
 62
     7
 10
-237.3598075989547
 20
337.6419013453764
 30
0.0
  0
VERTEX
  5
3B8
  8
1
  6
CONTINUOUS
 62
     7
 10
-237.3749504712434
 20
337.8488497494866
 30
0.0
  0
VERTEX
  5
3B9
  8
1
  6
CONTINUOUS
 62
     7
 10
-237.390093343532
 20
338.038548713192
 30
0.0
  0
VERTEX
  5
3BA
  8
1
  6
CONTINUOUS
 62
     7
 10
-237.4052362158208
 20
338.2107712010778
 30
0.0
  0
VERTEX
  5
3BB
  8
1
  6
CONTINUOUS
 62
     7
 10
-237.4203790881094
 20
338.3652901777293
 30
0.0
  0
VERTEX
  5
3BC
  8
1
  6
CONTINUOUS
 62
     7
 10
-237.4355219603981
 20
338.501883119704
 30
0.0
  0
VERTEX
  5
3BD
  8
1
  6
CONTINUOUS
 62
     7
 10
-237.4506648326868
 20
338.6204174618051
 30
0.0
  0
VERTEX
  5
3BE
  8
1
  6
CONTINUOUS
 62
     7
 10
-237.4658077049755
 20
338.7208435310304
 30
0.0
  0
VERTEX
  5
3BF
  8
1
  6
CONTINUOUS
 62
     7
 10
-237.4809505772642
 20
338.8031147501749
 30
0.0
  0
VERTEX
  5
3C0
  8
1
  6
CONTINUOUS
 62
     7
 10
-237.4960934495529
 20
338.8671845420334
 30
0.0
  0
VERTEX
  5
3C1
  8
1
  6
CONTINUOUS
 62
     7
 10
-237.5112363218417
 20
338.9130063294007
 30
0.0
  0
VERTEX
  5
3C2
  8
1
  6
CONTINUOUS
 62
     7
 10
-237.5263791941303
 20
338.9405335350715
 30
0.0
  0
VERTEX
  5
3C3
  8
1
  6
CONTINUOUS
 62
     7
 10
-237.541522066419
 20
338.9497195818408
 30
0.0
  0
SEQEND
  5
4AC
  8
1
  6
CONTINUOUS
 62
     7
  0
LINE
  5
A4
  8
1
  6
CONTINUOUS
 62
     7
 10
-234.9433236409022
 20
337.45
 30
0.0
 11
-234.5413998522555
 21
338.95
 31
0.0
  0
ARC
  5
A5
  8
1
  6
CONTINUOUS
 62
     7
 10
-155.1123189317695
 20
312.3035939150313
 30
0.0
 40
81.80972670656406
 50
180.5693042997902
 51
185.8650683266783
  0
LINE
  5
A6
  8
1
  6
CONTINUOUS
 62
     7
 10
-237.069905919349
 20
316.3556392281579
 30
0.0
 11
-236.9180071853035
 21
311.4907266636836
 31
0.0
  0
LINE
  5
A7
  8
1
  6
CONTINUOUS
 62
     7
 10
-237.2218046535675
 20
321.6515327136574
 30
0.0
 11
-237.069905919349
 21
316.3556392281579
 31
0.0
  0
LINE
  5
A8
  8
1
  6
CONTINUOUS
 62
     7
 10
-237.3737033877341
 20
326.8469126381205
 30
0.0
 11
-237.2218046535675
 21
321.6515327136574
 31
0.0
  0
LINE
  5
A9
  8
1
  6
CONTINUOUS
 62
     7
 10
-237.5256021219141
 20
331.4203720432832
 30
0.0
 11
-237.3737033877341
 21
326.8469126381205
 31
0.0
  0
LINE
  5
AA
  8
1
  6
CONTINUOUS
 62
     7
 10
-237.6775008560909
 20
334.9129197475945
 30
0.0
 11
-237.5256021219141
 21
331.4203720432832
 31
0.0
  0
LINE
  5
AB
  8
1
  6
CONTINUOUS
 62
     7
 10
-237.829399590268
 20
336.9740445836952
 30
0.0
 11
-237.6775008560909
 21
334.9129197475945
 31
0.0
  0
LINE
  5
AC
  8
1
  6
CONTINUOUS
 62
     7
 10
-239.6521844003948
 20
305.4318807967585
 30
0.0
 11
-239.4937061507013
 21
303.9434442137091
 31
0.0
  0
LINE
  5
AD
  8
1
  6
CONTINUOUS
 62
     7
 10
-239.804083134572
 20
308.4216350313175
 30
0.0
 11
-239.6521844003948
 21
305.4318807967585
 31
0.0
  0
LINE
  5
AE
  8
1
  6
CONTINUOUS
 62
     7
 10
-239.9559818687491
 20
312.6386247525015
 30
0.0
 11
-239.804083134572
 21
308.4216350313175
 31
0.0
  0
LINE
  5
AF
  8
1
  6
CONTINUOUS
 62
     7
 10
-240.1078806029264
 20
317.6596339828854
 30
0.0
 11
-239.9559818687491
 21
312.6386247525015
 31
0.0
  0
LINE
  5
B0
  8
1
  6
CONTINUOUS
 62
     7
 10
-240.2597793371035
 20
322.9807555589122
 30
0.0
 11
-240.1078806029264
 21
317.6596339828854
 31
0.0
  0
LINE
  5
B1
  8
1
  6
CONTINUOUS
 62
     7
 10
-240.4116780712809
 20
328.0679631211107
 30
0.0
 11
-240.2597793371035
 21
322.9807555589122
 31
0.0
  0
LINE
  5
B2
  8
1
  6
CONTINUOUS
 62
     7
 10
-240.563576805458
 20
332.4107058587648
 30
0.0
 11
-240.4116780712809
 21
328.0679631211107
 31
0.0
  0
LINE
  5
B3
  8
1
  6
CONTINUOUS
 62
     7
 10
-242.5382603497619
 20
304.1810039627323
 30
0.0
 11
-242.4937155694141
 21
303.9434791222511
 31
0.0
  0
LINE
  5
B4
  8
1
  6
CONTINUOUS
 62
     7
 10
-242.5923617465789
 20
304.6618238312084
 30
0.0
 11
-242.5382603497619
 21
304.1810039627323
 31
0.0
  0
LINE
  5
B5
  8
1
  6
CONTINUOUS
 62
     7
 10
-233.6052978626837
 20
338.8664105397208
 30
0.0
 11
-233.6433236409021
 21
338.95
 31
0.0
  0
ARC
  5
B6
  8
1
  6
CONTINUOUS
 62
     7
 10
-11204.96543969179
 20
-56.40301589235253
 30
0.0
 40
10978.82245105086
 50
1.881129576606497
 51
2.055534582569805
  0
POLYLINE
  5
B7
  8
1
  6
CONTINUOUS
 62
     7
 66
     1
 10
0.0
 20
0.0
 30
0.0
  0
VERTEX
  5
3C4
  8
1
  6
CONTINUOUS
 62
     7
 10
-232.059679967993
 20
303.9878828812794
 30
0.0
  0
VERTEX
  5
3C5
  8
1
  6
CONTINUOUS
 62
     7
 10
-232.0271716616913
 20
303.8670448041056
 30
0.0
  0
VERTEX
  5
3C6
  8
1
  6
CONTINUOUS
 62
     7
 10
-232.0095274558379
 20
303.8500000000116
 30
0.0
  0
SEQEND
  5
4AD
  8
1
  6
CONTINUOUS
 62
     7
  0
POLYLINE
  5
B8
  8
1
  6
CONTINUOUS
 62
     7
 66
     1
 10
0.0
 20
0.0
 30
0.0
  0
VERTEX
  5
3C7
  8
1
  6
CONTINUOUS
 62
     7
 10
-232.1522702934508
 20
303.347580480611
 30
0.0
  0
VERTEX
  5
3C8
  8
1
  6
CONTINUOUS
 62
     7
 10
-232.1678640572378
 20
303.3568366544543
 30
0.0
  0
VERTEX
  5
3C9
  8
1
  6
CONTINUOUS
 62
     7
 10
-232.1834475920232
 20
303.3844900569285
 30
0.0
  0
VERTEX
  5
3CA
  8
1
  6
CONTINUOUS
 62
     7
 10
-232.1990209180363
 20
303.430537342461
 30
0.0
  0
VERTEX
  5
3CB
  8
1
  6
CONTINUOUS
 62
     7
 10
-232.2145840555061
 20
303.4949751654791
 30
0.0
  0
VERTEX
  5
3CC
  8
1
  6
CONTINUOUS
 62
     7
 10
-232.2301370246478
 20
303.5777960677611
 30
0.0
  0
VERTEX
  5
3CD
  8
1
  6
CONTINUOUS
 62
     7
 10
-232.2456798453597
 20
303.6788991861696
 30
0.0
  0
VERTEX
  5
3CE
  8
1
  6
CONTINUOUS
 62
     7
 10
-232.2612125372253
 20
303.7980909068313
 30
0.0
  0
VERTEX
  5
3CF
  8
1
  6
CONTINUOUS
 62
     7
 10
-232.2767351198146
 20
303.9351736340621
 30
0.0
  0
VERTEX
  5
3D0
  8
1
  6
CONTINUOUS
 62
     7
 10
-232.2922476126974
 20
304.0899497721782
 30
0.0
  0
VERTEX
  5
3D1
  8
1
  6
CONTINUOUS
 62
     7
 10
-232.3077500354438
 20
304.2622217254956
 30
0.0
  0
VERTEX
  5
3D2
  8
1
  6
CONTINUOUS
 62
     7
 10
-232.3232424076238
 20
304.4517918983303
 30
0.0
  0
VERTEX
  5
3D3
  8
1
  6
CONTINUOUS
 62
     7
 10
-232.3387247488073
 20
304.6584626949983
 30
0.0
  0
VERTEX
  5
3D4
  8
1
  6
CONTINUOUS
 62
     7
 10
-232.3541970785643
 20
304.8820365198157
 30
0.0
  0
VERTEX
  5
3D5
  8
1
  6
CONTINUOUS
 62
     7
 10
-232.3696594164648
 20
305.1223157770985
 30
0.0
  0
VERTEX
  5
3D6
  8
1
  6
CONTINUOUS
 62
     7
 10
-232.3851117820754
 20
305.3791019770525
 30
0.0
  0
VERTEX
  5
3D7
  8
1
  6
CONTINUOUS
 62
     7
 10
-232.4005541947347
 20
305.6521362562539
 30
0.0
  0
VERTEX
  5
3D8
  8
1
  6
CONTINUOUS
 62
     7
 10
-232.4159866734125
 20
305.9410620843641
 30
0.0
  0
VERTEX
  5
3D9
  8
1
  6
CONTINUOUS
 62
     7
 10
-232.4314092370451
 20
306.2455140329628
 30
0.0
  0
VERTEX
  5
3DA
  8
1
  6
CONTINUOUS
 62
     7
 10
-232.4468219045688
 20
306.5651266736293
 30
0.0
  0
VERTEX
  5
3DB
  8
1
  6
CONTINUOUS
 62
     7
 10
-232.4622246949197
 20
306.899534577943
 30
0.0
  0
VERTEX
  5
3DC
  8
1
  6
CONTINUOUS
 62
     7
 10
-232.4776176270342
 20
307.2483723174836
 30
0.0
  0
VERTEX
  5
3DD
  8
1
  6
CONTINUOUS
 62
     7
 10
-232.4930007198485
 20
307.6112744638306
 30
0.0
  0
VERTEX
  5
3DE
  8
1
  6
CONTINUOUS
 62
     7
 10
-232.5083739922989
 20
307.987875588563
 30
0.0
  0
VERTEX
  5
3DF
  8
1
  6
CONTINUOUS
 62
     7
 10
-232.5237374633214
 20
308.3778102632606
 30
0.0
  0
VERTEX
  5
3E0
  8
1
  6
CONTINUOUS
 62
     7
 10
-232.5390911518525
 20
308.7807130538933
 30
0.0
  0
VERTEX
  5
3E1
  8
1
  6
CONTINUOUS
 62
     7
 10
-232.5544350767059
 20
309.1961935614185
 30
0.0
  0
VERTEX
  5
3E2
  8
1
  6
CONTINUOUS
 62
     7
 10
-232.5697692562926
 20
309.6237790790588
 30
0.0
  0
VERTEX
  5
3E3
  8
1
  6
CONTINUOUS
 62
     7
 10
-232.5850937089402
 20
310.0629799618275
 30
0.0
  0
VERTEX
  5
3E4
  8
1
  6
CONTINUOUS
 62
     7
 10
-232.6004084529767
 20
310.5133065647378
 30
0.0
  0
VERTEX
  5
3E5
  8
1
  6
CONTINUOUS
 62
     7
 10
-232.6157135067297
 20
310.9742692428025
 30
0.0
  0
VERTEX
  5
3E6
  8
1
  6
CONTINUOUS
 62
     7
 10
-232.6310088885271
 20
311.445378351035
 30
0.0
  0
VERTEX
  5
3E7
  8
1
  6
CONTINUOUS
 62
     7
 10
-232.6462946166966
 20
311.9261442444483
 30
0.0
  0
VERTEX
  5
3E8
  8
1
  6
CONTINUOUS
 62
     7
 10
-232.6615707095661
 20
312.4160772780556
 30
0.0
  0
VERTEX
  5
3E9
  8
1
  6
CONTINUOUS
 62
     7
 10
-232.6768371854633
 20
312.9146878068699
 30
0.0
  0
VERTEX
  5
3EA
  8
1
  6
CONTINUOUS
 62
     7
 10
-232.692094062716
 20
313.4214861859045
 30
0.0
  0
VERTEX
  5
3EB
  8
1
  6
CONTINUOUS
 62
     7
 10
-232.7073413596117
 20
313.9359780544044
 30
0.0
  0
VERTEX
  5
3EC
  8
1
  6
CONTINUOUS
 62
     7
 10
-232.7225790940782
 20
314.4576272781563
 30
0.0
  0
VERTEX
  5
3ED
  8
1
  6
CONTINUOUS
 62
     7
 10
-232.7378072838563
 20
314.9858759011708
 30
0.0
  0
VERTEX
  5
3EE
  8
1
  6
CONTINUOUS
 62
     7
 10
-232.7530259466849
 20
315.5201657775638
 30
0.0
  0
VERTEX
  5
3EF
  8
1
  6
CONTINUOUS
 62
     7
 10
-232.7682351003029
 20
316.0599387614509
 30
0.0
  0
VERTEX
  5
3F0
  8
1
  6
CONTINUOUS
 62
     7
 10
-232.7834347624492
 20
316.6046367069482
 30
0.0
  0
VERTEX
  5
3F1
  8
1
  6
CONTINUOUS
 62
     7
 10
-232.7986249508628
 20
317.1537014681714
 30
0.0
  0
VERTEX
  5
3F2
  8
1
  6
CONTINUOUS
 62
     7
 10
-232.8138056832827
 20
317.7065748992363
 30
0.0
  0
VERTEX
  5
3F3
  8
1
  6
CONTINUOUS
 62
     7
 10
-232.8289769774477
 20
318.2626988542589
 30
0.0
  0
VERTEX
  5
3F4
  8
1
  6
CONTINUOUS
 62
     7
 10
-232.8441388510969
 20
318.8215151873548
 30
0.0
  0
VERTEX
  5
3F5
  8
1
  6
CONTINUOUS
 62
     7
 10
-232.8592913219649
 20
319.3824656994229
 30
0.0
  0
VERTEX
  5
3F6
  8
1
  6
CONTINUOUS
 62
     7
 10
-232.8744344075733
 20
319.9449894894845
 30
0.0
  0
VERTEX
  5
3F7
  8
1
  6
CONTINUOUS
 62
     7
 10
-232.8895681251338
 20
320.5085217290113
 30
0.0
  0
VERTEX
  5
3F8
  8
1
  6
CONTINUOUS
 62
     7
 10
-232.9046924918338
 20
321.07249728032
 30
0.0
  0
VERTEX
  5
3F9
  8
1
  6
CONTINUOUS
 62
     7
 10
-232.9198075248604
 20
321.6363510057271
 30
0.0
  0
VERTEX
  5
3FA
  8
1
  6
CONTINUOUS
 62
     7
 10
-232.934913241401
 20
322.1995177675495
 30
0.0
  0
VERTEX
  5
3FB
  8
1
  6
CONTINUOUS
 62
     7
 10
-232.950009658643
 20
322.7614324281034
 30
0.0
  0
VERTEX
  5
3FC
  8
1
  6
CONTINUOUS
 62
     7
 10
-232.9650967937735
 20
323.3215298497058
 30
0.0
  0
VERTEX
  5
3FD
  8
1
  6
CONTINUOUS
 62
     7
 10
-232.9801746639798
 20
323.8792448946729
 30
0.0
  0
VERTEX
  5
3FE
  8
1
  6
CONTINUOUS
 62
     7
 10
-232.9952432864495
 20
324.4340124253217
 30
0.0
  0
VERTEX
  5
3FF
  8
1
  6
CONTINUOUS
 62
     7
 10
-233.0103026783695
 20
324.9852673039687
 30
0.0
  0
VERTEX
  5
400
  8
1
  6
CONTINUOUS
 62
     7
 10
-233.0253528568558
 20
325.5324509794841
 30
0.0
  0
VERTEX
  5
401
  8
1
  6
CONTINUOUS
 62
     7
 10
-233.0403938386409
 20
326.0750402204059
 30
0.0
  0
VERTEX
  5
402
  8
1
  6
CONTINUOUS
 62
     7
 10
-233.0554256403294
 20
326.6125235840739
 30
0.0
  0
VERTEX
  5
403
  8
1
  6
CONTINUOUS
 62
     7
 10
-233.0704482785256
 20
327.1443896360412
 30
0.0
  0
VERTEX
  5
404
  8
1
  6
CONTINUOUS
 62
     7
 10
-233.0854617698343
 20
327.6701269418616
 30
0.0
  0
VERTEX
  5
405
  8
1
  6
CONTINUOUS
 62
     7
 10
-233.1004661308596
 20
328.1892240670878
 30
0.0
  0
VERTEX
  5
406
  8
1
  6
CONTINUOUS
 62
     7
 10
-233.1154613782062
 20
328.7011695772737
 30
0.0
  0
VERTEX
  5
407
  8
1
  6
CONTINUOUS
 62
     7
 10
-233.1304475284785
 20
329.2054520379722
 30
0.0
  0
VERTEX
  5
408
  8
1
  6
CONTINUOUS
 62
     7
 10
-233.145424598281
 20
329.7015600147368
 30
0.0
  0
VERTEX
  5
409
  8
1
  6
CONTINUOUS
 62
     7
 10
-233.1603926042181
 20
330.1889820731209
 30
0.0
  0
VERTEX
  5
40A
  8
1
  6
CONTINUOUS
 62
     7
 10
-233.1753515628907
 20
330.6672077631815
 30
0.0
  0
VERTEX
  5
40B
  8
1
  6
CONTINUOUS
 62
     7
 10
-233.1903014907392
 20
331.135769611909
 30
0.0
  0
VERTEX
  5
40C
  8
1
  6
CONTINUOUS
 62
     7
 10
-233.2052424039846
 20
331.5942588599323
 30
0.0
  0
VERTEX
  5
40D
  8
1
  6
CONTINUOUS
 62
     7
 10
-233.2201743188326
 20
332.0422709760871
 30
0.0
  0
VERTEX
  5
40E
  8
1
  6
CONTINUOUS
 62
     7
 10
-233.2350972514885
 20
332.479401429209
 30
0.0
  0
VERTEX
  5
40F
  8
1
  6
CONTINUOUS
 62
     7
 10
-233.2500112181577
 20
332.9052456881338
 30
0.0
  0
VERTEX
  5
410
  8
1
  6
CONTINUOUS
 62
     7
 10
-233.2649162350456
 20
333.3193992216968
 30
0.0
  0
VERTEX
  5
411
  8
1
  6
CONTINUOUS
 62
     7
 10
-233.2798123183578
 20
333.721457498734
 30
0.0
  0
VERTEX
  5
412
  8
1
  6
CONTINUOUS
 62
     7
 10
-233.2946994842996
 20
334.1110159880807
 30
0.0
  0
VERTEX
  5
413
  8
1
  6
CONTINUOUS
 62
     7
 10
-233.3095777490765
 20
334.4876701585727
 30
0.0
  0
VERTEX
  5
414
  8
1
  6
CONTINUOUS
 62
     7
 10
-233.3244471288939
 20
334.8510154790457
 30
0.0
  0
VERTEX
  5
415
  8
1
  6
CONTINUOUS
 62
     7
 10
-233.3393076398906
 20
335.2006596192174
 30
0.0
  0
VERTEX
  5
416
  8
1
  6
CONTINUOUS
 62
     7
 10
-233.3541592976997
 20
335.536302887168
 30
0.0
  0
VERTEX
  5
417
  8
1
  6
CONTINUOUS
 62
     7
 10
-233.3690021177223
 20
335.8576880968286
 30
0.0
  0
VERTEX
  5
418
  8
1
  6
CONTINUOUS
 62
     7
 10
-233.3838361153581
 20
336.1645582846684
 30
0.0
  0
VERTEX
  5
419
  8
1
  6
CONTINUOUS
 62
     7
 10
-233.3986613060068
 20
336.4566564871561
 30
0.0
  0
VERTEX
  5
41A
  8
1
  6
CONTINUOUS
 62
     7
 10
-233.4134777050684
 20
336.7337257407609
 30
0.0
  0
VERTEX
  5
41B
  8
1
  6
CONTINUOUS
 62
     7
 10
-233.4282853279425
 20
336.9955090819517
 30
0.0
  0
VERTEX
  5
41C
  8
1
  6
CONTINUOUS
 62
     7
 10
-233.443084190029
 20
337.2417495471975
 30
0.0
  0
VERTEX
  5
41D
  8
1
  6
CONTINUOUS
 62
     7
 10
-233.4578743067277
 20
337.4721901729675
 30
0.0
  0
VERTEX
  5
41E
  8
1
  6
CONTINUOUS
 62
     7
 10
-233.4726556934383
 20
337.6865739957305
 30
0.0
  0
VERTEX
  5
41F
  8
1
  6
CONTINUOUS
 62
     7
 10
-233.4874283655608
 20
337.8846441221006
 30
0.0
  0
VERTEX
  5
420
  8
1
  6
CONTINUOUS
 62
     7
 10
-233.5021923384876
 20
338.0661850358754
 30
0.0
  0
VERTEX
  5
421
  8
1
  6
CONTINUOUS
 62
     7
 10
-233.5169476275921
 20
338.2310922685208
 30
0.0
  0
VERTEX
  5
422
  8
1
  6
CONTINUOUS
 62
     7
 10
-233.5316942482446
 20
338.3792797875197
 30
0.0
  0
VERTEX
  5
423
  8
1
  6
CONTINUOUS
 62
     7
 10
-233.5464322158153
 20
338.5106615603551
 30
0.0
  0
VERTEX
  5
424
  8
1
  6
CONTINUOUS
 62
     7
 10
-233.5611615456744
 20
338.6251515545101
 30
0.0
  0
VERTEX
  5
425
  8
1
  6
CONTINUOUS
 62
     7
 10
-233.575882253192
 20
338.7226637374674
 30
0.0
  0
VERTEX
  5
426
  8
1
  6
CONTINUOUS
 62
     7
 10
-233.5905943537384
 20
338.80311207671
 30
0.0
  0
VERTEX
  5
427
  8
1
  6
CONTINUOUS
 62
     7
 10
-233.6052978626837
 20
338.8664105397208
 30
0.0
  0
SEQEND
  5
4AE
  8
1
  6
CONTINUOUS
 62
     7
  0
POLYLINE
  5
B9
  8
1
  6
CONTINUOUS
 62
     7
 66
     1
 10
0.0
 20
0.0
 30
0.0
  0
VERTEX
  5
428
  8
1
  6
CONTINUOUS
 62
     7
 10
-234.5413998522555
 20
338.95
 30
0.0
  0
VERTEX
  5
429
  8
1
  6
CONTINUOUS
 62
     7
 10
-234.526802259592
 20
338.93165421161
 30
0.0
  0
VERTEX
  5
42A
  8
1
  6
CONTINUOUS
 62
     7
 10
-234.5121962122063
 20
338.8961319710418
 30
0.0
  0
VERTEX
  5
42B
  8
1
  6
CONTINUOUS
 62
     7
 10
-234.4975816949902
 20
338.8435178578678
 30
0.0
  0
VERTEX
  5
42C
  8
1
  6
CONTINUOUS
 62
     7
 10
-234.4829586928356
 20
338.7738964516608
 30
0.0
  0
VERTEX
  5
42D
  8
1
  6
CONTINUOUS
 62
     7
 10
-234.4683271906344
 20
338.6873523319933
 30
0.0
  0
VERTEX
  5
42E
  8
1
  6
CONTINUOUS
 62
     7
 10
-234.4536871732782
 20
338.5839700784379
 30
0.0
  0
VERTEX
  5
42F
  8
1
  6
CONTINUOUS
 62
     7
 10
-234.4390386256591
 20
338.4638342705674
 30
0.0
  0
VERTEX
  5
430
  8
1
  6
CONTINUOUS
 62
     7
 10
-234.4243815326686
 20
338.3270294879541
 30
0.0
  0
VERTEX
  5
431
  8
1
  6
CONTINUOUS
 62
     7
 10
-234.4097158791988
 20
338.1736403101708
 30
0.0
  0
VERTEX
  5
432
  8
1
  6
CONTINUOUS
 62
     7
 10
-234.3950416501413
 20
338.0037513167899
 30
0.0
  0
VERTEX
  5
433
  8
1
  6
CONTINUOUS
 62
     7
 10
-234.380358830388
 20
337.817447364108
 30
0.0
  0
VERTEX
  5
434
  8
1
  6
CONTINUOUS
 62
     7
 10
-234.3656674048212
 20
337.6148623819445
 30
0.0
  0
VERTEX
  5
435
  8
1
  6
CONTINUOUS
 62
     7
 10
-234.3509673583033
 20
337.3962354168048
 30
0.0
  0
VERTEX
  5
436
  8
1
  6
CONTINUOUS
 62
     7
 10
-234.336258675694
 20
337.1618190842417
 30
0.0
  0
VERTEX
  5
437
  8
1
  6
CONTINUOUS
 62
     7
 10
-234.3215413418531
 20
336.9118659998085
 30
0.0
  0
VERTEX
  5
438
  8
1
  6
CONTINUOUS
 62
     7
 10
-234.3068153416404
 20
336.6466287790582
 30
0.0
  0
VERTEX
  5
439
  8
1
  6
CONTINUOUS
 62
     7
 10
-234.2920806599155
 20
336.3663600375442
 30
0.0
  0
VERTEX
  5
43A
  8
1
  6
CONTINUOUS
 62
     7
 10
-234.2773372815382
 20
336.0713123908193
 30
0.0
  0
VERTEX
  5
43B
  8
1
  6
CONTINUOUS
 62
     7
 10
-234.2625851913683
 20
335.7617384544367
 30
0.0
  0
VERTEX
  5
43C
  8
1
  6
CONTINUOUS
 62
     7
 10
-234.2478243742655
 20
335.4378908439494
 30
0.0
  0
VERTEX
  5
43D
  8
1
  6
CONTINUOUS
 62
     7
 10
-234.2330548150895
 20
335.1000221749106
 30
0.0
  0
VERTEX
  5
43E
  8
1
  6
CONTINUOUS
 62
     7
 10
-234.218276498684
 20
334.7483880290434
 30
0.0
  0
VERTEX
  5
43F
  8
1
  6
CONTINUOUS
 62
     7
 10
-234.2034894095153
 20
334.3833132201358
 30
0.0
  0
VERTEX
  5
440
  8
1
  6
CONTINUOUS
 62
     7
 10
-234.1886935316695
 20
334.0051923599348
 30
0.0
  0
VERTEX
  5
441
  8
1
  6
CONTINUOUS
 62
     7
 10
-234.173888849216
 20
333.6144231395388
 30
0.0
  0
VERTEX
  5
442
  8
1
  6
CONTINUOUS
 62
     7
 10
-234.1590753462241
 20
333.2114032500456
 30
0.0
  0
VERTEX
  5
443
  8
1
  6
CONTINUOUS
 62
     7
 10
-234.1442530067631
 20
332.7965303825532
 30
0.0
  0
VERTEX
  5
444
  8
1
  6
CONTINUOUS
 62
     7
 10
-234.1294218149023
 20
332.3702022281598
 30
0.0
  0
VERTEX
  5
445
  8
1
  6
CONTINUOUS
 62
     7
 10
-234.1145817547112
 20
331.9328164779633
 30
0.0
  0
VERTEX
  5
446
  8
1
  6
CONTINUOUS
 62
     7
 10
-234.099732810259
 20
331.4847708230618
 30
0.0
  0
VERTEX
  5
447
  8
1
  6
CONTINUOUS
 62
     7
 10
-234.084874965615
 20
331.0264629545532
 30
0.0
  0
VERTEX
  5
448
  8
1
  6
CONTINUOUS
 62
     7
 10
-234.0700082048486
 20
330.5582905635356
 30
0.0
  0
VERTEX
  5
449
  8
1
  6
CONTINUOUS
 62
     7
 10
-234.0551325119893
 20
330.0806619799063
 30
0.0
  0
VERTEX
  5
44A
  8
1
  6
CONTINUOUS
 62
     7
 10
-234.0402478708131
 20
329.5940533200319
 30
0.0
  0
VERTEX
  5
44B
  8
1
  6
CONTINUOUS
 62
     7
 10
-234.0253542649963
 20
329.0989673046557
 30
0.0
  0
VERTEX
  5
44C
  8
1
  6
CONTINUOUS
 62
     7
 10
-234.010451678215
 20
328.5959067173961
 30
0.0
  0
VERTEX
  5
44D
  8
1
  6
CONTINUOUS
 62
     7
 10
-233.9955400941456
 20
328.0853743418718
 30
0.0
  0
VERTEX
  5
44E
  8
1
  6
CONTINUOUS
 62
     7
 10
-233.9806194964641
 20
327.5678729617013
 30
0.0
  0
VERTEX
  5
44F
  8
1
  6
CONTINUOUS
 62
     7
 10
-233.9656898688468
 20
327.0439053605032
 30
0.0
  0
VERTEX
  5
450
  8
1
  6
CONTINUOUS
 62
     7
 10
-233.9507511949696
 20
326.5139743218962
 30
0.0
  0
VERTEX
  5
451
  8
1
  6
CONTINUOUS
 62
     7
 10
-233.9358034585089
 20
325.9785826294986
 30
0.0
  0
VERTEX
  5
452
  8
1
  6
CONTINUOUS
 62
     7
 10
-233.9208466431408
 20
325.4382330669292
 30
0.0
  0
VERTEX
  5
453
  8
1
  6
CONTINUOUS
 62
     7
 10
-233.9058807325397
 20
324.8934285808016
 30
0.0
  0
VERTEX
  5
454
  8
1
  6
CONTINUOUS
 62
     7
 10
-233.8909057101941
 20
324.344689259651
 30
0.0
  0
VERTEX
  5
455
  8
1
  6
CONTINUOUS
 62
     7
 10
-233.8759215592454
 20
323.7925671793319
 30
0.0
  0
VERTEX
  5
456
  8
1
  6
CONTINUOUS
 62
     7
 10
-233.860928262797
 20
323.2376179150491
 30
0.0
  0
VERTEX
  5
457
  8
1
  6
CONTINUOUS
 62
     7
 10
-233.8459258039526
 20
322.6803970420076
 30
0.0
  0
VERTEX
  5
458
  8
1
  6
CONTINUOUS
 62
     7
 10
-233.8309141658154
 20
322.1214601354121
 30
0.0
  0
VERTEX
  5
459
  8
1
  6
CONTINUOUS
 62
     7
 10
-233.815893331489
 20
321.5613627704676
 30
0.0
  0
VERTEX
  5
45A
  8
1
  6
CONTINUOUS
 62
     7
 10
-233.800863284077
 20
321.0006605223791
 30
0.0
  0
VERTEX
  5
45B
  8
1
  6
CONTINUOUS
 62
     7
 10
-233.7858240066828
 20
320.4399089663512
 30
0.0
  0
VERTEX
  5
45C
  8
1
  6
CONTINUOUS
 62
     7
 10
-233.7707754824098
 20
319.879663677589
 30
0.0
  0
VERTEX
  5
45D
  8
1
  6
CONTINUOUS
 62
     7
 10
-233.7557176943616
 20
319.3204802312971
 30
0.0
  0
VERTEX
  5
45E
  8
1
  6
CONTINUOUS
 62
     7
 10
-233.7406506256036
 20
318.7629137188407
 30
0.0
  0
VERTEX
  5
45F
  8
1
  6
CONTINUOUS
 62
     7
 10
-233.7255742588689
 20
318.2075150206798
 30
0.0
  0
VERTEX
  5
460
  8
1
  6
CONTINUOUS
 62
     7
 10
-233.7104885767201
 20
317.6548328492335
 30
0.0
  0
VERTEX
  5
461
  8
1
  6
CONTINUOUS
 62
     7
 10
-233.6953935617183
 20
317.1054158990063
 30
0.0
  0
VERTEX
  5
462
  8
1
  6
CONTINUOUS
 62
     7
 10
-233.6802891964244
 20
316.5598128645029
 30
0.0
  0
VERTEX
  5
463
  8
1
  6
CONTINUOUS
 62
     7
 10
-233.6651754633994
 20
316.0185724402279
 30
0.0
  0
VERTEX
  5
464
  8
1
  6
CONTINUOUS
 62
     7
 10
-233.6500523452044
 20
315.4822433206863
 30
0.0
  0
VERTEX
  5
465
  8
1
  6
CONTINUOUS
 62
     7
 10
-233.6349198244004
 20
314.9513742003825
 30
0.0
  0
VERTEX
  5
466
  8
1
  6
CONTINUOUS
 62
     7
 10
-233.6197778835483
 20
314.4265137738213
 30
0.0
  0
VERTEX
  5
467
  8
1
  6
CONTINUOUS
 62
     7
 10
-233.6046265052092
 20
313.9082107355075
 30
0.0
  0
VERTEX
  5
468
  8
1
  6
CONTINUOUS
 62
     7
 10
-233.5894656719415
 20
313.3970134672071
 30
0.0
  0
VERTEX
  5
469
  8
1
  6
CONTINUOUS
 62
     7
 10
-233.5742953661007
 20
312.8934467597628
 30
0.0
  0
VERTEX
  5
46A
  8
1
  6
CONTINUOUS
 62
     7
 10
-233.5591155697015
 20
312.3979957542328
 30
0.0
  0
VERTEX
  5
46B
  8
1
  6
CONTINUOUS
 62
     7
 10
-233.543926264726
 20
311.9111417931716
 30
0.0
  0
VERTEX
  5
46C
  8
1
  6
CONTINUOUS
 62
     7
 10
-233.5287274331563
 20
311.4333662191335
 30
0.0
  0
VERTEX
  5
46D
  8
1
  6
CONTINUOUS
 62
     7
 10
-233.5135190569745
 20
310.9651503746729
 30
0.0
  0
VERTEX
  5
46E
  8
1
  6
CONTINUOUS
 62
     7
 10
-233.4983011181627
 20
310.5069756023438
 30
0.0
  0
VERTEX
  5
46F
  8
1
  6
CONTINUOUS
 62
     7
 10
-233.4830735987029
 20
310.0593232447009
 30
0.0
  0
VERTEX
  5
470
  8
1
  6
CONTINUOUS
 62
     7
 10
-233.4678364805773
 20
309.6226746442982
 30
0.0
  0
VERTEX
  5
471
  8
1
  6
CONTINUOUS
 62
     7
 10
-233.4525897457679
 20
309.1975111436902
 30
0.0
  0
VERTEX
  5
472
  8
1
  6
CONTINUOUS
 62
     7
 10
-233.4373333762569
 20
308.7843140854312
 30
0.0
  0
VERTEX
  5
473
  8
1
  6
CONTINUOUS
 62
     7
 10
-233.4220673539476
 20
308.3835487551
 30
0.0
  0
VERTEX
  5
474
  8
1
  6
CONTINUOUS
 62
     7
 10
-233.406791660348
 20
307.9955996990486
 30
0.0
  0
VERTEX
  5
475
  8
1
  6
CONTINUOUS
 62
     7
 10
-233.3915062768421
 20
307.620826141796
 30
0.0
  0
VERTEX
  5
476
  8
1
  6
CONTINUOUS
 62
     7
 10
-233.3762111848135
 20
307.2595872989232
 30
0.0
  0
VERTEX
  5
477
  8
1
  6
CONTINUOUS
 62
     7
 10
-233.3609063656464
 20
306.9122423860106
 30
0.0
  0
VERTEX
  5
478
  8
1
  6
CONTINUOUS
 62
     7
 10
-233.3455918007245
 20
306.5791506186393
 30
0.0
  0
VERTEX
  5
479
  8
1
  6
CONTINUOUS
 62
     7
 10
-233.3302674714316
 20
306.26067121239
 30
0.0
  0
VERTEX
  5
47A
  8
1
  6
CONTINUOUS
 62
     7
 10
-233.3149333591517
 20
305.9571633828436
 30
0.0
  0
VERTEX
  5
47B
  8
1
  6
CONTINUOUS
 62
     7
 10
-233.2995894452686
 20
305.6689863455807
 30
0.0
  0
VERTEX
  5
47C
  8
1
  6
CONTINUOUS
 62
     7
 10
-233.2842357111662
 20
305.3964993161821
 30
0.0
  0
VERTEX
  5
47D
  8
1
  6
CONTINUOUS
 62
     7
 10
-233.2688721382045
 20
305.1400551898351
 30
0.0
  0
VERTEX
  5
47E
  8
1
  6
CONTINUOUS
 62
     7
 10
-233.2534987074034
 20
304.8999168308913
 30
0.0
  0
VERTEX
  5
47F
  8
1
  6
CONTINUOUS
 62
     7
 10
-233.2381153995299
 20
304.6762800492378
 30
0.0
  0
VERTEX
  5
480
  8
1
  6
CONTINUOUS
 62
     7
 10
-233.2227221953447
 20
304.4693390550668
 30
0.0
  0
VERTEX
  5
481
  8
1
  6
CONTINUOUS
 62
     7
 10
-233.2073190756086
 20
304.2792880585702
 30
0.0
  0
VERTEX
  5
482
  8
1
  6
CONTINUOUS
 62
     7
 10
-233.1919060210825
 20
304.1063212699398
 30
0.0
  0
VERTEX
  5
483
  8
1
  6
CONTINUOUS
 62
     7
 10
-233.1764830125269
 20
303.9506328993678
 30
0.0
  0
VERTEX
  5
484
  8
1
  6
CONTINUOUS
 62
     7
 10
-233.1610500307029
 20
303.8124171570463
 30
0.0
  0
VERTEX
  5
485
  8
1
  6
CONTINUOUS
 62
     7
 10
-233.1456070563711
 20
303.6918682531672
 30
0.0
  0
VERTEX
  5
486
  8
1
  6
CONTINUOUS
 62
     7
 10
-233.1301540702923
 20
303.5891803979225
 30
0.0
  0
VERTEX
  5
487
  8
1
  6
CONTINUOUS
 62
     7
 10
-233.1146910532219
 20
303.5045462050411
 30
0.0
  0
VERTEX
  5
488
  8
1
  6
CONTINUOUS
 62
     7
 10
-233.0992179856601
 20
303.4380830473191
 30
0.0
  0
SEQEND
  5
4AF
  8
1
  6
CONTINUOUS
 62
     7
  0
LINE
  5
BA
  8
1
  6
CONTINUOUS
 62
     7
 10
-233.0992179856601
 20
303.4380830473191
 30
0.0
 11
-233.0503597348414
 21
303.3475829901049
 31
0.0
  0
ARC
  5
BB
  8
1
  6
CONTINUOUS
 62
     7
 10
896.1568677932977
 20
370.4625639729438
 30
0.0
 40
1131.35483323276
 50
181.786526114817
 51
183.3694562438259
  0
ARC
  5
BC
  8
1
  6
CONTINUOUS
 62
     7
 10
-253.3741898481617
 20
334.3211359247589
 30
0.0
 40
18.7463824387773
 50
2.661942213815642
 51
9.069851687983421
  0
POLYLINE
  5
BD
  8
1
  6
CONTINUOUS
 62
     7
 66
     1
 10
0.0
 20
0.0
 30
0.0
  0
VERTEX
  5
489
  8
1
  6
CONTINUOUS
 62
     7
 10
-234.862195475734
 20
337.2762871723439
 30
0.0
  0
VERTEX
  5
48A
  8
1
  6
CONTINUOUS
 62
     7
 10
-234.9026559044075
 20
337.4062900779471
 30
0.0
  0
VERTEX
  5
48B
  8
1
  6
CONTINUOUS
 62
     7
 10
-234.9433236409022
 20
337.45
 30
0.0
  0
SEQEND
  5
4B0
  8
1
  6
CONTINUOUS
 62
     7
  0
LINE
  5
BE
  8
1
  6
CONTINUOUS
 62
     7
 10
-240.9433236804647
 20
337.45
 30
0.0
 11
-240.8890740929805
 21
337.3416766376119
 31
0.0
  0
ARC
  5
BF
  8
1
  6
CONTINUOUS
 62
     7
 10
-284.7179577820915
 20
331.9722687468704
 30
0.0
 40
44.15655768434381
 50
0.5689077725751304
 51
6.984413529900166
  0
LINE
  5
C0
  8
1
  6
CONTINUOUS
 62
     7
 10
-237.9433236804538
 20
337.45
 30
0.0
 11
-237.829399590268
 21
336.9740445836952
 31
0.0
  0
LINE
  5
C1
  8
1
  6
CONTINUOUS
 62
     7
 10
-234.7413995062881
 20
303.8500000000034
 30
0.0
 11
-234.7603871937856
 21
303.8632821815808
 31
0.0
  0
LINE
  5
C2
  8
1
  6
CONTINUOUS
 62
     7
 10
-237.7413995938262
 20
303.8500000000018
 30
0.0
 11
-237.7983618775732
 21
303.9694133274762
 31
0.0
  0
LINE
  5
C3
  8
1
  6
CONTINUOUS
 62
     7
 10
-240.741400031561
 20
303.8500000000018
 30
0.0
 11
-240.8363365611175
 21
304.1810045126335
 31
0.0
  0
ARC
  5
C4
  8
1
  6
CONTINUOUS
 62
     7
 10
-260.9537570583313
 20
320.65
 30
0.0
 40
4.206393386051433
 50
323.5348751299326
 51
36.46512487007004
  0
ARC
  5
C5
  8
1
  6
CONTINUOUS
 62
     7
 10
-245.9795132685686
 20
310.4
 30
0.0
 40
13.94355284841302
 50
146.2333087699429
 51
213.7666912300561
  0
POLYLINE
  5
C6
  8
1
  6
CONTINUOUS
 62
     7
 66
     1
 10
0.0
 20
0.0
 30
0.0
  0
VERTEX
  5
48C
  8
1
  6
CONTINUOUS
 62
     7
 10
-257.5708965353097
 20
300.15
 30
0.0
  0
VERTEX
  5
48D
  8
1
  6
CONTINUOUS
 62
     7
 10
-257.4629946454148
 20
300.1535728642555
 30
0.0
  0
VERTEX
  5
48E
  8
1
  6
CONTINUOUS
 62
     7
 10
-257.3597835416069
 20
300.1644829247921
 30
0.0
  0
VERTEX
  5
48F
  8
1
  6
CONTINUOUS
 62
     7
 10
-257.1705356434553
 20
300.209463441331
 30
0.0
  0
VERTEX
  5
490
  8
1
  6
CONTINUOUS
 62
     7
 10
-257.0093567432618
 20
300.2872391628602
 30
0.0
  0
VERTEX
  5
491
  8
1
  6
CONTINUOUS
 62
     7
 10
-256.9107550309001
 20
300.3681461261257
 30
0.0
  0
VERTEX
  5
492
  8
1
  6
CONTINUOUS
 62
     7
 10
-256.833374745196
 20
300.4692462882221
 30
0.0
  0
VERTEX
  5
493
  8
1
  6
CONTINUOUS
 62
     7
 10
-256.7870666700475
 20
300.5688969686266
 30
0.0
  0
VERTEX
  5
494
  8
1
  6
CONTINUOUS
 62
     7
 10
-256.7581061022183
 20
300.6825249976503
 30
0.0
  0
VERTEX
  5
495
  8
1
  6
CONTINUOUS
 62
     7
 10
-256.7473926525146
 20
300.8120995476514
 30
0.0
  0
VERTEX
  5
496
  8
1
  6
CONTINUOUS
 62
     7
 10
-256.7562947038682
 20
300.9578288473494
 30
0.0
  0
SEQEND
  5
4B1
  8
1
  6
CONTINUOUS
 62
     7
  0
ARC
  5
C7
  8
1
  6
CONTINUOUS
 62
     7
 10
-261.0313417934908
 20
299.9420028127385
 30
0.0
 40
4.394078987806625
 50
13.36659148137198
 51
38.04522127921586
  0
ARC
  5
C8
  8
1
  6
CONTINUOUS
 62
     7
 10
-261.074713753751
 20
341.3828775176302
 30
0.0
 40
4.443574532582274
 50
322.0467849385549
 51
346.2704539563032
  0
POLYLINE
  5
C9
  8
1
  6
CONTINUOUS
 62
     7
 66
     1
 10
0.0
 20
0.0
 30
0.0
  0
VERTEX
  5
497
  8
1
  6
CONTINUOUS
 62
     7
 10
-256.7581061022184
 20
340.3282434534429
 30
0.0
  0
VERTEX
  5
498
  8
1
  6
CONTINUOUS
 62
     7
 10
-256.7473926525146
 20
340.4722862378058
 30
0.0
  0
VERTEX
  5
499
  8
1
  6
CONTINUOUS
 62
     7
 10
-256.7562947038683
 20
340.6059938448503
 30
0.0
  0
VERTEX
  5
49A
  8
1
  6
CONTINUOUS
 62
     7
 10
-256.7855720905091
 20
340.7269944616278
 30
0.0
  0
VERTEX
  5
49B
  8
1
  6
CONTINUOUS
 62
     7
 10
-256.8354185344311
 20
340.8341365244224
 30
0.0
  0
VERTEX
  5
49C
  8
1
  6
CONTINUOUS
 62
     7
 10
-256.9086775701813
 20
340.929735735967
 30
0.0
  0
VERTEX
  5
49D
  8
1
  6
CONTINUOUS
 62
     7
 10
-257.0068512042785
 20
341.0110923445829
 30
0.0
  0
VERTEX
  5
49E
  8
1
  6
CONTINUOUS
 62
     7
 10
-257.147200052612
 20
341.0821503796782
 30
0.0
  0
VERTEX
  5
49F
  8
1
  6
CONTINUOUS
 62
     7
 10
-257.3369315642351
 20
341.1320591880079
 30
0.0
  0
VERTEX
  5
4A0
  8
1
  6
CONTINUOUS
 62
     7
 10
-257.4508002198878
 20
341.1455844040526
 30
0.0
  0
VERTEX
  5
4A1
  8
1
  6
CONTINUOUS
 62
     7
 10
-257.5708965353099
 20
341.15
 30
0.0
  0
SEQEND
  5
4B2
  8
1
  6
CONTINUOUS
 62
     7
  0
ARC
  5
CA
  8
1
  6
CONTINUOUS
 62
     7
 10
-245.9788798068733
 20
330.9
 30
0.0
 40
13.9440794544621
 50
146.2347554796592
 51
213.7652445203413
  0
LINE
  5
CB
  8
1
  6
CONTINUOUS
 62
     9
 10
-257.5708965353098
 20
323.15
 30
0.0
 11
-242.5923617465789
 21
323.15
 31
0.0
  0
LINE
  5
CC
  8
1
  6
CONTINUOUS
 62
     9
 10
-242.5923617465789
 20
338.6499999999999
 30
0.0
 11
-257.5708965353098
 21
338.6499999999999
 31
0.0
  0
LINE
  5
CD
  8
1
  6
CONTINUOUS
 62
     9
 10
-257.5708965353098
 20
302.65
 30
0.0
 11
-242.5923617465789
 21
302.65
 31
0.0
  0
LINE
  5
CE
  8
1
  6
CONTINUOUS
 62
     9
 10
-242.5923617465789
 20
318.15
 30
0.0
 11
-257.5708965353097
 21
318.1500000000001
 31
0.0
  0
ARC
  5
CF
  8
1
  6
CONTINUOUS
 62
     7
 10
-201.4923617465788
 20
299.1999999999999
 30
0.0
 40
2.000000000000002
 50
180.0
 51
270.0
  0
ARC
  5
D0
  8
1
  6
CONTINUOUS
 62
     7
 10
-183.4923617465788
 20
342.1
 30
0.0
 40
2.000000000000002
 50
0.0000000000000994
 51
90.0
  0
ARC
  5
D1
  8
1
  6
CONTINUOUS
 62
     7
 10
-183.4923617465788
 20
299.2
 30
0.0
 40
2.000000000000002
 50
270.0
 51
359.9999999999998
  0
LINE
  5
D2
  8
1
  6
CONTINUOUS
 62
     7
 10
-201.4923617465788
 20
297.2
 30
0.0
 11
-183.4923617465788
 21
297.2
 31
0.0
  0
ARC
  5
D3
  8
1
  6
CONTINUOUS
 62
     7
 10
-201.4923617465788
 20
342.1
 30
0.0
 40
1.999999999999946
 50
90.0
 51
180.0
  0
LINE
  5
D4
  8
1
  6
CONTINUOUS
 62
     7
 10
-183.4923617465788
 20
344.1
 30
0.0
 11
-201.4923617465788
 21
344.1
 31
0.0
  0
LINE
  5
D5
  8
1
  6
CONTINUOUS
 62
     7
 10
-229.5297218058924
 20
299.45
 30
0.0
 11
-203.4923617465788
 21
299.45
 31
0.0
  0
LINE
  5
D6
  8
1
  6
CONTINUOUS
 62
     7
 10
-203.4923617465788
 20
341.85
 30
0.0
 11
-229.5297218058924
 21
341.85
 31
0.0
  0
ARC
  5
D7
  8
1
  6
CONTINUOUS
 62
     7
 10
-229.5297218058924
 20
341.35
 30
0.0
 40
0.5000000000000004
 50
90.0
 51
165.0000000000001
  0
ARC
  5
D8
  8
1
  6
CONTINUOUS
 62
     7
 10
-229.5297218058924
 20
299.95
 30
0.0
 40
0.4999999999999986
 50
194.9999999999999
 51
270.0
  0
LINE
  5
D9
  8
1
  6
CONTINUOUS
 62
     7
 10
-230.012684719037
 20
341.4794095225512
 30
0.0
 11
-231.0923617465789
 21
337.45
 31
0.0
  0
LINE
  5
DA
  8
1
  6
CONTINUOUS
 62
     7
 10
-231.0923617465789
 20
303.85
 30
0.0
 11
-230.012684719037
 21
299.8205904774487
 31
0.0
  0
LINE
  5
DB
  8
1
  6
CONTINUOUS
 62
     7
 10
-242.0413234273131
 20
302.3504395396628
 30
0.0
 11
-241.1432471775942
 21
302.3504395394243
 31
0.0
  0
LINE
  5
DC
  8
1
  6
CONTINUOUS
 62
     7
 10
-239.0414763155635
 20
302.3504395394243
 30
0.0
 11
-238.1434000658446
 21
302.3504395396628
 31
0.0
  0
LINE
  5
DD
  8
1
  6
CONTINUOUS
 62
     7
 10
-236.0415066259941
 20
302.3500949203197
 30
0.0
 11
-235.1434303762285
 21
302.3500949206494
 31
0.0
  0
LINE
  5
DE
  8
1
  6
CONTINUOUS
 62
     7
 10
-236.6434458550668
 20
338.9497195814608
 30
0.0
 11
-237.5415221048145
 21
338.9497195818406
 31
0.0
  0
LINE
  5
DF
  8
1
  6
CONTINUOUS
 62
     7
 10
-239.6433236217287
 20
338.9494993741098
 30
0.0
 11
-240.541399871429
 21
338.9494993741098
 31
0.0
  0
LINE
  5
E0
  8
1
  6
CONTINUOUS
 62
     7
 10
-241.0969892424105
 20
302.4361359242537
 30
0.0
 11
-240.7161983305387
 21
303.8500036895346
 31
0.0
  0
LINE
  5
E1
  8
1
  6
CONTINUOUS
 62
     7
 10
-238.0970007526366
 20
302.4364388063352
 30
0.0
 11
-237.7162811142549
 21
303.8500035722063
 31
0.0
  0
LINE
  5
E2
  8
1
  6
CONTINUOUS
 62
     7
 10
-235.0969637280795
 20
302.4366720035159
 30
0.0
 11
-234.7163158305653
 21
303.8500035476096
 31
0.0
  0
LINE
  5
E3
  8
1
  6
CONTINUOUS
 62
     7
 10
-236.1909749170408
 20
337.3559635517889
 30
0.0
 11
-236.5969761366874
 21
338.8633633972232
 31
0.0
  0
LINE
  5
E4
  8
1
  6
CONTINUOUS
 62
     7
 10
-239.1910421583239
 20
337.3565004587335
 30
0.0
 11
-239.5970167933658
 21
338.8638014373956
 31
0.0
  0
LINE
  5
E5
  8
1
  6
CONTINUOUS
 62
     7
 10
-242.1909764633211
 20
337.3563655782183
 30
0.0
 11
-242.5969467184845
 21
338.8637219329345
 31
0.0
  0
LINE
  5
E6
  8
1
  6
CONTINUOUS
 62
     7
 10
-242.4961561430383
 20
303.9528544669449
 30
0.0
 11
-242.087722740521
 21
302.4364388063352
 31
0.0
  0
LINE
  5
E7
  8
1
  6
CONTINUOUS
 62
     7
 10
-239.4961466032004
 20
303.9525150529061
 30
0.0
 11
-239.0877342507471
 21
302.4361359242537
 31
0.0
  0
LINE
  5
E8
  8
1
  6
CONTINUOUS
 62
     7
 10
-236.4962282819989
 20
303.9529964401216
 30
0.0
 11
-236.0878050532626
 21
302.4365327322074
 31
0.0
  0
LINE
  5
E9
  8
1
  6
CONTINUOUS
 62
     7
 10
-234.6085342297673
 20
338.7689211031529
 30
0.0
 11
-234.9648267465501
 21
337.449964313484
 31
0.0
  0
LINE
  5
EA
  8
1
  6
CONTINUOUS
 62
     7
 10
-237.5877767746732
 20
338.8637219329345
 30
0.0
 11
-237.9685192445995
 21
337.4499959414374
 31
0.0
  0
LINE
  5
EB
  8
1
  6
CONTINUOUS
 62
     7
 10
-240.5877066997918
 20
338.8638014373956
 30
0.0
 11
-240.9684887081155
 21
337.44999604935
 31
0.0
  0
LINE
  5
EC
  8
1
  6
CONTINUOUS
 62
     7
 10
-232.102837142926
 20
303.439622704358
 30
0.0
 11
-231.9927351787244
 21
303.8499879447978
 31
0.0
  0
LINE
  5
ED
  8
1
  6
CONTINUOUS
 62
     7
 10
-233.1999721976183
 20
337.3589752552185
 30
0.0
 11
-233.6053077859392
 21
338.8664474595971
 31
0.0
  0
LINE
  5
EE
  8
1
  6
CONTINUOUS
 62
     7
 10
-233.0503413766262
 20
303.3475829778313
 30
0.0
 11
-232.1522221077245
 21
303.3475803940429
 31
0.0
  0
LINE
  5
EF
  8
1
  6
CONTINUOUS
 62
     7
 10
-233.2430596449816
 20
303.9712842846075
 30
0.0
 11
-233.0992289435127
 21
303.4381236692782
 31
0.0
  0
LINE
  5
F0
  8
1
  6
CONTINUOUS
 62
     7
 10
-232.0095257327654
 20
303.85
 30
0.0
 11
-231.0923617465789
 21
303.85
 31
0.0
  0
LINE
  5
F1
  8
1
  6
CONTINUOUS
 62
     7
 10
-234.7413995062881
 20
303.85
 30
0.0
 11
-233.2103430923148
 21
303.85
 31
0.0
  0
LINE
  5
F2
  8
1
  6
CONTINUOUS
 62
     7
 10
-237.7413995938262
 20
303.85
 30
0.0
 11
-236.4684833238118
 21
303.85
 31
0.0
  0
LINE
  5
F3
  8
1
  6
CONTINUOUS
 62
     7
 10
-240.741400031561
 20
303.85
 30
0.0
 11
-239.4685305768272
 21
303.85
 31
0.0
  0
LINE
  5
F4
  8
1
  6
CONTINUOUS
 62
     7
 10
-242.5923617465789
 20
303.85
 30
0.0
 11
-242.4684478868779
 21
303.85
 31
0.0
  0
LINE
  5
F5
  8
1
  6
CONTINUOUS
 62
     7
 10
-240.9433236804647
 20
337.45
 30
0.0
 11
-242.2161994282383
 21
337.45
 31
0.0
  0
LINE
  5
F6
  8
1
  6
CONTINUOUS
 62
     7
 10
-237.9433236804538
 20
337.45
 30
0.0
 11
-239.2162299756244
 21
337.45
 31
0.0
  0
LINE
  5
F7
  8
1
  6
CONTINUOUS
 62
     7
 10
-234.9433236409022
 20
337.45
 30
0.0
 11
-236.2163074087821
 21
337.45
 31
0.0
  0
LINE
  5
F8
  8
1
  6
CONTINUOUS
 62
     7
 10
-231.0923617465789
 20
337.45
 30
0.0
 11
-233.2244512539831
 21
337.45
 31
0.0
  0
ARC
  5
F9
  8
1
  6
CONTINUOUS
 62
     7
 10
-246.3429176109
 20
314.8327739024574
 30
0.0
 40
20.0
 50
204.4631347541711
 51
227.2345538022748
  0
ARC
  5
FA
  8
1
  6
CONTINUOUS
 62
     7
 10
-246.3429176109
 20
326.4672260975426
 30
0.0
 40
20.00000000000001
 50
132.7654461977252
 51
155.5368652458289
  0
ARC
  5
FB
  8
1
  6
CONTINUOUS
 62
     7
 10
-264.0923617465788
 20
306.7576743442837
 30
0.0
 40
0.5000000000000004
 50
180.0
 51
204.4631347541707
  0
ARC
  5
FC
  8
1
  6
CONTINUOUS
 62
     7
 10
-264.0923617465788
 20
334.5423256557163
 30
0.0
 40
0.4999999999999827
 50
155.5368652458293
 51
180.0
  0
ENDBLK
  8
0
  0
BLOCK
  8
0
  2
D_FRAME_VIEW_3124
 70
     0
 10
0.0
 20
0.0
 30
0.0
  0
CIRCLE
  5
116
  8
1
  6
CONTINUOUS
 62
     7
 10
-303.0006206694109
 20
320.65
 30
0.0
 40
9.800000000000006
  0
CIRCLE
  5
117
  8
1
  6
CONTINUOUS
 62
     7
 10
-303.0006206694109
 20
320.65
 30
0.0
 40
10.60000000000001
  0
ARC
  5
118
  8
1
  6
CONTINUOUS
 62
     7
 10
-303.0006206694109
 20
320.65
 30
0.0
 40
23.45
 50
187.195826155977
 51
355.7202167997182
  0
ARC
  5
119
  8
1
  6
CONTINUOUS
 62
     7
 10
-303.0006206694109
 20
320.65
 30
0.0
 40
21.45
 50
312.9420051427709
 51
347.1065104544318
  0
ARC
  5
11A
  8
1
  6
CONTINUOUS
 62
     7
 10
-303.0006206694109
 20
320.65
 30
0.0
 40
21.45
 50
252.9420051427708
 51
287.1065104544313
  0
ARC
  5
11B
  8
1
  6
CONTINUOUS
 62
     7
 10
-303.0006206694109
 20
320.65
 30
0.0
 40
21.45
 50
192.9420051427708
 51
227.1065104544307
  0
ARC
  5
11C
  8
1
  6
CONTINUOUS
 62
     7
 10
-303.0006206694109
 20
320.65
 30
0.0
 40
21.45
 50
132.9420051427714
 51
167.1065104544317
  0
ARC
  5
11D
  8
1
  6
CONTINUOUS
 62
     7
 10
-303.0006206694109
 20
320.65
 30
0.0
 40
21.45
 50
72.94200514277156
 51
107.1065104544317
  0
ARC
  5
11E
  8
1
  6
CONTINUOUS
 62
     7
 10
-303.0006206694109
 20
320.65
 30
0.0
 40
21.45
 50
12.94200514277168
 51
47.10651045443194
  0
ARC
  5
11F
  8
1
  6
CONTINUOUS
 62
     7
 10
-303.0006206694109
 20
320.65
 30
0.0
 40
23.45
 50
7.195826155977046
 51
175.7202167997182
  0
ARC
  5
120
  8
1
  6
CONTINUOUS
 62
     7
 10
-326.761986370902
 20
317.65
 30
0.0
 40
0.4999999999999994
 50
7.195826155977078
 51
90.00000000000004
  0
LINE
  5
121
  8
1
  6
CONTINUOUS
 62
     7
 10
-325.75369738444
 20
318.15
 30
0.0
 11
-325.2825658944028
 21
318.0833311658656
 31
0.0
  0
ARC
  5
122
  8
1
  6
CONTINUOUS
 62
     7
 10
-279.2392549679197
 20
323.65
 30
0.0
 40
0.4999999999999994
 50
187.195826155977
 51
270.0
  0
LINE
  5
123
  8
1
  6
CONTINUOUS
 62
     7
 10
-280.2475439543818
 20
323.15
 30
0.0
 11
-280.718675444419
 21
323.2166688341343
 31
0.0
  0
LINE
  5
124
  8
1
  6
CONTINUOUS
 62
     7
 10
-327.825054197691
 20
318.15
 30
0.0
 11
-325.75369738444
 21
318.15
 31
0.0
  0
LINE
  5
125
  8
1
  6
CONTINUOUS
 62
     7
 10
-278.1761871411308
 20
323.15
 30
0.0
 11
-280.2475439543818
 21
323.15
 31
0.0
  0
LINE
  5
126
  8
1
  6
CONTINUOUS
 62
     7
 10
-321.7542100995402
 20
310.2528242377536
 30
0.0
 11
-321.5319838046694
 21
310.3660541905371
 31
0.0
  0
LINE
  5
127
  8
1
  6
CONTINUOUS
 62
     7
 10
-318.3959139712638
 20
306.3153668699269
 30
0.0
 11
-318.686964748329
 21
306.0243160928617
 31
0.0
  0
LINE
  5
128
  8
1
  6
CONTINUOUS
 62
     7
 10
-284.2470312392816
 20
331.0471757622464
 30
0.0
 11
-284.4692575341523
 21
330.9339458094629
 31
0.0
  0
LINE
  5
129
  8
1
  6
CONTINUOUS
 62
     7
 10
-287.4934477165379
 20
335.0965127810932
 30
0.0
 11
-287.3142765904927
 21
335.2756839071383
 31
0.0
  0
LINE
  5
12A
  8
1
  6
CONTINUOUS
 62
     7
 10
-322.4351958491495
 20
329.7106659759638
 30
0.0
 11
-322.2129695542789
 21
329.5974360231804
 31
0.0
  0
LINE
  5
12B
  8
1
  6
CONTINUOUS
 62
     7
 10
-318.6841002686016
 20
335.2728194274109
 30
0.0
 11
-318.5077404824552
 21
335.0964596412645
 31
0.0
  0
LINE
  5
12C
  8
1
  6
CONTINUOUS
 62
     7
 10
-321.5320507647601
 20
330.9339799273332
 30
0.0
 11
-321.7578195545665
 21
331.049014871441
 31
0.0
  0
LINE
  5
12D
  8
1
  6
CONTINUOUS
 62
     7
 10
-287.3171410702201
 20
306.027180572589
 30
0.0
 11
-287.4935008563666
 21
306.2035403587356
 31
0.0
  0
LINE
  5
12E
  8
1
  6
CONTINUOUS
 62
     7
 10
-284.4691905740618
 20
310.3660200726669
 30
0.0
 11
-284.2434217842553
 21
310.2509851285589
 31
0.0
  0
LINE
  5
12F
  8
1
  6
CONTINUOUS
 62
     7
 10
-283.5660454896723
 20
311.5893340240362
 30
0.0
 11
-283.788271784543
 21
311.7025639768196
 31
0.0
  0
ARC
  5
130
  8
1
  6
CONTINUOUS
 62
     9
 10
-303.0006206694109
 20
320.65
 30
0.0
 40
20.82940952255126
 50
199.8985205645075
 51
220.1014794354924
  0
ARC
  5
131
  8
1
  6
CONTINUOUS
 62
     7
 10
-303.0006206694109
 20
320.65
 30
0.0
 40
21.2
 50
315.2590390923624
 51
344.7409609076382
  0
ARC
  5
132
  8
1
  6
CONTINUOUS
 62
     7
 10
-303.0006206694109
 20
320.65
 30
0.0
 40
21.2
 50
255.2590390923624
 51
284.7409609076378
  0
ARC
  5
133
  8
1
  6
CONTINUOUS
 62
     7
 10
-303.0006206694109
 20
320.65
 30
0.0
 40
21.2
 50
195.2590390923624
 51
224.7409609076374
  0
ARC
  5
134
  8
1
  6
CONTINUOUS
 62
     7
 10
-303.0006206694109
 20
320.65
 30
0.0
 40
21.2
 50
135.2590390923617
 51
164.7409609076385
  0
ARC
  5
135
  8
1
  6
CONTINUOUS
 62
     7
 10
-303.0006206694109
 20
320.65
 30
0.0
 40
21.2
 50
75.25903909236172
 51
104.7409609076383
  0
ARC
  5
136
  8
1
  6
CONTINUOUS
 62
     7
 10
-303.0006206694109
 20
320.65
 30
0.0
 40
21.2
 50
15.25903909236206
 51
44.74096090763845
  0
ARC
  5
137
  8
1
  6
CONTINUOUS
 62
     7
 10
-278.393304684119
 20
322.1
 30
0.0
 40
0.2999999999999999
 50
3.372286683436585
 51
90.0
  0
ARC
  5
138
  8
1
  6
CONTINUOUS
 62
     7
 10
-327.6079366547028
 20
319.2
 30
0.0
 40
0.2999999999999999
 50
183.3722866834339
 51
270.0
  0
CIRCLE
  5
139
  8
1
  6
CONTINUOUS
 62
     7
 10
-303.0006206694109
 20
320.65
 30
0.0
 40
13.0
  0
ARC
  5
13A
  8
1
  6
CONTINUOUS
 62
     7
 10
-285.1034730140873
 20
320.65
 30
0.0
 40
5.000615487834089
 50
330.004071450023
 51
29.99592854997877
  0
LINE
  5
13B
  8
1
  6
CONTINUOUS
 62
     7
 10
-289.7215644780495
 20
302.65
 30
0.0
 11
-280.7726353056102
 21
318.1500000000001
 31
0.0
  0
ARC
  5
13C
  8
1
  6
CONTINUOUS
 62
     7
 10
-294.052046841749
 20
305.1506154752084
 30
0.0
 40
5.000615487833841
 50
270.0040714500204
 51
329.9959285499807
  0
LINE
  5
13D
  8
1
  6
CONTINUOUS
 62
     7
 10
-311.9495498418503
 20
300.15
 30
0.0
 11
-294.0516914969716
 21
300.15
 31
0.0
  0
ARC
  5
13E
  8
1
  6
CONTINUOUS
 62
     7
 10
-311.9491944970729
 20
305.1506154752084
 30
0.0
 40
5.000615487833814
 50
210.0040714500189
 51
269.9959285499779
  0
LINE
  5
13F
  8
1
  6
CONTINUOUS
 62
     7
 10
-325.2286060332115
 20
318.15
 30
0.0
 11
-316.2796768607723
 21
302.65
 31
0.0
  0
ARC
  5
140
  8
1
  6
CONTINUOUS
 62
     7
 10
-320.8977683247347
 20
320.65
 30
0.0
 40
5.000615487833979
 50
150.0040714500211
 51
209.9959285499799
  0
LINE
  5
141
  8
1
  6
CONTINUOUS
 62
     7
 10
-316.2796768607723
 20
338.6499999999999
 30
0.0
 11
-325.2286060332116
 21
323.1499999999999
 31
0.0
  0
ARC
  5
142
  8
1
  6
CONTINUOUS
 62
     7
 10
-311.9491944970728
 20
336.1493845247915
 30
0.0
 40
5.000615487833886
 50
90.0040714500206
 51
149.9959285499807
  0
LINE
  5
143
  8
1
  6
CONTINUOUS
 62
     7
 10
-294.0516914969714
 20
341.15
 30
0.0
 11
-311.9495498418501
 21
341.15
 31
0.0
  0
ARC
  5
144
  8
1
  6
CONTINUOUS
 62
     7
 10
-294.0520468417491
 20
336.1493845247914
 30
0.0
 40
5.000615487834021
 50
30.00407145001996
 51
89.99592854997637
  0
LINE
  5
145
  8
1
  6
CONTINUOUS
 62
     7
 10
-280.7726353056103
 20
323.15
 30
0.0
 11
-289.7215644780495
 21
338.6499999999999
 31
0.0
  0
ENDBLK
  8
0
  0
ENDSEC
  0
SECTION
  2
ENTITIES
  0
TEXT
  5
70
  8
1
  6
CONTINUOUS
 62
     7
 10
-277.5144210328874
 20
283.9784200325121
 30
0.0
 40
3.0
  1
GLMFS-28D19
  0
INSERT
  5
FD
  8
1
  6
CONTINUOUS
 62
     7
  2
D_FRAME_VIEW_3448
 10
0.0
 20
0.0
 30
0.0
  0
LINE
  5
FE
  8
1
  6
CONTINUOUS
 62
     7
 10
-231.0923617465789
 20
303.85
 30
0.0
 11
-231.0923617465789
 21
337.45
 31
0.0
  0
LINE
  5
FF
  8
1
  6
CONTINUOUS
 62
     7
 10
-181.4923617465788
 20
342.1
 30
0.0
 11
-181.4923617465788
 21
299.1999999999999
 31
0.0
  0
LINE
  5
100
  8
1
  6
CONTINUOUS
 62
     7
 10
-203.4923617465788
 20
319.65
 30
0.0
 11
-183.9662514804829
 21
319.65
 31
0.0
  0
LINE
  5
101
  8
1
  6
CONTINUOUS
 62
     7
 10
-183.9348814964922
 20
323.15
 30
0.0
 11
-203.4923617465788
 21
323.15
 31
0.0
  0
LINE
  5
102
  8
1
  6
CONTINUOUS
 62
     7
 10
-327.6079366547028
 20
322.4
 30
0.0
 11
-325.5812760697203
 21
322.4
 31
0.0
  0
LINE
  5
103
  8
1
  6
CONTINUOUS
 62
     7
 10
-203.9923617465789
 20
322.4
 30
0.0
 11
-203.9923617465785
 21
318.9
 31
0.0
  0
LINE
  5
104
  8
1
  6
CONTINUOUS
 62
     7
 10
-242.5923617465789
 20
341.1499999999999
 30
0.0
 11
-242.5923617465789
 21
300.15
 31
0.0
  0
LINE
  5
105
  8
1
  6
CONTINUOUS
 62
     7
 10
-259.9229084256729
 20
341.15
 30
0.0
 11
-242.5923617465788
 21
341.15
 31
0.0
  0
LINE
  5
106
  8
1
  6
CONTINUOUS
 62
     7
 10
-203.9923617465789
 20
318.9
 30
0.0
 11
-218.1850603568595
 21
318.9
 31
0.0
  0
LINE
  5
107
  8
1
  6
CONTINUOUS
 62
     7
 10
-218.1850603568595
 20
322.4
 30
0.0
 11
-203.9923617465789
 21
322.4
 31
0.0
  0
LINE
  5
108
  8
1
  6
CONTINUOUS
 62
     7
 10
-203.4923617465788
 20
342.1
 30
0.0
 11
-203.4923617465788
 21
299.2
 31
0.0
  0
LINE
  5
109
  8
1
  6
CONTINUOUS
 62
     7
 10
-264.5923617465788
 20
306.7576743442837
 30
0.0
 11
-264.5923617465788
 21
334.5423256557163
 31
0.0
  0
LINE
  5
10A
  8
1
  6
CONTINUOUS
 62
     7
 10
-242.5923617465789
 20
300.15
 30
0.0
 11
-259.9229084255354
 21
300.15
 31
0.0
  0
LINE
  5
10B
  8
1
  6
CONTINUOUS
 62
     7
 10
-235.0641846621285
 20
307.545038087843
 30
0.0
 11
-235.2194036244458
 21
311.5769745651932
 31
0.0
  0
LINE
  5
10C
  8
1
  6
CONTINUOUS
 62
     7
 10
-278.393304684119
 20
318.9
 30
0.0
 11
-280.4199652691015
 21
318.9
 31
0.0
  0
LINE
  5
10D
  8
1
  6
CONTINUOUS
 62
     7
 10
-325.5812741126956
 20
318.9
 30
0.0
 11
-327.6079366547027
 21
318.9
 31
0.0
  0
LINE
  5
10E
  8
1
  6
CONTINUOUS
 62
     7
 10
-280.4199672261263
 20
322.4
 30
0.0
 11
-278.393304684119
 21
322.4
 31
0.0
  0
ARC
  5
10F
  8
1
  6
CONTINUOUS
 62
     7
 10
-327.6079366547028
 20
322.1
 30
0.0
 40
0.2999999999999999
 50
90.0
 51
176.6277133165592
  0
ARC
  5
110
  8
1
  6
CONTINUOUS
 62
     7
 10
-278.393304684119
 20
319.2
 30
0.0
 40
0.3
 50
270.0
 51
356.6277133165697
  0
ARC
  5
111
  8
1
  6
CONTINUOUS
 62
     7
 10
-303.0006206694109
 20
320.65
 30
0.0
 40
24.95
 50
356.6277133165661
 51
5.750710559089043
  0
ARC
  5
112
  8
1
  6
CONTINUOUS
 62
     7
 10
-303.0006206694109
 20
320.65
 30
0.0
 40
24.95
 50
176.6277133165661
 51
185.750710559089
  0
INSERT
  5
146
  8
1
  6
CONTINUOUS
 62
     7
  2
D_FRAME_VIEW_3124
 10
0.0
 20
0.0
 30
0.0
  0
ENDSEC
  0
EOF
