  0
SECTION
  2
HEADER
  9
$ACADVER
  1
AC1006
  9
$DWGCODEPAGE
  3
ansi_932
  9
$INSBASE
 10
0.0
 20
0.0
 30
0.0
  9
$EXTMIN
 10
-453.3535017521541
 20
72.78409090909092
  9
$EXTMAX
 10
-333.4416730666491
 20
128.0
  9
$LIMMIN
 10
0.0
 20
0.0
  9
$LIMMAX
 10
12.0
 20
9.0
  9
$ORTHOMODE
 70
     0
  9
$REGENMODE
 70
     1
  9
$FILLMODE
 70
     1
  9
$QTEXTMODE
 70
     0
  9
$MIRRTEXT
 70
     1
  9
$DRAGMODE
 70
     2
  9
$LTSCALE
 40
1.0
  9
$OSMODE
 70
    37
  9
$ATTMODE
 70
     1
  9
$TEXTSIZE
 40
0.2
  9
$TRACEWID
 40
0.05
  9
$TEXTSTYLE
  7
STANDARD
  9
$CLAYER
  8
0
  9
$CELTYPE
  6
BYLAYER
  9
$CECOLOR
 62
   256
  9
$DIMSCALE
 40
1.0
  9
$DIMASZ
 40
3.0
  9
$DIMEXO
 40
0.0625
  9
$DIMDLI
 40
0.38
  9
$DIMRND
 40
0.0
  9
$DIMDLE
 40
0.0
  9
$DIMEXE
 40
1.5
  9
$DIMTP
 40
0.0
  9
$DIMTM
 40
0.0
  9
$DIMTXT
 40
3.0
  9
$DIMCEN
 40
0.09
  9
$DIMTSZ
 40
0.0
  9
$DIMTOL
 70
     0
  9
$DIMLIM
 70
     0
  9
$DIMTIH
 70
     1
  9
$DIMTOH
 70
     1
  9
$DIMSE1
 70
     0
  9
$DIMSE2
 70
     0
  9
$DIMTAD
 70
     1
  9
$DIMZIN
 70
     0
  9
$DIMBLK
  1

  9
$DIMASO
 70
     1
  9
$DIMSHO
 70
     1
  9
$DIMPOST
  1

  9
$DIMAPOST
  1

  9
$DIMALT
 70
     0
  9
$DIMALTD
 70
     2
  9
$DIMALTF
 40
25.4
  9
$DIMLFAC
 40
1.0
  9
$DIMTOFL
 70
     0
  9
$DIMTVP
 40
0.0
  9
$DIMTIX
 70
     0
  9
$DIMSOXD
 70
     0
  9
$DIMSAH
 70
     0
  9
$DIMBLK1
  1

  9
$DIMBLK2
  1

  9
$LUNITS
 70
     2
  9
$LUPREC
 70
     4
  9
$SKETCHINC
 40
0.1
  9
$FILLETRAD
 40
0.5
  9
$AUNITS
 70
     0
  9
$AUPREC
 70
     0
  9
$MENU
  1
.
  9
$ELEVATION
 40
0.0
  9
$THICKNESS
 40
0.0
  9
$LIMCHECK
 70
     0
  9
$CHAMFERA
 40
0.0
  9
$CHAMFERB
 40
0.0
  9
$SKPOLY
 70
     0
  9
$TDCREATE
 40
2460052.463273681
  9
$TDUPDATE
 40
2460052.463273947
  9
$TDINDWG
 40
0.0000000116
  9
$TDUSRTIMER
 40
0.0000000116
  9
$USRTIMER
 70
     1
  9
$ANGBASE
 50
0.0
  9
$ANGDIR
 70
     0
  9
$PDMODE
 70
     0
  9
$PDSIZE
 40
0.0
  9
$PLINEWID
 40
0.0
  9
$COORDS
 70
     1
  9
$SPLFRAME
 70
     0
  9
$SPLINETYPE
 70
     6
  9
$SPLINESEGS
 70
     8
  9
$ATTDIA
 70
     0
  9
$ATTREQ
 70
     1
  9
$HANDLING
 70
     1
  9
$HANDSEED
  5
179
  9
$SURFTAB1
 70
     6
  9
$SURFTAB2
 70
     6
  9
$SURFTYPE
 70
     6
  9
$SURFU
 70
     6
  9
$SURFV
 70
     6
  9
$UCSNAME
  2

  9
$UCSORG
 10
0.0
 20
0.0
 30
0.0
  9
$UCSXDIR
 10
1.0
 20
0.0
 30
0.0
  9
$UCSYDIR
 10
0.0
 20
1.0
 30
0.0
  9
$USERI1
 70
     0
  9
$USERI2
 70
     0
  9
$USERI3
 70
     0
  9
$USERI4
 70
     0
  9
$USERI5
 70
     0
  9
$USERR1
 40
0.0
  9
$USERR2
 40
0.0
  9
$USERR3
 40
0.0
  9
$USERR4
 40
0.0
  9
$USERR5
 40
0.0
  9
$WORLDVIEW
 70
     1
  0
ENDSEC
  0
SECTION
  2
TABLES
  0
TABLE
  2
VPORT
 70
     1
  0
VPORT
  2
*ACTIVE
 70
     0
 10
0.0
 20
0.0
 11
1.0
 21
1.0
 12
-393.3975874094016
 22
100.3920454545455
 13
0.0
 23
0.0
 14
0.5
 24
0.5
 15
0.5
 25
0.5
 16
0.0
 26
0.0
 36
1.0
 17
0.0
 27
0.0
 37
0.0
 40
55.21590909090908
 41
1.6
 42
50.0
 43
0.0
 44
0.0
 50
0.0
 51
0.0
 71
     0
 72
   100
 73
     1
 74
     3
 75
     0
 76
     0
 77
     0
 78
     0
  0
ENDTAB
  0
TABLE
  2
LTYPE
 70
     1
  0
LTYPE
  2
CONTINUOUS
 70
     0
  3
Solid line
 72
    65
 73
     0
 40
0.0
  0
ENDTAB
  0
TABLE
  2
LAYER
 70
     2
  0
LAYER
  2
0
 70
     0
 62
     7
  6
CONTINUOUS
  0
LAYER
  2
1
 70
     0
 62
     7
  6
CONTINUOUS
  0
ENDTAB
  0
TABLE
  2
STYLE
 70
     2
  0
STYLE
  2
STANDARD
 70
     0
 40
0.0
 41
1.0
 50
0.0
 71
     0
 42
0.2
  3
txt
  4

  0
STYLE
  2
ＭＳ_ゴシック
 70
     0
 40
0.0
 41
1.0
 50
0.0
 71
     0
 42
0.2
  3
ＭＳ ゴシック.shx
  4

  0
ENDTAB
  0
TABLE
  2
VIEW
 70
     0
  0
ENDTAB
  0
TABLE
  2
UCS
 70
     0
  0
ENDTAB
  0
ENDSEC
  0
SECTION
  2
BLOCKS
  0
BLOCK
  8
0
  2
D_FRAME_VIEW_2161
 70
     0
 10
0.0
 20
0.0
 30
0.0
  0
LINE
  5
71
  8
1
  6
CONTINUOUS
 62
     9
 10
-396.2986856155465
 20
94.50000000000001
 30
0.0
 11
-383.2249936000176
 21
94.50000000000001
 31
0.0
  0
ARC
  5
72
  8
1
  6
CONTINUOUS
 62
     7
 10
-386.5583628069821
 20
101.0
 30
0.0
 40
11.70999096562588
 50
146.2836676957039
 51
213.7163323042941
  0
LINE
  5
73
  8
1
  6
CONTINUOUS
 62
     9
 10
-383.2249936000176
 20
107.5000000000001
 30
0.0
 11
-396.2986856155463
 21
107.5000000000003
 31
0.0
  0
LINE
  5
74
  8
1
  6
CONTINUOUS
 62
     7
 10
-383.2249936000176
 20
107.5000000000001
 30
0.0
 11
-383.2249936000176
 21
94.50000000000001
 31
0.0
  0
LINE
  5
75
  8
1
  6
CONTINUOUS
 62
     7
 10
-398.2683714810457
 20
92.00000000000001
 30
0.0
 11
-396.2986856155479
 21
92.00000000000001
 31
0.0
  0
LINE
  5
76
  8
1
  6
CONTINUOUS
 62
     7
 10
-396.2986856155465
 20
128.0
 30
0.0
 11
-398.2683714813109
 21
128.0
 31
0.0
  0
ARC
  5
77
  8
1
  6
CONTINUOUS
 62
     7
 10
-399.4695412404372
 20
127.9778147145152
 30
0.0
 40
4.024163410370853
 50
321.9947178908243
 51
350.7866952899843
  0
POLYLINE
  5
78
  8
1
  6
CONTINUOUS
 62
     7
 66
     1
 10
0.0
 20
0.0
 30
0.0
  0
VERTEX
  5
155
  8
1
  6
CONTINUOUS
 62
     7
 10
-395.4972931103528
 20
127.3335042719423
 30
0.0
  0
VERTEX
  5
156
  8
1
  6
CONTINUOUS
 62
     7
 10
-395.5076855156357
 20
127.4673390667874
 30
0.0
  0
VERTEX
  5
157
  8
1
  6
CONTINUOUS
 62
     7
 10
-395.53827229994
 20
127.5882148549754
 30
0.0
  0
VERTEX
  5
158
  8
1
  6
CONTINUOUS
 62
     7
 10
-395.5891466480309
 20
127.6947603889958
 30
0.0
  0
VERTEX
  5
159
  8
1
  6
CONTINUOUS
 62
     7
 10
-395.6635575378582
 20
127.7897647833134
 30
0.0
  0
VERTEX
  5
15A
  8
1
  6
CONTINUOUS
 62
     7
 10
-395.7630774719069
 20
127.870163935141
 30
0.0
  0
VERTEX
  5
15B
  8
1
  6
CONTINUOUS
 62
     7
 10
-395.8832213060655
 20
127.9311147082014
 30
0.0
  0
VERTEX
  5
15C
  8
1
  6
CONTINUOUS
 62
     7
 10
-396.0220096037618
 20
127.9726949125662
 30
0.0
  0
VERTEX
  5
15D
  8
1
  6
CONTINUOUS
 62
     7
 10
-396.1955324336025
 20
127.9966025276935
 30
0.0
  0
VERTEX
  5
15E
  8
1
  6
CONTINUOUS
 62
     7
 10
-396.2986856155464
 20
128.0
 30
0.0
  0
SEQEND
  5
176
  8
1
  6
CONTINUOUS
 62
     7
  0
ARC
  5
79
  8
1
  6
CONTINUOUS
 62
     7
 10
-386.5584224902302
 20
119.0
 30
0.0
 40
11.70994132138996
 50
146.2835055978771
 51
213.7164944021092
  0
ARC
  5
7A
  8
1
  6
CONTINUOUS
 62
     7
 10
-399.7975223571817
 20
110.0
 30
0.0
 40
4.300216104408825
 50
324.4533134964794
 51
35.54668650352556
  0
POLYLINE
  5
7B
  8
1
  6
CONTINUOUS
 62
     7
 66
     1
 10
0.0
 20
0.0
 30
0.0
  0
VERTEX
  5
15F
  8
1
  6
CONTINUOUS
 62
     7
 10
-396.2986856155479
 20
92.00000000000001
 30
0.0
  0
VERTEX
  5
160
  8
1
  6
CONTINUOUS
 62
     7
 10
-396.1931556339068
 20
92.00356343325913
 30
0.0
  0
VERTEX
  5
161
  8
1
  6
CONTINUOUS
 62
     7
 10
-396.0925285528505
 20
92.01444927072872
 30
0.0
  0
VERTEX
  5
162
  8
1
  6
CONTINUOUS
 62
     7
 10
-395.9288549707427
 20
92.05245292914822
 30
0.0
  0
VERTEX
  5
163
  8
1
  6
CONTINUOUS
 62
     7
 10
-395.80349934961
 20
92.10595955506142
 30
0.0
  0
VERTEX
  5
164
  8
1
  6
CONTINUOUS
 62
     7
 10
-395.6973344485575
 20
92.17868062497055
 30
0.0
  0
VERTEX
  5
165
  8
1
  6
CONTINUOUS
 62
     7
 10
-395.61189909594
 20
92.27122725610639
 30
0.0
  0
VERTEX
  5
166
  8
1
  6
CONTINUOUS
 62
     7
 10
-395.5478999426456
 20
92.38666832406531
 30
0.0
  0
VERTEX
  5
167
  8
1
  6
CONTINUOUS
 62
     7
 10
-395.513393597332
 20
92.50133068613232
 30
0.0
  0
VERTEX
  5
168
  8
1
  6
CONTINUOUS
 62
     7
 10
-395.4995180508708
 20
92.60447999964502
 30
0.0
  0
VERTEX
  5
169
  8
1
  6
CONTINUOUS
 62
     7
 10
-395.4999916930315
 20
92.7454593789724
 30
0.0
  0
VERTEX
  5
16A
  8
1
  6
CONTINUOUS
 62
     7
 10
-395.5203083446318
 20
92.90079914532242
 30
0.0
  0
SEQEND
  5
177
  8
1
  6
CONTINUOUS
 62
     7
  0
ARC
  5
7C
  8
1
  6
CONTINUOUS
 62
     7
 10
-400.3258642399277
 20
91.55082599970116
 30
0.0
 40
4.991572393215574
 50
15.69107473782941
 51
36.21597637515598
  0
LINE
  5
7D
  8
1
  6
CONTINUOUS
 62
     9
 10
-403.1748992959662
 20
110.0
 30
0.0
 11
-403.1748992959662
 21
98.3959175684895
 31
0.0
  0
LINE
  5
7E
  8
1
  6
CONTINUOUS
 62
     9
 10
-396.2986856155465
 20
112.5
 30
0.0
 11
-383.2249936000176
 21
112.5000000000001
 31
0.0
  0
LINE
  5
7F
  8
1
  6
CONTINUOUS
 62
     9
 10
-383.2249936000176
 20
125.5
 30
0.0
 11
-396.2986856155449
 21
125.5000000000024
 31
0.0
  0
LINE
  5
80
  8
1
  6
CONTINUOUS
 62
     7
 10
-383.2249936000176
 20
125.5
 30
0.0
 11
-383.2249936000176
 21
112.5000000000001
 31
0.0
  0
LINE
  5
81
  8
1
  6
CONTINUOUS
 62
     7
 10
-383.2249936000176
 20
112.5000000000001
 30
0.0
 11
-383.2249936000176
 21
107.5000000000001
 31
0.0
  0
LINE
  5
82
  8
1
  6
CONTINUOUS
 62
     7
 10
-383.2249936000176
 20
92.00000000000001
 30
0.0
 11
-396.2986856155479
 21
92.00000000000001
 31
0.0
  0
LINE
  5
83
  8
1
  6
CONTINUOUS
 62
     7
 10
-383.2249936000176
 20
94.50000000000001
 30
0.0
 11
-383.2249936000176
 21
92.00000000000001
 31
0.0
  0
LINE
  5
84
  8
1
  6
CONTINUOUS
 62
     7
 10
-396.2986856155464
 20
128.0
 30
0.0
 11
-383.2249936000176
 21
128.0
 31
0.0
  0
LINE
  5
85
  8
1
  6
CONTINUOUS
 62
     7
 10
-383.2249936000176
 20
128.0
 30
0.0
 11
-383.2249936000176
 21
125.5
 31
0.0
  0
LINE
  5
86
  8
1
  6
CONTINUOUS
 62
     7
 10
-403.2249936000176
 20
98.61405712187914
 30
0.0
 11
-403.2249936000176
 21
121.3859428781209
 31
0.0
  0
LINE
  5
87
  8
1
  6
CONTINUOUS
 62
     7
 10
-382.7577873265541
 20
125.2999161030697
 30
0.0
 11
-382.782411606115
 21
125.2534344371571
 31
0.0
  0
LINE
  5
88
  8
1
  6
CONTINUOUS
 62
     7
 10
-381.7578033753209
 20
94.70026302524063
 30
0.0
 11
-381.7823029057841
 21
94.74628527696302
 31
0.0
  0
LINE
  5
89
  8
1
  6
CONTINUOUS
 62
     7
 10
-380.7577390588427
 20
125.2995497872041
 30
0.0
 11
-380.7823608270513
 21
125.253465186413
 31
0.0
  0
LINE
  5
8A
  8
1
  6
CONTINUOUS
 62
     7
 10
-379.7577085946127
 20
94.70058788596495
 30
0.0
 11
-379.7824621498214
 21
94.7468454500572
 31
0.0
  0
LINE
  5
8B
  8
1
  6
CONTINUOUS
 62
     7
 10
-378.7576984576088
 20
125.2993619455509
 30
0.0
 11
-378.7824771438879
 21
125.2532491185704
 31
0.0
  0
LINE
  5
8C
  8
1
  6
CONTINUOUS
 62
     7
 10
-377.7576883718701
 20
94.70058788574069
 30
0.0
 11
-377.7822824235979
 21
94.74583688202553
 31
0.0
  0
LINE
  5
8D
  8
1
  6
CONTINUOUS
 62
     7
 10
-376.7576578564742
 20
125.2995497865103
 30
0.0
 11
-376.7821351031736
 21
125.2548752218633
 31
0.0
  0
LINE
  5
8E
  8
1
  6
CONTINUOUS
 62
     7
 10
-375.7575935927028
 20
94.70026302474274
 30
0.0
 11
-375.7822332970395
 21
94.74542936095057
 31
0.0
  0
LINE
  5
8F
  8
1
  6
CONTINUOUS
 62
     7
 10
-374.7576095886486
 20
125.2999161020527
 30
0.0
 11
-374.7824268462774
 21
125.2537449780267
 31
0.0
  0
LINE
  5
90
  8
1
  6
CONTINUOUS
 62
     7
 10
-374.1255587810809
 20
125.299916102393
 30
0.0
 11
-374.1009345271833
 21
125.253434437157
 31
0.0
  0
LINE
  5
91
  8
1
  6
CONTINUOUS
 62
     7
 10
-375.1255427851351
 20
94.70026302434252
 30
0.0
 11
-375.1010432275141
 21
94.74628527696301
 31
0.0
  0
LINE
  5
92
  8
1
  6
CONTINUOUS
 62
     7
 10
-376.1256070489065
 20
125.2995497866621
 30
0.0
 11
-376.100985306247
 21
125.253465186413
 31
0.0
  0
LINE
  5
93
  8
1
  6
CONTINUOUS
 62
     7
 10
-377.1256375643024
 20
94.70058788570478
 30
0.0
 11
-377.1008839834768
 21
94.74684545005721
 31
0.0
  0
LINE
  5
94
  8
1
  6
CONTINUOUS
 62
     7
 10
-378.1256476500411
 20
125.2993619455509
 30
0.0
 11
-378.1008689894103
 21
125.2532491185704
 31
0.0
  0
LINE
  5
95
  8
1
  6
CONTINUOUS
 62
     7
 10
-379.125657787045
 20
94.70058788600097
 30
0.0
 11
-379.1010637097004
 21
94.74583688202554
 31
0.0
  0
LINE
  5
96
  8
1
  6
CONTINUOUS
 62
     7
 10
-380.1256882512749
 20
125.2995497870523
 30
0.0
 11
-380.1012110301246
 21
125.2548752218632
 31
0.0
  0
LINE
  5
97
  8
1
  6
CONTINUOUS
 62
     7
 10
-381.1257525677532
 20
94.70026302564094
 30
0.0
 11
-381.1011128362587
 21
94.7454293609506
 31
0.0
  0
LINE
  5
98
  8
1
  6
CONTINUOUS
 62
     7
 10
-382.1257365189863
 20
125.2999161027295
 30
0.0
 11
-382.1009192870209
 21
125.2537449780267
 31
0.0
  0
LINE
  5
99
  8
1
  6
CONTINUOUS
 62
     7
 10
-373.7576984704336
 20
94.7
 30
0.0
 11
-373.8071562251947
 21
94.88492289684035
 31
0.0
  0
LINE
  5
9A
  8
1
  6
CONTINUOUS
 62
     7
 10
-383.1256476628647
 20
94.7
 30
0.0
 11
-383.2249936000176
 21
94.7
 31
0.0
  0
LINE
  5
9B
  8
1
  6
CONTINUOUS
 62
     7
 10
-373.7576984704336
 20
94.7
 30
0.0
 11
-373.1256476628647
 21
94.7
 31
0.0
  0
LINE
  5
9C
  8
1
  6
CONTINUOUS
 62
     7
 10
-382.8576984704336
 20
95.7
 30
0.0
 11
-383.1256476628647
 21
94.7
 31
0.0
  0
LINE
  5
9D
  8
1
  6
CONTINUOUS
 62
     7
 10
-381.7341029667798
 20
123.2354951160042
 30
0.0
 11
-381.8312843943804
 21
124.2507930356013
 31
0.0
  0
LINE
  5
9E
  8
1
  6
CONTINUOUS
 62
     7
 10
-381.6217434133133
 20
120.5478017709793
 30
0.0
 11
-381.7341029667798
 21
123.2354951160042
 31
0.0
  0
LINE
  5
9F
  8
1
  6
CONTINUOUS
 62
     7
 10
-381.5093838640265
 20
116.559437224765
 30
0.0
 11
-381.6217434133133
 21
120.5478017709793
 31
0.0
  0
LINE
  5
A0
  8
1
  6
CONTINUOUS
 62
     7
 10
-381.3970243130356
 20
111.7622148191591
 30
0.0
 11
-381.5093838640265
 21
116.559437224765
 31
0.0
  0
LINE
  5
A1
  8
1
  6
CONTINUOUS
 62
     7
 10
-381.2846647625947
 20
106.7476900736279
 30
0.0
 11
-381.3970243130356
 21
111.7622148191591
 31
0.0
  0
LINE
  5
A2
  8
1
  6
CONTINUOUS
 62
     7
 10
-381.1723052120019
 20
102.1342144004514
 30
0.0
 11
-381.2846647625947
 21
106.7476900736279
 31
0.0
  0
LINE
  5
A3
  8
1
  6
CONTINUOUS
 62
     7
 10
-381.059945661447
 20
98.49068505650482
 30
0.0
 11
-381.1723052120019
 21
102.1342144004514
 31
0.0
  0
LINE
  5
A4
  8
1
  6
CONTINUOUS
 62
     7
 10
-380.947586110884
 20
96.26639319624009
 30
0.0
 11
-381.059945661447
 21
98.49068505650482
 31
0.0
  0
LINE
  5
A5
  8
1
  6
CONTINUOUS
 62
     7
 10
-379.8239906052661
 20
124.2198946091426
 30
0.0
 11
-379.8315987158308
 21
124.2519565196768
 31
0.0
  0
LINE
  5
A6
  8
1
  6
CONTINUOUS
 62
     7
 10
-379.7116310547044
 20
122.8206260885602
 30
0.0
 11
-379.8239906052661
 21
124.2198946091426
 31
0.0
  0
LINE
  5
A7
  8
1
  6
CONTINUOUS
 62
     7
 10
-379.5992715041426
 20
119.8404195884368
 30
0.0
 11
-379.7116310547044
 21
122.8206260885602
 31
0.0
  0
LINE
  5
A8
  8
1
  6
CONTINUOUS
 62
     7
 10
-379.4869119535808
 20
115.6467705501278
 30
0.0
 11
-379.5992715041426
 21
119.8404195884368
 31
0.0
  0
LINE
  5
A9
  8
1
  6
CONTINUOUS
 62
     7
 10
-379.374552403019
 20
110.7568065297913
 30
0.0
 11
-379.4869119535808
 21
115.6467705501278
 31
0.0
  0
LINE
  5
AA
  8
1
  6
CONTINUOUS
 62
     7
 10
-379.1498333018954
 20
101.3114078427844
 30
0.0
 11
-379.374552403019
 21
110.7568065297913
 31
0.0
  0
LINE
  5
AB
  8
1
  6
CONTINUOUS
 62
     7
 10
-379.0374737513335
 20
97.92070486807987
 30
0.0
 11
-379.1498333018954
 21
101.3114078427845
 31
0.0
  0
LINE
  5
AC
  8
1
  6
CONTINUOUS
 62
     7
 10
-378.9251142007718
 20
96.01952481591381
 30
0.0
 11
-379.0374737513335
 21
97.92070486807987
 31
0.0
  0
LINE
  5
AD
  8
1
  6
CONTINUOUS
 62
     7
 10
-377.8015186951538
 20
124.0778543881357
 30
0.0
 11
-377.831277731735
 21
124.2507682229264
 31
0.0
  0
LINE
  5
AE
  8
1
  6
CONTINUOUS
 62
     7
 10
-377.6891591445919
 20
122.3418853802262
 30
0.0
 11
-377.8015186951538
 21
124.0778543881357
 31
0.0
  0
LINE
  5
AF
  8
1
  6
CONTINUOUS
 62
     7
 10
-377.5767995940301
 20
119.0840129019277
 30
0.0
 11
-377.6891591445919
 21
122.3418853802262
 31
0.0
  0
LINE
  5
B0
  8
1
  6
CONTINUOUS
 62
     7
 10
-377.4644400434684
 20
114.7059719619552
 30
0.0
 11
-377.5767995940301
 21
119.0840129019277
 31
0.0
  0
LINE
  5
B1
  8
1
  6
CONTINUOUS
 62
     7
 10
-377.3520804929066
 20
109.7476278640921
 30
0.0
 11
-377.4644400434684
 21
114.7059719619552
 31
0.0
  0
LINE
  5
B2
  8
1
  6
CONTINUOUS
 62
     7
 10
-377.2397209423448
 20
104.8204042974627
 30
0.0
 11
-377.3520804929066
 21
109.7476278640921
 31
0.0
  0
LINE
  5
B3
  8
1
  6
CONTINUOUS
 62
     7
 10
-377.127361391783
 20
100.5318874139771
 30
0.0
 11
-377.2397209423448
 21
104.8204042974627
 31
0.0
  0
LINE
  5
B4
  8
1
  6
CONTINUOUS
 62
     7
 10
-377.0150018412212
 20
97.41090312043023
 30
0.0
 11
-377.127361391783
 21
100.5318874139771
 31
0.0
  0
LINE
  5
B5
  8
1
  6
CONTINUOUS
 62
     7
 10
-376.9026422906594
 20
95.8423064597147
 30
0.0
 11
-377.0150018412212
 21
97.41090312043023
 31
0.0
  0
LINE
  5
B6
  8
1
  6
CONTINUOUS
 62
     7
 10
-375.7790467850415
 20
123.8656790047056
 30
0.0
 11
-375.8313552079684
 21
124.2510563700291
 31
0.0
  0
LINE
  5
B7
  8
1
  6
CONTINUOUS
 62
     7
 10
-375.6666872344796
 20
121.8016580197453
 30
0.0
 11
-375.7790467850415
 21
123.8656790047056
 31
0.0
  0
LINE
  5
B8
  8
1
  6
CONTINUOUS
 62
     7
 10
-375.5543276839178
 20
118.2823501200832
 30
0.0
 11
-375.6666872344796
 21
121.8016580197453
 31
0.0
  0
LINE
  5
B9
  8
1
  6
CONTINUOUS
 62
     7
 10
-375.441968133356
 20
113.7417284581837
 30
0.0
 11
-375.5543276839178
 21
118.2823501200832
 31
0.0
  0
LINE
  5
BA
  8
1
  6
CONTINUOUS
 62
     7
 10
-375.3296085827942
 20
108.7397065036812
 30
0.0
 11
-375.441968133356
 21
113.7417284581837
 31
0.0
  0
LINE
  5
BB
  8
1
  6
CONTINUOUS
 62
     7
 10
-375.2172490322325
 20
103.8930939527368
 30
0.0
 11
-375.3296085827942
 21
108.7397065036812
 31
0.0
  0
LINE
  5
BC
  8
1
  6
CONTINUOUS
 62
     7
 10
-375.1048894816706
 20
99.79953664581112
 30
0.0
 11
-375.2172490322325
 21
103.8930939527368
 31
0.0
  0
LINE
  5
BD
  8
1
  6
CONTINUOUS
 62
     7
 10
-374.9948601160594
 20
97.00717319803411
 30
0.0
 11
-375.1048894816706
 21
99.79953664581112
 31
0.0
  0
LINE
  5
BE
  8
1
  6
CONTINUOUS
 62
     7
 10
-374.9925299311088
 20
96.96381962017963
 30
0.0
 11
-374.9948601160594
 21
97.00717319803411
 31
0.0
  0
LINE
  5
BF
  8
1
  6
CONTINUOUS
 62
     7
 10
-374.880170380547
 20
95.73562102057983
 30
0.0
 11
-374.9925299311088
 21
96.96381962017968
 31
0.0
  0
LINE
  5
C0
  8
1
  6
CONTINUOUS
 62
     7
 10
-373.7565748961734
 20
123.5844258040485
 30
0.0
 11
-373.8313540034085
 21
124.2510518965276
 31
0.0
  0
LINE
  5
C1
  8
1
  6
CONTINUOUS
 62
     7
 10
-373.644215165989
 20
121.2026309708236
 30
0.0
 11
-373.7565748961734
 21
123.5844258040485
 31
0.0
  0
LINE
  5
C2
  8
1
  6
CONTINUOUS
 62
     7
 10
-373.5318566045938
 20
117.4394569585094
 30
0.0
 11
-373.644215165989
 21
121.2026309708236
 31
0.0
  0
LINE
  5
C3
  8
1
  6
CONTINUOUS
 62
     7
 10
-373.4194926601583
 20
112.7586868011239
 30
0.0
 11
-373.5318566045938
 21
117.4394569585094
 31
0.0
  0
LINE
  5
C4
  8
1
  6
CONTINUOUS
 62
     7
 10
-373.3071500508182
 20
107.7386572562867
 30
0.0
 11
-373.4194926601583
 21
112.7586868011239
 31
0.0
  0
LINE
  5
C5
  8
1
  6
CONTINUOUS
 62
     7
 10
-373.1947332386616
 20
102.9944893399255
 30
0.0
 11
-373.3071499061073
 21
107.7386508375467
 31
0.0
  0
LINE
  5
C6
  8
1
  6
CONTINUOUS
 62
     7
 10
-373.0825400451964
 20
99.12157426471218
 30
0.0
 11
-373.1947329307319
 21
102.9944772810599
 31
0.0
  0
LINE
  5
C7
  8
1
  6
CONTINUOUS
 62
     7
 10
-372.969811942457
 20
96.57786467148317
 30
0.0
 11
-373.0825396648693
 21
99.12156317556477
 31
0.0
  0
LINE
  5
C8
  8
1
  6
CONTINUOUS
 62
     7
 10
-372.8576984704336
 20
95.7
 30
0.0
 11
-372.969811942457
 21
96.57786467148317
 31
0.0
  0
LINE
  5
C9
  8
1
  6
CONTINUOUS
 62
     7
 10
-373.1256476628647
 20
94.7
 30
0.0
 11
-372.8576984704336
 21
95.7
 31
0.0
  0
POLYLINE
  5
CA
  8
1
  6
CONTINUOUS
 62
     7
 10
0.0
 20
0.0
 30
0.0
 66
     1
 70
     8
  0
VERTEX
  5
16B
  8
1
  6
CONTINUOUS
 62
     7
 10
-373.8169550134879
 20
94.92114842935958
 30
0.0
 70
    32
  0
VERTEX
  5
16C
  8
1
  6
CONTINUOUS
 62
     7
 10
-373.8157074497657
 20
94.91649245816281
 30
0.0
 70
    32
  0
VERTEX
  5
16D
  8
1
  6
CONTINUOUS
 62
     7
 10
-373.8144598860436
 20
94.91183648696607
 30
0.0
 70
    32
  0
VERTEX
  5
16E
  8
1
  6
CONTINUOUS
 62
     7
 10
-373.8132123223214
 20
94.9071805157693
 30
0.0
 70
    32
  0
VERTEX
  5
16F
  8
1
  6
CONTINUOUS
 62
     7
 10
-373.8119647585993
 20
94.90252454457254
 30
0.0
 70
    32
  0
VERTEX
  5
170
  8
1
  6
CONTINUOUS
 62
     7
 10
-373.8107171948771
 20
94.89786857337577
 30
0.0
 70
    32
  0
VERTEX
  5
171
  8
1
  6
CONTINUOUS
 62
     7
 10
-373.809469631155
 20
94.89321260217903
 30
0.0
 70
    32
  0
VERTEX
  5
172
  8
1
  6
CONTINUOUS
 62
     7
 10
-373.8082220674328
 20
94.88855663098227
 30
0.0
 70
    32
  0
VERTEX
  5
173
  8
1
  6
CONTINUOUS
 62
     7
 10
-373.8069745037107
 20
94.88390065978551
 30
0.0
 70
    32
  0
SEQEND
  5
178
  8
1
  6
CONTINUOUS
 62
     7
  0
LINE
  5
CB
  8
1
  6
CONTINUOUS
 62
     7
 10
-374.1377615525772
 20
96.57786979082478
 30
0.0
 11
-374.0758483170386
 21
95.87746963683885
 31
0.0
  0
LINE
  5
CC
  8
1
  6
CONTINUOUS
 62
     7
 10
-374.2504894532645
 20
99.12157898137241
 30
0.0
 11
-374.1377615525772
 21
96.57786979082478
 31
0.0
  0
LINE
  5
CD
  8
1
  6
CONTINUOUS
 62
     7
 10
-374.3626818159964
 20
102.9944632197392
 30
0.0
 11
-374.2504896629133
 21
99.12158509408258
 31
0.0
  0
LINE
  5
CE
  8
1
  6
CONTINUOUS
 62
     7
 10
-374.4750992433191
 20
107.7386550118258
 30
0.0
 11
-374.3626819699681
 21
102.9944692494303
 31
0.0
  0
LINE
  5
CF
  8
1
  6
CONTINUOUS
 62
     7
 10
-374.5874418002788
 20
112.7586822639203
 30
0.0
 11
-374.4750992433191
 21
107.7386550118258
 31
0.0
  0
LINE
  5
D0
  8
1
  6
CONTINUOUS
 62
     7
 10
-374.6998057970226
 20
117.4394550152986
 30
0.0
 11
-374.5874418002788
 21
112.7586822639203
 31
0.0
  0
LINE
  5
D1
  8
1
  6
CONTINUOUS
 62
     7
 10
-374.8121643547888
 20
121.202629455703
 30
0.0
 11
-374.6998057970226
 21
117.4394550152986
 31
0.0
  0
LINE
  5
D2
  8
1
  6
CONTINUOUS
 62
     7
 10
-374.9245240897483
 20
123.5844251094845
 30
0.0
 11
-374.8121643547888
 21
121.202629455703
 31
0.0
  0
LINE
  5
D3
  8
1
  6
CONTINUOUS
 62
     7
 10
-376.1604791235377
 20
96.96381868510984
 30
0.0
 11
-376.0518510277427
 21
95.74842546602216
 31
0.0
  0
LINE
  5
D4
  8
1
  6
CONTINUOUS
 62
     7
 10
-376.2728386740997
 20
99.79953505145218
 30
0.0
 11
-376.1604791235377
 21
96.96381868510984
 31
0.0
  0
LINE
  5
D5
  8
1
  6
CONTINUOUS
 62
     7
 10
-376.3851982246614
 20
103.8930918956855
 30
0.0
 11
-376.2728386740997
 21
99.79953505145218
 31
0.0
  0
LINE
  5
D6
  8
1
  6
CONTINUOUS
 62
     7
 10
-376.4975577752231
 20
108.7397042375997
 30
0.0
 11
-376.3851982246614
 21
103.8930918956855
 31
0.0
  0
LINE
  5
D7
  8
1
  6
CONTINUOUS
 62
     7
 10
-376.6099173257849
 20
113.7417262625082
 30
0.0
 11
-376.4975577752231
 21
108.7397042375997
 31
0.0
  0
LINE
  5
D8
  8
1
  6
CONTINUOUS
 62
     7
 10
-376.7222768763467
 20
118.2823482655669
 30
0.0
 11
-376.6099173257849
 21
113.7417262625082
 31
0.0
  0
LINE
  5
D9
  8
1
  6
CONTINUOUS
 62
     7
 10
-376.8346364269086
 20
121.8016567350737
 30
0.0
 11
-376.7222768763467
 21
118.2823482655669
 31
0.0
  0
LINE
  5
DA
  8
1
  6
CONTINUOUS
 62
     7
 10
-376.9469959774703
 20
123.8656784482902
 30
0.0
 11
-376.8346364269086
 21
121.8016567350737
 31
0.0
  0
LINE
  5
DB
  8
1
  6
CONTINUOUS
 62
     7
 10
-378.0705914830882
 20
95.84230613957087
 30
0.0
 11
-378.0518719595532
 21
95.74850281981949
 31
0.0
  0
LINE
  5
DC
  8
1
  6
CONTINUOUS
 62
     7
 10
-378.1829510336502
 20
97.41090204140048
 30
0.0
 11
-378.0705914830882
 21
95.84230613957087
 31
0.0
  0
LINE
  5
DD
  8
1
  6
CONTINUOUS
 62
     7
 10
-378.2953105842119
 20
100.5318857091181
 30
0.0
 11
-378.1829510336502
 21
97.41090204140048
 31
0.0
  0
LINE
  5
DE
  8
1
  6
CONTINUOUS
 62
     7
 10
-378.4076701347736
 20
104.8204021770047
 30
0.0
 11
-378.2953105842119
 21
100.5318857091181
 31
0.0
  0
LINE
  5
DF
  8
1
  6
CONTINUOUS
 62
     7
 10
-378.5200296853355
 20
109.7476255895142
 30
0.0
 11
-378.4076701347736
 21
104.8204021770047
 31
0.0
  0
LINE
  5
E0
  8
1
  6
CONTINUOUS
 62
     7
 10
-378.6323892358973
 20
114.7059698137379
 30
0.0
 11
-378.5200296853355
 21
109.7476255895142
 31
0.0
  0
LINE
  5
E1
  8
1
  6
CONTINUOUS
 62
     7
 10
-378.7447487864591
 20
119.0840111449735
 30
0.0
 11
-378.6323892358973
 21
114.7059698137379
 31
0.0
  0
LINE
  5
E2
  8
1
  6
CONTINUOUS
 62
     7
 10
-378.8571083370209
 20
122.3418842311886
 30
0.0
 11
-378.7447487864591
 21
119.0840111449735
 31
0.0
  0
LINE
  5
E3
  8
1
  6
CONTINUOUS
 62
     7
 10
-378.9694678875826
 20
124.0778539887045
 30
0.0
 11
-378.8571083370209
 21
122.3418842311886
 31
0.0
  0
LINE
  5
E4
  8
1
  6
CONTINUOUS
 62
     7
 10
-380.0930633932007
 20
96.01952433769425
 30
0.0
 11
-380.0520814389155
 21
95.74928034816026
 31
0.0
  0
LINE
  5
E5
  8
1
  6
CONTINUOUS
 62
     7
 10
-380.2054229437624
 20
97.92070365046585
 30
0.0
 11
-380.0930633932007
 21
96.01952433769425
 31
0.0
  0
LINE
  5
E6
  8
1
  6
CONTINUOUS
 62
     7
 10
-380.3177824943243
 20
101.3114060359259
 30
0.0
 11
-380.2054229437624
 21
97.92070365046585
 31
0.0
  0
LINE
  5
E7
  8
1
  6
CONTINUOUS
 62
     7
 10
-380.4301420448861
 20
105.7735169541405
 30
0.0
 11
-380.3177824943243
 21
101.3114060359259
 31
0.0
  0
LINE
  5
E8
  8
1
  6
CONTINUOUS
 62
     7
 10
-380.5425015954479
 20
110.756804258045
 30
0.0
 11
-380.4301420448861
 21
105.7735169541405
 31
0.0
  0
LINE
  5
E9
  8
1
  6
CONTINUOUS
 62
     7
 10
-380.6548611460097
 20
115.646768460073
 30
0.0
 11
-380.5425015954479
 21
110.756804258045
 31
0.0
  0
LINE
  5
EA
  8
1
  6
CONTINUOUS
 62
     7
 10
-380.7672206965714
 20
119.840417937794
 30
0.0
 11
-380.6548611460097
 21
115.646768460073
 31
0.0
  0
LINE
  5
EB
  8
1
  6
CONTINUOUS
 62
     7
 10
-380.8795802471333
 20
122.8206250808832
 30
0.0
 11
-380.7672206965714
 21
119.840417937794
 31
0.0
  0
LINE
  5
EC
  8
1
  6
CONTINUOUS
 62
     7
 10
-380.9919397976951
 20
124.2198943686854
 30
0.0
 11
-380.8795802471333
 21
122.8206250808832
 31
0.0
  0
LINE
  5
ED
  8
1
  6
CONTINUOUS
 62
     7
 10
-382.1155353033129
 20
96.26639256232504
 30
0.0
 11
-382.0518964460926
 21
95.74859338838192
 31
0.0
  0
LINE
  5
EE
  8
1
  6
CONTINUOUS
 62
     7
 10
-382.2278948538759
 20
98.49068370636925
 30
0.0
 11
-382.1155353033129
 21
96.26639256232504
 31
0.0
  0
LINE
  5
EF
  8
1
  6
CONTINUOUS
 62
     7
 10
-382.3402544044308
 20
102.1342125005897
 30
0.0
 11
-382.2278948538759
 21
98.49068370636925
 31
0.0
  0
LINE
  5
F0
  8
1
  6
CONTINUOUS
 62
     7
 10
-382.4526139550223
 20
106.7476878582539
 30
0.0
 11
-382.3402544044308
 21
102.1342125005897
 31
0.0
  0
LINE
  5
F1
  8
1
  6
CONTINUOUS
 62
     7
 10
-382.5649735054645
 20
111.7622125615653
 30
0.0
 11
-382.4526139550223
 21
106.7476878582539
 31
0.0
  0
LINE
  5
F2
  8
1
  6
CONTINUOUS
 62
     7
 10
-382.6773330564286
 20
116.5594352022135
 30
0.0
 11
-382.5649735054645
 21
111.7622125615653
 31
0.0
  0
LINE
  5
F3
  8
1
  6
CONTINUOUS
 62
     7
 10
-382.7896926057766
 20
120.5478002359212
 30
0.0
 11
-382.6773330564286
 21
116.5594352022135
 31
0.0
  0
LINE
  5
F4
  8
1
  6
CONTINUOUS
 62
     7
 10
-382.9020521590797
 20
123.2354942525112
 30
0.0
 11
-382.7896926057766
 21
120.5478002359212
 31
0.0
  0
LINE
  5
F5
  8
1
  6
CONTINUOUS
 62
     7
 10
-383.014411707147
 20
124.2910919491566
 30
0.0
 11
-382.9020521590797
 21
123.2354942525112
 31
0.0
  0
LINE
  5
F6
  8
1
  6
CONTINUOUS
 62
     7
 10
-382.8576984704336
 20
95.70000000000002
 30
0.0
 11
-382.9125061206896
 21
95.85332223164153
 31
0.0
  0
ARC
  5
F7
  8
1
  6
CONTINUOUS
 62
     7
 10
-298.018197523794
 20
103.2373550164798
 30
0.0
 40
85.21483187985834
 50
180.7868919211784
 51
184.9710261486787
  0
LINE
  5
F8
  8
1
  6
CONTINUOUS
 62
     7
 10
-371.4416730666492
 20
95.50000000000001
 30
0.0
 11
-371.4416730666492
 21
124.5
 31
0.0
  0
LINE
  5
F9
  8
1
  6
CONTINUOUS
 62
     7
 10
-333.4416730666492
 20
124.5
 30
0.0
 11
-333.4416730666492
 21
110.0
 31
0.0
  0
LINE
  5
FA
  8
1
  6
CONTINUOUS
 62
     7
 10
-333.4416730666492
 20
110.0
 30
0.0
 11
-333.4416730666492
 21
95.50000000000001
 31
0.0
  0
LINE
  5
FB
  8
1
  6
CONTINUOUS
 62
     7
 10
-374.8576986083908
 20
95.70000000000189
 30
0.0
 11
-374.880170380547
 21
95.73562102057983
 31
0.0
  0
LINE
  5
FC
  8
1
  6
CONTINUOUS
 62
     7
 10
-376.8576981185632
 20
95.70000000000752
 30
0.0
 11
-376.9026422906594
 21
95.8423064597147
 31
0.0
  0
LINE
  5
FD
  8
1
  6
CONTINUOUS
 62
     7
 10
-378.8576987716679
 20
95.70000000000752
 30
0.0
 11
-378.9251142007718
 21
96.01952481591381
 31
0.0
  0
LINE
  5
FE
  8
1
  6
CONTINUOUS
 62
     7
 10
-380.8576982818351
 20
95.70000000000189
 30
0.0
 11
-380.947586110884
 21
96.26639319624009
 31
0.0
  0
LINE
  5
FF
  8
1
  6
CONTINUOUS
 62
     7
 10
-383.0256479739192
 20
124.2999999999943
 30
0.0
 11
-383.014411707147
 21
124.2910919491566
 31
0.0
  0
LINE
  5
100
  8
1
  6
CONTINUOUS
 62
     7
 10
-381.0256474432684
 20
124.2999999999958
 30
0.0
 11
-380.9919397976951
 21
124.2198943686854
 31
0.0
  0
LINE
  5
101
  8
1
  6
CONTINUOUS
 62
     7
 10
-379.0256476881856
 20
124.3
 30
0.0
 11
-378.9694678875826
 21
124.0778539887045
 31
0.0
  0
LINE
  5
102
  8
1
  6
CONTINUOUS
 62
     7
 10
-377.0256479330926
 20
124.2999999999958
 30
0.0
 11
-376.9469959774703
 21
123.8656784482902
 31
0.0
  0
LINE
  5
103
  8
1
  6
CONTINUOUS
 62
     7
 10
-375.0256474024494
 20
124.2999999999943
 30
0.0
 11
-374.9245240897483
 21
123.5844251094845
 31
0.0
  0
ARC
  5
104
  8
1
  6
CONTINUOUS
 62
     7
 10
-385.1786714580234
 20
107.1214997040753
 30
0.0
 40
19.99999999999999
 50
205.8667133919065
 51
229.1193520989769
  0
ARC
  5
105
  8
1
  6
CONTINUOUS
 62
     7
 10
-385.1786714580234
 20
112.8785002959247
 30
0.0
 40
19.99999999999999
 50
130.8806479010231
 51
154.1332866080935
  0
ARC
  5
106
  8
1
  6
CONTINUOUS
 62
     7
 10
-402.7249936000176
 20
98.61405712187913
 30
0.0
 40
0.5000000000000004
 50
180.0
 51
205.8667133919064
  0
ARC
  5
107
  8
1
  6
CONTINUOUS
 62
     7
 10
-402.7249936000176
 20
121.3859428781209
 30
0.0
 40
0.4999999999999826
 50
154.1332866080936
 51
180.0
  0
LINE
  5
108
  8
1
  6
CONTINUOUS
 62
     7
 10
-381.7578033720711
 20
94.70026302513317
 30
0.0
 11
-381.1257525389711
 21
94.70026302468901
 31
0.0
  0
LINE
  5
109
  8
1
  6
CONTINUOUS
 62
     7
 10
-379.7577085946135
 20
94.70058788596496
 30
0.0
 11
-379.125657761429
 21
94.7005878857407
 31
0.0
  0
LINE
  5
10A
  8
1
  6
CONTINUOUS
 62
     7
 10
-377.7576883718692
 20
94.7005878857407
 30
0.0
 11
-377.1256375386847
 21
94.70058788596496
 31
0.0
  0
LINE
  5
10B
  8
1
  6
CONTINUOUS
 62
     7
 10
-375.7575935943272
 20
94.70026302468901
 30
0.0
 11
-375.1255427612271
 21
94.70026302513317
 31
0.0
  0
LINE
  5
10C
  8
1
  6
CONTINUOUS
 62
     7
 10
-374.1255587810809
 20
125.299916102393
 30
0.0
 11
-374.7576096143119
 21
125.2999161027295
 31
0.0
  0
LINE
  5
10D
  8
1
  6
CONTINUOUS
 62
     7
 10
-376.1256070505294
 20
125.2995497866965
 30
0.0
 11
-376.7576578836452
 21
125.2995497870867
 31
0.0
  0
LINE
  5
10E
  8
1
  6
CONTINUOUS
 62
     7
 10
-378.1256476500453
 20
125.2993619455509
 30
0.0
 11
-378.757698483253
 21
125.2993619455509
 31
0.0
  0
LINE
  5
10F
  8
1
  6
CONTINUOUS
 62
     7
 10
-380.125688249653
 20
125.2995497870867
 30
0.0
 11
-380.7577390827689
 21
125.2995497866965
 31
0.0
  0
LINE
  5
110
  8
1
  6
CONTINUOUS
 62
     7
 10
-382.1257365189863
 20
125.2999161027295
 30
0.0
 11
-382.7577873522173
 21
125.299916102393
 31
0.0
  0
LINE
  5
111
  8
1
  6
CONTINUOUS
 62
     7
 10
-383.0663911198166
 20
94.92115409008844
 30
0.0
 11
-382.8557009661008
 21
95.70001956753588
 31
0.0
  0
LINE
  5
112
  8
1
  6
CONTINUOUS
 62
     7
 10
-381.1011200373366
 20
94.74540269224975
 30
0.0
 11
-380.8445157860739
 21
95.70000499330145
 31
0.0
  0
LINE
  5
113
  8
1
  6
CONTINUOUS
 62
     7
 10
-379.1010708352894
 20
94.74581058156082
 30
0.0
 11
-378.8445642163404
 21
95.70000498218641
 31
0.0
  0
LINE
  5
114
  8
1
  6
CONTINUOUS
 62
     7
 10
-377.1008920192002
 20
94.7468155172398
 30
0.0
 11
-376.8446522007578
 21
95.7000052199758
 31
0.0
  0
LINE
  5
115
  8
1
  6
CONTINUOUS
 62
     7
 10
-375.1010505889339
 20
94.74625790481313
 30
0.0
 11
-374.8446674221931
 21
95.70000514891349
 31
0.0
  0
LINE
  5
116
  8
1
  6
CONTINUOUS
 62
     7
 10
-373.831299611918
 20
124.2503828650812
 30
0.0
 11
-374.1009415120031
 21
125.2534605715508
 31
0.0
  0
LINE
  5
117
  8
1
  6
CONTINUOUS
 62
     7
 10
-375.8313126359222
 20
124.2503085131254
 30
0.0
 11
-376.100992484939
 21
125.2534918786228
 31
0.0
  0
LINE
  5
118
  8
1
  6
CONTINUOUS
 62
     7
 10
-377.8312180275449
 20
124.2501815238503
 30
0.0
 11
-378.1008772950217
 21
125.2532800267005
 31
0.0
  0
LINE
  5
119
  8
1
  6
CONTINUOUS
 62
     7
 10
-379.8315518341552
 20
124.2517443474489
 30
0.0
 11
-380.1012184961801
 21
125.2549026544365
 31
0.0
  0
LINE
  5
11A
  8
1
  6
CONTINUOUS
 62
     7
 10
-381.8312448592139
 20
124.2505202765116
 30
0.0
 11
-382.1009272790027
 21
125.2537748986942
 31
0.0
  0
LINE
  5
11B
  8
1
  6
CONTINUOUS
 62
     7
 10
-382.0519634439439
 20
95.74941338546097
 30
0.0
 11
-381.7822955443644
 21
94.74625790481313
 31
0.0
  0
LINE
  5
11C
  8
1
  6
CONTINUOUS
 62
     7
 10
-380.0521310129911
 20
95.74997875255012
 30
0.0
 11
-379.7824541140981
 21
94.74681551723977
 31
0.0
  0
LINE
  5
11D
  8
1
  6
CONTINUOUS
 62
     7
 10
-378.0519099070995
 20
95.74882988334832
 30
0.0
 11
-377.7822752980088
 21
94.7458105815608
 31
0.0
  0
LINE
  5
11E
  8
1
  6
CONTINUOUS
 62
     7
 10
-376.0519093431672
 20
95.74864992081791
 30
0.0
 11
-375.7822260959617
 21
94.74540269224975
 31
0.0
  0
LINE
  5
11F
  8
1
  6
CONTINUOUS
 62
     7
 10
-374.0758819586397
 20
95.87827956800183
 30
0.0
 11
-373.8071555927446
 21
94.88491818899408
 31
0.0
  0
LINE
  5
120
  8
1
  6
CONTINUOUS
 62
     7
 10
-374.7824188542955
 20
125.2537748986942
 30
0.0
 11
-375.0387992961024
 21
124.2999948074217
 31
0.0
  0
LINE
  5
121
  8
1
  6
CONTINUOUS
 62
     7
 10
-376.7821276371181
 20
125.2549026544365
 30
0.0
 11
-377.0388209639113
 21
124.2999951127586
 31
0.0
  0
LINE
  5
122
  8
1
  6
CONTINUOUS
 62
     7
 10
-378.7824688382765
 20
125.2532800267005
 30
0.0
 11
-379.0387341348367
 21
124.2999948238496
 31
0.0
  0
LINE
  5
123
  8
1
  6
CONTINUOUS
 62
     7
 10
-380.7823536483593
 20
125.2534918786228
 30
0.0
 11
-381.0386737754966
 21
124.2999948175508
 31
0.0
  0
LINE
  5
124
  8
1
  6
CONTINUOUS
 62
     7
 10
-382.7824046212951
 20
125.2534605715508
 30
0.0
 11
-383.0387072495514
 21
124.2999947968871
 31
0.0
  0
ARC
  5
125
  8
1
  6
CONTINUOUS
 62
     7
 10
-370.9416730666492
 20
95.50000000000001
 30
0.0
 40
0.5000000000000004
 50
180.0
 51
270.0
  0
ARC
  5
126
  8
1
  6
CONTINUOUS
 62
     7
 10
-370.9416730666492
 20
124.5
 30
0.0
 40
0.4999999999999866
 50
90.0
 51
180.0
  0
LINE
  5
127
  8
1
  6
CONTINUOUS
 62
     7
 10
-370.9416730666492
 20
95.00000000000001
 30
0.0
 11
-333.9416730666491
 21
95.00000000000001
 31
0.0
  0
LINE
  5
128
  8
1
  6
CONTINUOUS
 62
     7
 10
-333.9416730666491
 20
125.0
 30
0.0
 11
-370.9416730666492
 21
125.0
 31
0.0
  0
ARC
  5
129
  8
1
  6
CONTINUOUS
 62
     7
 10
-333.9416730666491
 20
124.5
 30
0.0
 40
0.4999999999999449
 50
0.0
 51
90.0
  0
ARC
  5
12A
  8
1
  6
CONTINUOUS
 62
     7
 10
-333.9416730666491
 20
95.50000000000001
 30
0.0
 40
0.5000000000000004
 50
270.0
 51
0.0
  0
LINE
  5
12B
  8
1
  6
CONTINUOUS
 62
     7
 10
-372.8576984704336
 20
95.7
 30
0.0
 11
-371.4416730666492
 21
95.7
 31
0.0
  0
LINE
  5
12C
  8
1
  6
CONTINUOUS
 62
     7
 10
-374.8576986083908
 20
95.7
 30
0.0
 11
-374.0256476628647
 21
95.7
 31
0.0
  0
LINE
  5
12D
  8
1
  6
CONTINUOUS
 62
     7
 10
-376.8576981185632
 20
95.7
 30
0.0
 11
-376.0388303472245
 21
95.7
 31
0.0
  0
LINE
  5
12E
  8
1
  6
CONTINUOUS
 62
     7
 10
-378.8576987716679
 20
95.7
 30
0.0
 11
-378.0387819169579
 21
95.7
 31
0.0
  0
LINE
  5
12F
  8
1
  6
CONTINUOUS
 62
     7
 10
-380.8576982818351
 20
95.7
 30
0.0
 11
-380.0386939325405
 21
95.7
 31
0.0
  0
LINE
  5
130
  8
1
  6
CONTINUOUS
 62
     7
 10
-382.8576984704336
 20
95.7
 30
0.0
 11
-382.0386787111053
 21
95.7
 31
0.0
  0
LINE
  5
131
  8
1
  6
CONTINUOUS
 62
     7
 10
-383.0256479739192
 20
124.3
 30
0.0
 11
-383.2249936000176
 21
124.3
 31
0.0
  0
LINE
  5
132
  8
1
  6
CONTINUOUS
 62
     7
 10
-381.0256474432684
 20
124.3
 30
0.0
 11
-381.844546837196
 21
124.3
 31
0.0
  0
LINE
  5
133
  8
1
  6
CONTINUOUS
 62
     7
 10
-379.0256476881856
 20
124.3
 30
0.0
 11
-379.844525169387
 21
124.3
 31
0.0
  0
LINE
  5
134
  8
1
  6
CONTINUOUS
 62
     7
 10
-377.0256479330926
 20
124.3
 30
0.0
 11
-377.8446119984616
 21
124.3
 31
0.0
  0
LINE
  5
135
  8
1
  6
CONTINUOUS
 62
     7
 10
-375.0256474024494
 20
124.3
 30
0.0
 11
-375.8446723578017
 21
124.3
 31
0.0
  0
LINE
  5
136
  8
1
  6
CONTINUOUS
 62
     7
 10
-372.7576014416379
 20
124.3
 30
0.0
 11
-373.8446388837469
 21
124.3
 31
0.0
  0
LINE
  5
137
  8
1
  6
CONTINUOUS
 62
     7
 10
-372.1258954325681
 20
124.3
 30
0.0
 11
-372.7576014416379
 21
124.3
 31
0.0
  0
LINE
  5
138
  8
1
  6
CONTINUOUS
 62
     7
 10
-371.4416730666492
 20
124.3
 30
0.0
 11
-372.1258954325681
 21
124.3
 31
0.0
  0
ENDBLK
  8
0
  0
BLOCK
  8
0
  2
D_FRAME_VIEW_1920
 70
     0
 10
0.0
 20
0.0
 30
0.0
  0
CIRCLE
  5
13D
  8
1
  6
CONTINUOUS
 62
     7
 10
-433.3424091662058
 20
110.0
 30
0.0
 40
8.300000000000002
  0
CIRCLE
  5
13E
  8
1
  6
CONTINUOUS
 62
     7
 10
-433.3424091662058
 20
110.0
 30
0.0
 40
9.099999999999996
  0
CIRCLE
  5
13F
  8
1
  6
CONTINUOUS
 62
     7
 10
-433.3424091662058
 20
110.0
 30
0.0
 40
10.49999999999999
  0
ARC
  5
140
  8
1
  6
CONTINUOUS
 62
     7
 10
-448.3534085830147
 20
110.0
 30
0.0
 40
5.000093169139412
 50
150.0006163886661
 51
209.999383611335
  0
LINE
  5
141
  8
1
  6
CONTINUOUS
 62
     7
 10
-445.1780896845931
 20
125.5
 30
0.0
 11
-452.6836431840583
 21
112.4999999999999
 31
0.0
  0
ARC
  5
142
  8
1
  6
CONTINUOUS
 62
     7
 10
-440.8479566797351
 20
122.9999896320551
 30
0.0
 40
5.000010367948507
 50
90.00006859359947
 51
149.9999314063712
  0
LINE
  5
143
  8
1
  6
CONTINUOUS
 62
     7
 10
-425.8368556667406
 20
128.0
 30
0.0
 11
-440.8479626656683
 21
128.0
 31
0.0
  0
ARC
  5
144
  8
1
  6
CONTINUOUS
 62
     7
 10
-425.8368616526763
 20
122.9999896320553
 30
0.0
 40
5.00001036794831
 50
30.00006859365896
 51
89.99993140637191
  0
LINE
  5
145
  8
1
  6
CONTINUOUS
 62
     7
 10
-414.0011751483533
 20
112.5
 30
0.0
 11
-421.5067286478198
 21
125.5000000000024
 31
0.0
  0
ARC
  5
146
  8
1
  6
CONTINUOUS
 62
     7
 10
-418.3314097493966
 20
110.0
 30
0.0
 40
5.000093169139192
 50
330.0006163886666
 51
29.99938361133701
  0
LINE
  5
147
  8
1
  6
CONTINUOUS
 62
     7
 10
-421.5067286478184
 20
94.50000000000001
 30
0.0
 11
-414.0011751483531
 21
107.5000000000003
 31
0.0
  0
ARC
  5
148
  8
1
  6
CONTINUOUS
 62
     7
 10
-425.8368616526764
 20
97.000010367945
 30
0.0
 40
5.000010367948562
 50
270.0000685935995
 51
329.9999314063704
  0
LINE
  5
149
  8
1
  6
CONTINUOUS
 62
     7
 10
-440.8479626656709
 20
92.00000000000001
 30
0.0
 11
-425.8368556667432
 21
92.00000000000001
 31
0.0
  0
ARC
  5
14A
  8
1
  6
CONTINUOUS
 62
     7
 10
-440.847956679735
 20
97.00001036794505
 30
0.0
 40
5.000010367948652
 50
210.0000685935983
 51
269.9999314063693
  0
LINE
  5
14B
  8
1
  6
CONTINUOUS
 62
     7
 10
-452.6836431840582
 20
107.5
 30
0.0
 11
-445.1780896845945
 21
94.5000000000024
 31
0.0
  0
ENDBLK
  8
0
  0
ENDSEC
  0
SECTION
  2
ENTITIES
  0
INSERT
  5
139
  8
1
  6
CONTINUOUS
 62
     7
  2
D_FRAME_VIEW_2161
 10
0.0
 20
0.0
 30
0.0
  0
INSERT
  5
14C
  8
1
  6
CONTINUOUS
 62
     7
  2
D_FRAME_VIEW_1920
 10
0.0
 20
0.0
 30
0.0
  0
TEXT
  5
14D
  8
1
  6
CONTINUOUS
 62
     7
 10
-422.7475199032971
 20
72.21403338752033
 30
0.0
 40
5.0
  1
GLVE-22D16
  0
ENDSEC
  0
EOF
