  0
SECTION
  2
HEADER
  9
$ACADVER
  1
AC1006
  9
$DWGCODEPAGE
  3
ansi_932
  9
$INSBASE
 10
0.0
 20
0.0
 30
0.0
  9
$EXTMIN
 10
57.58325536624957
 20
110.8606060606061
  9
$EXTMAX
 10
160.3333333333333
 20
226.1666666666667
  9
$LIMMIN
 10
0.0
 20
0.0
  9
$LIMMAX
 10
12.0
 20
9.0
  9
$ORTHOMODE
 70
     0
  9
$REGENMODE
 70
     1
  9
$FILLMODE
 70
     1
  9
$QTEXTMODE
 70
     0
  9
$MIRRTEXT
 70
     1
  9
$DRAGMODE
 70
     2
  9
$LTSCALE
 40
1.0
  9
$OSMODE
 70
    37
  9
$ATTMODE
 70
     1
  9
$TEXTSIZE
 40
0.2
  9
$TRACEWID
 40
0.05
  9
$TEXTSTYLE
  7
STANDARD
  9
$CLAYER
  8
0
  9
$CELTYPE
  6
BYLAYER
  9
$CECOLOR
 62
   256
  9
$DIMSCALE
 40
1.0
  9
$DIMASZ
 40
3.0
  9
$DIMEXO
 40
0.0625
  9
$DIMDLI
 40
0.38
  9
$DIMRND
 40
0.0
  9
$DIMDLE
 40
0.0
  9
$DIMEXE
 40
1.5
  9
$DIMTP
 40
0.0
  9
$DIMTM
 40
0.0
  9
$DIMTXT
 40
3.0
  9
$DIMCEN
 40
0.09
  9
$DIMTSZ
 40
0.0
  9
$DIMTOL
 70
     0
  9
$DIMLIM
 70
     0
  9
$DIMTIH
 70
     1
  9
$DIMTOH
 70
     1
  9
$DIMSE1
 70
     0
  9
$DIMSE2
 70
     0
  9
$DIMTAD
 70
     1
  9
$DIMZIN
 70
     0
  9
$DIMBLK
  1

  9
$DIMASO
 70
     1
  9
$DIMSHO
 70
     1
  9
$DIMPOST
  1

  9
$DIMAPOST
  1

  9
$DIMALT
 70
     0
  9
$DIMALTD
 70
     2
  9
$DIMALTF
 40
25.4
  9
$DIMLFAC
 40
1.0
  9
$DIMTOFL
 70
     0
  9
$DIMTVP
 40
0.0
  9
$DIMTIX
 70
     0
  9
$DIMSOXD
 70
     0
  9
$DIMSAH
 70
     0
  9
$DIMBLK1
  1

  9
$DIMBLK2
  1

  9
$LUNITS
 70
     2
  9
$LUPREC
 70
     4
  9
$SKETCHINC
 40
0.1
  9
$FILLETRAD
 40
0.5
  9
$AUNITS
 70
     0
  9
$AUPREC
 70
     0
  9
$MENU
  1
.
  9
$ELEVATION
 40
0.0
  9
$THICKNESS
 40
0.0
  9
$LIMCHECK
 70
     0
  9
$CHAMFERA
 40
0.0
  9
$CHAMFERB
 40
0.0
  9
$SKPOLY
 70
     0
  9
$TDCREATE
 40
2460112.65425875
  9
$TDUPDATE
 40
2460112.654258866
  9
$TDINDWG
 40
0.0000000116
  9
$TDUSRTIMER
 40
0.0000000116
  9
$USRTIMER
 70
     1
  9
$ANGBASE
 50
0.0
  9
$ANGDIR
 70
     0
  9
$PDMODE
 70
     0
  9
$PDSIZE
 40
0.0
  9
$PLINEWID
 40
0.0
  9
$COORDS
 70
     1
  9
$SPLFRAME
 70
     0
  9
$SPLINETYPE
 70
     6
  9
$SPLINESEGS
 70
     8
  9
$ATTDIA
 70
     0
  9
$ATTREQ
 70
     1
  9
$HANDLING
 70
     1
  9
$HANDSEED
  5
3D8
  9
$SURFTAB1
 70
     6
  9
$SURFTAB2
 70
     6
  9
$SURFTYPE
 70
     6
  9
$SURFU
 70
     6
  9
$SURFV
 70
     6
  9
$UCSNAME
  2

  9
$UCSORG
 10
0.0
 20
0.0
 30
0.0
  9
$UCSXDIR
 10
1.0
 20
0.0
 30
0.0
  9
$UCSYDIR
 10
0.0
 20
1.0
 30
0.0
  9
$USERI1
 70
     0
  9
$USERI2
 70
     0
  9
$USERI3
 70
     0
  9
$USERI4
 70
     0
  9
$USERI5
 70
     0
  9
$USERR1
 40
0.0
  9
$USERR2
 40
0.0
  9
$USERR3
 40
0.0
  9
$USERR4
 40
0.0
  9
$USERR5
 40
0.0
  9
$WORLDVIEW
 70
     1
  0
ENDSEC
  0
SECTION
  2
TABLES
  0
TABLE
  2
VPORT
 70
     1
  0
VPORT
  2
*ACTIVE
 70
     0
 10
0.0
 20
0.0
 11
1.0
 21
1.0
 12
108.9582943497915
 22
168.5136363636364
 13
0.0
 23
0.0
 14
0.5
 24
0.5
 15
0.5
 25
0.5
 16
0.0
 26
0.0
 36
1.0
 17
0.0
 27
0.0
 37
0.0
 40
115.3060606060606
 41
1.6
 42
50.0
 43
0.0
 44
0.0
 50
0.0
 51
0.0
 71
     0
 72
   100
 73
     1
 74
     3
 75
     0
 76
     0
 77
     0
 78
     0
  0
ENDTAB
  0
TABLE
  2
LTYPE
 70
     3
  0
LTYPE
  2
CONTINUOUS
 70
     0
  3
Solid line
 72
    65
 73
     0
 40
0.0
  0
LTYPE
  2
DOT
 70
     0
  3

 72
    65
 73
     0
 40
0.0
  0
LTYPE
  2
CENTER
 70
     0
  3

 72
    65
 73
     0
 40
0.0
  0
ENDTAB
  0
TABLE
  2
LAYER
 70
     3
  0
LAYER
  2
0
 70
     0
 62
     7
  6
CONTINUOUS
  0
LAYER
  2
1
 70
     0
 62
     7
  6
CONTINUOUS
  0
LAYER
  2
3
 70
     0
 62
     7
  6
CONTINUOUS
  0
ENDTAB
  0
TABLE
  2
STYLE
 70
     2
  0
STYLE
  2
STANDARD
 70
     0
 40
0.0
 41
1.0
 50
0.0
 71
     0
 42
0.2
  3
txt
  4

  0
STYLE
  2
ＭＳ_ゴシック
 70
     0
 40
0.0
 41
1.0
 50
0.0
 71
     0
 42
0.2
  3
ＭＳ ゴシック.shx
  4

  0
ENDTAB
  0
TABLE
  2
VIEW
 70
     0
  0
ENDTAB
  0
TABLE
  2
UCS
 70
     0
  0
ENDTAB
  0
ENDSEC
  0
SECTION
  2
BLOCKS
  0
BLOCK
  8
0
  2
D_FRAME_VIEW_1472
 70
     0
 10
0.0
 20
0.0
 30
0.0
  0
ARC
  5
73
  8
1
  6
CONTINUOUS
 62
     7
 10
70.97343590440492
 20
148.9027769780791
 30
0.0
 40
11.41550072373875
 50
222.0195796554156
 51
233.0922056676422
  0
ARC
  5
74
  8
1
  6
CONTINUOUS
 62
     7
 10
70.83333333333333
 20
148.6604302168313
 30
0.0
 40
11.25
 50
132.5909024307851
 51
221.3751086445277
  0
ARC
  5
75
  8
1
  6
CONTINUOUS
 62
     7
 10
63.43974683700092
 20
154.0088186975497
 30
0.0
 40
2.002488730413197
 50
144.1990000883831
 51
181.0971204792805
  0
ARC
  5
76
  8
1
  6
CONTINUOUS
 62
     7
 10
63.43949822671848
 20
143.3119640553296
 30
0.0
 40
2.002241654772788
 50
178.9005208124925
 51
215.8033586198411
  0
ARC
  5
77
  8
1
  6
CONTINUOUS
 62
     7
 10
70.83333333333333
 20
148.6604302168313
 30
0.0
 40
11.25
 50
318.6248913554723
 51
47.40909756921485
  0
ARC
  5
78
  8
1
  6
CONTINUOUS
 62
     7
 10
70.69323076226173
 20
148.9027769780791
 30
0.0
 40
11.41550072373875
 50
306.9077943323577
 51
317.9804203445844
  0
ARC
  5
79
  8
1
  6
CONTINUOUS
 62
     7
 10
78.22716843994809
 20
143.3119640553296
 30
0.0
 40
2.002241654772871
 50
324.1966413801595
 51
1.099479187506688
  0
ARC
  5
7A
  8
1
  6
CONTINUOUS
 62
     7
 10
78.22691982966587
 20
154.0088186975497
 30
0.0
 40
2.002488730413079
 50
358.9028795207187
 51
35.80099991161831
  0
ARC
  5
7B
  8
1
  6
CONTINUOUS
 62
     7
 10
70.83333333333333
 20
148.6604302168313
 30
0.0
 40
7.749999999999993
 50
140.0
 51
150.5712928231331
  0
LINE
  5
7C
  8
1
  6
CONTINUOUS
 62
     7
 10
64.08333333333333
 20
152.4683167697632
 30
0.0
 11
63.58333333333332
 21
151.4113668327739
 31
0.0
  0
ARC
  5
7D
  8
1
  6
CONTINUOUS
 62
     7
 10
70.83333333333333
 20
148.6604302168313
 30
0.0
 40
7.754363433895379
 50
159.2212746593132
 51
200.7787253406868
  0
LINE
  5
7E
  8
1
  6
CONTINUOUS
 62
     7
 10
63.58333333333332
 20
145.9094936008887
 30
0.0
 11
64.08333333333339
 21
144.8525436638989
 31
0.0
  0
ARC
  5
7F
  8
1
  6
CONTINUOUS
 62
     7
 10
70.83333333333333
 20
148.6604302168313
 30
0.0
 40
7.749999999999995
 50
209.4287071768669
 51
228.1897442353925
  0
LINE
  5
80
  8
1
  6
CONTINUOUS
 62
     7
 10
78.08333333333334
 20
145.9094936008887
 30
0.0
 11
77.58333333333329
 21
144.8525436638989
 31
0.0
  0
ARC
  5
81
  8
1
  6
CONTINUOUS
 62
     7
 10
70.83333333333333
 20
148.6604302168313
 30
0.0
 40
7.754363433895379
 50
339.2212746593131
 51
20.77872534068678
  0
LINE
  5
82
  8
1
  6
CONTINUOUS
 62
     7
 10
77.58333333333334
 20
152.4683167697632
 30
0.0
 11
78.08333333333334
 21
151.4113668327739
 31
0.0
  0
ARC
  5
83
  8
1
  6
CONTINUOUS
 62
     7
 10
70.83333333333333
 20
148.6604302168313
 30
0.0
 40
7.749999999999993
 50
29.42870717686685
 51
39.99999999999994
  0
ARC
  5
84
  8
1
  6
CONTINUOUS
 62
     7
 10
70.83333333333333
 20
148.6604302168313
 30
0.0
 40
7.749999999999995
 50
311.8102557646075
 51
330.5712928231331
  0
LINE
  5
85
  8
1
  6
CONTINUOUS
 62
     7
 10
80.22904145516829
 20
153.9704766563047
 30
0.0
 11
80.2290414551683
 21
143.3503837773579
 31
0.0
  0
LINE
  5
86
  8
1
  6
CONTINUOUS
 62
     7
 10
61.43762521149837
 20
153.9704766563047
 30
0.0
 11
61.43762521149836
 21
143.3503837773579
 31
0.0
  0
LINE
  5
87
  8
1
  6
CONTINUOUS
 62
     7
 10
65.83333333333334
 20
142.5112517929745
 30
0.0
 11
65.66667262822088
 21
142.8839159427862
 31
0.0
  0
LINE
  5
88
  8
1
  6
CONTINUOUS
 62
     7
 10
75.83333333333331
 20
142.5112517929745
 30
0.0
 11
75.99999403844578
 21
142.8839159427862
 31
0.0
  0
POLYLINE
  5
89
  8
1
  6
CONTINUOUS
 62
     7
 66
     1
 10
0.0
 20
0.0
 30
0.0
  0
VERTEX
  5
14A
  8
1
  6
CONTINUOUS
 62
     7
 10
76.77017776750542
 20
156.2065549269617
 30
0.0
  0
VERTEX
  5
14B
  8
1
  6
CONTINUOUS
 62
     7
 10
76.7713562309505
 20
156.2545986366651
 30
0.0
  0
VERTEX
  5
14C
  8
1
  6
CONTINUOUS
 62
     7
 10
76.77487300690485
 20
156.302667011948
 30
0.0
  0
VERTEX
  5
14D
  8
1
  6
CONTINUOUS
 62
     7
 10
76.7807001737971
 20
156.3505956630173
 30
0.0
  0
VERTEX
  5
14E
  8
1
  6
CONTINUOUS
 62
     7
 10
76.78880981005591
 20
156.3982202000798
 30
0.0
  0
VERTEX
  5
14F
  8
1
  6
CONTINUOUS
 62
     7
 10
76.79917399410989
 20
156.4453762333425
 30
0.0
  0
VERTEX
  5
150
  8
1
  6
CONTINUOUS
 62
     7
 10
76.81176480438768
 20
156.4918993730122
 30
0.0
  0
VERTEX
  5
151
  8
1
  6
CONTINUOUS
 62
     7
 10
76.82655431931794
 20
156.5376252292958
 30
0.0
  0
VERTEX
  5
152
  8
1
  6
CONTINUOUS
 62
     7
 10
76.84356853405994
 20
156.5825711789078
 30
0.0
  0
VERTEX
  5
153
  8
1
  6
CONTINUOUS
 62
     7
 10
76.86279797583066
 20
156.6267662764021
 30
0.0
  0
VERTEX
  5
154
  8
1
  6
CONTINUOUS
 62
     7
 10
76.88416184448045
 20
156.6700645705693
 30
0.0
  0
VERTEX
  5
155
  8
1
  6
CONTINUOUS
 62
     7
 10
76.90757933985961
 20
156.7123201102
 30
0.0
  0
VERTEX
  5
156
  8
1
  6
CONTINUOUS
 62
     7
 10
76.93296966181849
 20
156.7533869440848
 30
0.0
  0
VERTEX
  5
157
  8
1
  6
CONTINUOUS
 62
     7
 10
76.96025201020743
 20
156.7931191210141
 30
0.0
  0
VERTEX
  5
158
  8
1
  6
CONTINUOUS
 62
     7
 10
76.98934558487672
 20
156.8313706897787
 30
0.0
  0
VERTEX
  5
159
  8
1
  6
CONTINUOUS
 62
     7
 10
77.02027509134977
 20
156.8681431351907
 30
0.0
  0
VERTEX
  5
15A
  8
1
  6
CONTINUOUS
 62
     7
 10
77.05304610837696
 20
156.9034738493187
 30
0.0
  0
VERTEX
  5
15B
  8
1
  6
CONTINUOUS
 62
     7
 10
77.08753406904104
 20
156.9372518974377
 30
0.0
  0
VERTEX
  5
15C
  8
1
  6
CONTINUOUS
 62
     7
 10
77.12361440642476
 20
156.9693663448226
 30
0.0
  0
VERTEX
  5
15D
  8
1
  6
CONTINUOUS
 62
     7
 10
77.16116255361088
 20
156.9997062567482
 30
0.0
  0
VERTEX
  5
15E
  8
1
  6
CONTINUOUS
 62
     7
 10
77.20005394368218
 20
157.0281606984896
 30
0.0
  0
VERTEX
  5
15F
  8
1
  6
CONTINUOUS
 62
     7
 10
77.24016400972135
 20
157.0546187353216
 30
0.0
  0
VERTEX
  5
160
  8
1
  6
CONTINUOUS
 62
     7
 10
77.28151548288228
 20
157.0790730468352
 30
0.0
  0
VERTEX
  5
161
  8
1
  6
CONTINUOUS
 62
     7
 10
77.32412694536784
 20
157.1015577849498
 30
0.0
  0
VERTEX
  5
162
  8
1
  6
CONTINUOUS
 62
     7
 10
77.36784417948205
 20
157.1220095818101
 30
0.0
  0
VERTEX
  5
163
  8
1
  6
CONTINUOUS
 62
     7
 10
77.41251296752901
 20
157.1403650695607
 30
0.0
  0
VERTEX
  5
164
  8
1
  6
CONTINUOUS
 62
     7
 10
77.45797909181279
 20
157.1565608803462
 30
0.0
  0
VERTEX
  5
165
  8
1
  6
CONTINUOUS
 62
     7
 10
77.50408833463744
 20
157.1705336463114
 30
0.0
  0
VERTEX
  5
166
  8
1
  6
CONTINUOUS
 62
     7
 10
77.55068647830704
 20
157.1822199996007
 30
0.0
  0
VERTEX
  5
167
  8
1
  6
CONTINUOUS
 62
     7
 10
77.59779828938765
 20
157.1916065778285
 30
0.0
  0
VERTEX
  5
168
  8
1
  6
CONTINUOUS
 62
     7
 10
77.64544694925355
 20
157.198717940512
 30
0.0
  0
VERTEX
  5
169
  8
1
  6
CONTINUOUS
 62
     7
 10
77.693466020135
 20
157.2035453893965
 30
0.0
  0
VERTEX
  5
16A
  8
1
  6
CONTINUOUS
 62
     7
 10
77.7416890642623
 20
157.2060802262273
 30
0.0
  0
VERTEX
  5
16B
  8
1
  6
CONTINUOUS
 62
     7
 10
77.78994964386573
 20
157.20631375275
 30
0.0
  0
VERTEX
  5
16C
  8
1
  6
CONTINUOUS
 62
     7
 10
77.83808132117555
 20
157.2042372707098
 30
0.0
  0
VERTEX
  5
16D
  8
1
  6
CONTINUOUS
 62
     7
 10
77.88591765842206
 20
157.1998420818522
 30
0.0
  0
VERTEX
  5
16E
  8
1
  6
CONTINUOUS
 62
     7
 10
77.9334848433784
 20
157.1931062331169
 30
0.0
  0
VERTEX
  5
16F
  8
1
  6
CONTINUOUS
 62
     7
 10
77.9808055647567
 20
157.1840457485571
 30
0.0
  0
VERTEX
  5
170
  8
1
  6
CONTINUOUS
 62
     7
 10
78.02771991738803
 20
157.1727075210574
 30
0.0
  0
VERTEX
  5
171
  8
1
  6
CONTINUOUS
 62
     7
 10
78.07406799610332
 20
157.1591384435024
 30
0.0
  0
VERTEX
  5
172
  8
1
  6
CONTINUOUS
 62
     7
 10
78.11968989573361
 20
157.1433854087769
 30
0.0
  0
VERTEX
  5
173
  8
1
  6
CONTINUOUS
 62
     7
 10
78.16442571110989
 20
157.1254953097654
 30
0.0
  0
VERTEX
  5
174
  8
1
  6
CONTINUOUS
 62
     7
 10
78.20811553706314
 20
157.1055150393527
 30
0.0
  0
VERTEX
  5
175
  8
1
  6
CONTINUOUS
 62
     7
 10
78.25094240161593
 20
157.0833325584991
 30
0.0
  0
VERTEX
  5
176
  8
1
  6
CONTINUOUS
 62
     7
 10
78.29274110774072
 20
157.0590442969186
 30
0.0
  0
VERTEX
  5
177
  8
1
  6
CONTINUOUS
 62
     7
 10
78.33337258821182
 20
157.0327451548684
 30
0.0
  0
VERTEX
  5
178
  8
1
  6
CONTINUOUS
 62
     7
 10
78.37269777580342
 20
157.0045300326057
 30
0.0
  0
VERTEX
  5
179
  8
1
  6
CONTINUOUS
 62
     7
 10
78.41057760328977
 20
156.9744938303878
 30
0.0
  0
VERTEX
  5
17A
  8
1
  6
CONTINUOUS
 62
     7
 10
78.44687300344518
 20
156.9427314484718
 30
0.0
  0
SEQEND
  5
3BC
  8
1
  6
CONTINUOUS
 62
     7
  0
POLYLINE
  5
8A
  8
1
  6
CONTINUOUS
 62
     7
 66
     1
 10
0.0
 20
0.0
 30
0.0
  0
VERTEX
  5
17B
  8
1
  6
CONTINUOUS
 62
     7
 10
64.89648889916124
 20
156.2065549269617
 30
0.0
  0
VERTEX
  5
17C
  8
1
  6
CONTINUOUS
 62
     7
 10
64.89531043571615
 20
156.2545986366651
 30
0.0
  0
VERTEX
  5
17D
  8
1
  6
CONTINUOUS
 62
     7
 10
64.8917936597618
 20
156.302667011948
 30
0.0
  0
VERTEX
  5
17E
  8
1
  6
CONTINUOUS
 62
     7
 10
64.88596649286956
 20
156.3505956630173
 30
0.0
  0
VERTEX
  5
17F
  8
1
  6
CONTINUOUS
 62
     7
 10
64.87785685661075
 20
156.3982202000798
 30
0.0
  0
VERTEX
  5
180
  8
1
  6
CONTINUOUS
 62
     7
 10
64.86749267255678
 20
156.4453762333425
 30
0.0
  0
VERTEX
  5
181
  8
1
  6
CONTINUOUS
 62
     7
 10
64.85490186227898
 20
156.4918993730122
 30
0.0
  0
VERTEX
  5
182
  8
1
  6
CONTINUOUS
 62
     7
 10
64.84011234734872
 20
156.5376252292958
 30
0.0
  0
VERTEX
  5
183
  8
1
  6
CONTINUOUS
 62
     7
 10
64.82309813260673
 20
156.5825711789078
 30
0.0
  0
VERTEX
  5
184
  8
1
  6
CONTINUOUS
 62
     7
 10
64.803868690836
 20
156.6267662764021
 30
0.0
  0
VERTEX
  5
185
  8
1
  6
CONTINUOUS
 62
     7
 10
64.78250482218621
 20
156.6700645705693
 30
0.0
  0
VERTEX
  5
186
  8
1
  6
CONTINUOUS
 62
     7
 10
64.75908732680705
 20
156.7123201102
 30
0.0
  0
VERTEX
  5
187
  8
1
  6
CONTINUOUS
 62
     7
 10
64.73369700484817
 20
156.7533869440848
 30
0.0
  0
VERTEX
  5
188
  8
1
  6
CONTINUOUS
 62
     7
 10
64.70641465645923
 20
156.7931191210141
 30
0.0
  0
VERTEX
  5
189
  8
1
  6
CONTINUOUS
 62
     7
 10
64.67732108178994
 20
156.8313706897787
 30
0.0
  0
VERTEX
  5
18A
  8
1
  6
CONTINUOUS
 62
     7
 10
64.64639157531688
 20
156.8681431351907
 30
0.0
  0
VERTEX
  5
18B
  8
1
  6
CONTINUOUS
 62
     7
 10
64.6136205582897
 20
156.9034738493187
 30
0.0
  0
VERTEX
  5
18C
  8
1
  6
CONTINUOUS
 62
     7
 10
64.57913259762563
 20
156.9372518974377
 30
0.0
  0
VERTEX
  5
18D
  8
1
  6
CONTINUOUS
 62
     7
 10
64.5430522602419
 20
156.9693663448226
 30
0.0
  0
VERTEX
  5
18E
  8
1
  6
CONTINUOUS
 62
     7
 10
64.50550411305578
 20
156.9997062567482
 30
0.0
  0
VERTEX
  5
18F
  8
1
  6
CONTINUOUS
 62
     7
 10
64.46661272298448
 20
157.0281606984896
 30
0.0
  0
VERTEX
  5
190
  8
1
  6
CONTINUOUS
 62
     7
 10
64.4265026569453
 20
157.0546187353216
 30
0.0
  0
VERTEX
  5
191
  8
1
  6
CONTINUOUS
 62
     7
 10
64.38515118378437
 20
157.0790730468352
 30
0.0
  0
VERTEX
  5
192
  8
1
  6
CONTINUOUS
 62
     7
 10
64.34253972129883
 20
157.1015577849498
 30
0.0
  0
VERTEX
  5
193
  8
1
  6
CONTINUOUS
 62
     7
 10
64.29882248718462
 20
157.1220095818101
 30
0.0
  0
VERTEX
  5
194
  8
1
  6
CONTINUOUS
 62
     7
 10
64.25415369913765
 20
157.1403650695607
 30
0.0
  0
VERTEX
  5
195
  8
1
  6
CONTINUOUS
 62
     7
 10
64.20868757485387
 20
157.1565608803462
 30
0.0
  0
VERTEX
  5
196
  8
1
  6
CONTINUOUS
 62
     7
 10
64.16257833202923
 20
157.1705336463114
 30
0.0
  0
VERTEX
  5
197
  8
1
  6
CONTINUOUS
 62
     7
 10
64.11598018835961
 20
157.1822199996007
 30
0.0
  0
VERTEX
  5
198
  8
1
  6
CONTINUOUS
 62
     7
 10
64.068868377279
 20
157.1916065778285
 30
0.0
  0
VERTEX
  5
199
  8
1
  6
CONTINUOUS
 62
     7
 10
64.0212197174131
 20
157.198717940512
 30
0.0
  0
VERTEX
  5
19A
  8
1
  6
CONTINUOUS
 62
     7
 10
63.97320064653165
 20
157.2035453893965
 30
0.0
  0
VERTEX
  5
19B
  8
1
  6
CONTINUOUS
 62
     7
 10
63.92497760240435
 20
157.2060802262273
 30
0.0
  0
VERTEX
  5
19C
  8
1
  6
CONTINUOUS
 62
     7
 10
63.87671702280094
 20
157.20631375275
 30
0.0
  0
VERTEX
  5
19D
  8
1
  6
CONTINUOUS
 62
     7
 10
63.82858534549111
 20
157.2042372707098
 30
0.0
  0
VERTEX
  5
19E
  8
1
  6
CONTINUOUS
 62
     7
 10
63.7807490082446
 20
157.1998420818522
 30
0.0
  0
VERTEX
  5
19F
  8
1
  6
CONTINUOUS
 62
     7
 10
63.73318182328827
 20
157.1931062331169
 30
0.0
  0
VERTEX
  5
1A0
  8
1
  6
CONTINUOUS
 62
     7
 10
63.68586110190996
 20
157.1840457485571
 30
0.0
  0
VERTEX
  5
1A1
  8
1
  6
CONTINUOUS
 62
     7
 10
63.63894674927864
 20
157.1727075210574
 30
0.0
  0
VERTEX
  5
1A2
  8
1
  6
CONTINUOUS
 62
     7
 10
63.59259867056334
 20
157.1591384435024
 30
0.0
  0
VERTEX
  5
1A3
  8
1
  6
CONTINUOUS
 62
     7
 10
63.54697677093304
 20
157.1433854087769
 30
0.0
  0
VERTEX
  5
1A4
  8
1
  6
CONTINUOUS
 62
     7
 10
63.50224095555677
 20
157.1254953097654
 30
0.0
  0
VERTEX
  5
1A5
  8
1
  6
CONTINUOUS
 62
     7
 10
63.45855112960352
 20
157.1055150393527
 30
0.0
  0
VERTEX
  5
1A6
  8
1
  6
CONTINUOUS
 62
     7
 10
63.41572426505073
 20
157.0833325584991
 30
0.0
  0
VERTEX
  5
1A7
  8
1
  6
CONTINUOUS
 62
     7
 10
63.37392555892593
 20
157.0590442969186
 30
0.0
  0
VERTEX
  5
1A8
  8
1
  6
CONTINUOUS
 62
     7
 10
63.33329407845485
 20
157.0327451548684
 30
0.0
  0
VERTEX
  5
1A9
  8
1
  6
CONTINUOUS
 62
     7
 10
63.29396889086325
 20
157.0045300326057
 30
0.0
  0
VERTEX
  5
1AA
  8
1
  6
CONTINUOUS
 62
     7
 10
63.25608906337689
 20
156.9744938303878
 30
0.0
  0
VERTEX
  5
1AB
  8
1
  6
CONTINUOUS
 62
     7
 10
63.21979366322149
 20
156.9427314484718
 30
0.0
  0
SEQEND
  5
3BD
  8
1
  6
CONTINUOUS
 62
     7
  0
POLYLINE
  5
8B
  8
1
  6
CONTINUOUS
 62
     7
 66
     1
 10
0.0
 20
0.0
 30
0.0
  0
VERTEX
  5
1AC
  8
1
  6
CONTINUOUS
 62
     7
 10
76.9285982888047
 20
139.5750107816455
 30
0.0
  0
VERTEX
  5
1AD
  8
1
  6
CONTINUOUS
 62
     7
 10
76.96628764089783
 20
139.5750357840228
 30
0.0
  0
VERTEX
  5
1AE
  8
1
  6
CONTINUOUS
 62
     7
 10
77.00396399072328
 20
139.5764654183058
 30
0.0
  0
VERTEX
  5
1AF
  8
1
  6
CONTINUOUS
 62
     7
 10
77.04151667734894
 20
139.5792897033161
 30
0.0
  0
VERTEX
  5
1B0
  8
1
  6
CONTINUOUS
 62
     7
 10
77.07883503984274
 20
139.5834986578753
 30
0.0
  0
VERTEX
  5
1B1
  8
1
  6
CONTINUOUS
 62
     7
 10
77.1170824133466
 20
139.5892919516865
 30
0.0
  0
VERTEX
  5
1B2
  8
1
  6
CONTINUOUS
 62
     7
 10
77.1550089590782
 20
139.59653456328
 30
0.0
  0
VERTEX
  5
1B3
  8
1
  6
CONTINUOUS
 62
     7
 10
77.19251276871253
 20
139.6051926840694
 30
0.0
  0
VERTEX
  5
1B4
  8
1
  6
CONTINUOUS
 62
     7
 10
77.22949193392459
 20
139.6152325054685
 30
0.0
  0
VERTEX
  5
1B5
  8
1
  6
CONTINUOUS
 62
     7
 10
77.26474692263886
 20
139.6262458779911
 30
0.0
  0
VERTEX
  5
1B6
  8
1
  6
CONTINUOUS
 62
     7
 10
77.29947040490349
 20
139.6385134984623
 30
0.0
  0
VERTEX
  5
1B7
  8
1
  6
CONTINUOUS
 62
     7
 10
77.33359541478451
 20
139.6519964711742
 30
0.0
  0
VERTEX
  5
1B8
  8
1
  6
CONTINUOUS
 62
     7
 10
77.36705498634795
 20
139.6666559004188
 30
0.0
  0
VERTEX
  5
1B9
  8
1
  6
CONTINUOUS
 62
     7
 10
77.4116680588394
 20
139.6885530855159
 30
0.0
  0
VERTEX
  5
1BA
  8
1
  6
CONTINUOUS
 62
     7
 10
77.45498139285162
 20
139.7125591787245
 30
0.0
  0
VERTEX
  5
1BB
  8
1
  6
CONTINUOUS
 62
     7
 10
77.49687810862596
 20
139.7385821644595
 30
0.0
  0
VERTEX
  5
1BC
  8
1
  6
CONTINUOUS
 62
     7
 10
77.5230168969332
 20
139.7563356380973
 30
0.0
  0
VERTEX
  5
1BD
  8
1
  6
CONTINUOUS
 62
     7
 10
77.54857006809922
 20
139.7749086740599
 30
0.0
  0
SEQEND
  5
3BE
  8
1
  6
CONTINUOUS
 62
     7
  0
LINE
  5
8C
  8
1
  6
CONTINUOUS
 62
     7
 10
76.44243821991067
 20
139.7112997430913
 30
0.0
 11
76.9285982888047
 21
139.5750107816455
 31
0.0
  0
POLYLINE
  5
8D
  8
1
  6
CONTINUOUS
 62
     7
 66
     1
 10
0.0
 20
0.0
 30
0.0
  0
VERTEX
  5
1BE
  8
1
  6
CONTINUOUS
 62
     7
 10
75.94245725837858
 20
140.566160025119
 30
0.0
  0
VERTEX
  5
1BF
  8
1
  6
CONTINUOUS
 62
     7
 10
75.94250294334063
 20
140.561016835169
 30
0.0
  0
VERTEX
  5
1C0
  8
1
  6
CONTINUOUS
 62
     7
 10
75.94414054139729
 20
140.5146336930055
 30
0.0
  0
VERTEX
  5
1C1
  8
1
  6
CONTINUOUS
 62
     7
 10
75.94798932190817
 20
140.4682812005148
 30
0.0
  0
VERTEX
  5
1C2
  8
1
  6
CONTINUOUS
 62
     7
 10
75.95405563326929
 20
140.4220386989191
 30
0.0
  0
VERTEX
  5
1C3
  8
1
  6
CONTINUOUS
 62
     7
 10
75.96297340535192
 20
140.3729658604186
 30
0.0
  0
VERTEX
  5
1C4
  8
1
  6
CONTINUOUS
 62
     7
 10
75.97448897141514
 20
140.323966565209
 30
0.0
  0
VERTEX
  5
1C5
  8
1
  6
CONTINUOUS
 62
     7
 10
75.9886320783401
 20
140.2751729347618
 30
0.0
  0
VERTEX
  5
1C6
  8
1
  6
CONTINUOUS
 62
     7
 10
76.00543247300796
 20
140.2267170905488
 30
0.0
  0
VERTEX
  5
1C7
  8
1
  6
CONTINUOUS
 62
     7
 10
76.0249199022999
 20
140.1787311540416
 30
0.0
  0
VERTEX
  5
1C8
  8
1
  6
CONTINUOUS
 62
     7
 10
76.04712411309706
 20
140.1313472467119
 30
0.0
  0
VERTEX
  5
1C9
  8
1
  6
CONTINUOUS
 62
     7
 10
76.07207485228061
 20
140.0846974900313
 30
0.0
  0
VERTEX
  5
1CA
  8
1
  6
CONTINUOUS
 62
     7
 10
76.09173988123501
 20
140.0516809921184
 30
0.0
  0
VERTEX
  5
1CB
  8
1
  6
CONTINUOUS
 62
     7
 10
76.11297003185567
 20
140.0189952398979
 30
0.0
  0
VERTEX
  5
1CC
  8
1
  6
CONTINUOUS
 62
     7
 10
76.13575304756064
 20
139.9867425285209
 30
0.0
  0
VERTEX
  5
1CD
  8
1
  6
CONTINUOUS
 62
     7
 10
76.16007667176802
 20
139.9550251531388
 30
0.0
  0
VERTEX
  5
1CE
  8
1
  6
CONTINUOUS
 62
     7
 10
76.18592864789593
 20
139.9239454089029
 30
0.0
  0
VERTEX
  5
1CF
  8
1
  6
CONTINUOUS
 62
     7
 10
76.21329671936243
 20
139.8936055909645
 30
0.0
  0
VERTEX
  5
1D0
  8
1
  6
CONTINUOUS
 62
     7
 10
76.24216862958563
 20
139.8641079944749
 30
0.0
  0
VERTEX
  5
1D1
  8
1
  6
CONTINUOUS
 62
     7
 10
76.26441684723818
 20
139.8429696995431
 30
0.0
  0
VERTEX
  5
1D2
  8
1
  6
CONTINUOUS
 62
     7
 10
76.28760085488416
 20
139.8222688397835
 30
0.0
  0
VERTEX
  5
1D3
  8
1
  6
CONTINUOUS
 62
     7
 10
76.3116506834037
 20
139.8020777352541
 30
0.0
  0
VERTEX
  5
1D4
  8
1
  6
CONTINUOUS
 62
     7
 10
76.336496363677
 20
139.7824687060129
 30
0.0
  0
VERTEX
  5
1D5
  8
1
  6
CONTINUOUS
 62
     7
 10
76.36206792658417
 20
139.763514072118
 30
0.0
  0
VERTEX
  5
1D6
  8
1
  6
CONTINUOUS
 62
     7
 10
76.38829540300542
 20
139.7452861536274
 30
0.0
  0
VERTEX
  5
1D7
  8
1
  6
CONTINUOUS
 62
     7
 10
76.41510882382086
 20
139.7278572705992
 30
0.0
  0
VERTEX
  5
1D8
  8
1
  6
CONTINUOUS
 62
     7
 10
76.44243821991067
 20
139.7112997430913
 30
0.0
  0
SEQEND
  5
3BF
  8
1
  6
CONTINUOUS
 62
     7
  0
POLYLINE
  5
8E
  8
1
  6
CONTINUOUS
 62
     7
 66
     1
 10
0.0
 20
0.0
 30
0.0
  0
VERTEX
  5
1D9
  8
1
  6
CONTINUOUS
 62
     7
 10
65.22422844675599
 20
139.7112997430913
 30
0.0
  0
VERTEX
  5
1DA
  8
1
  6
CONTINUOUS
 62
     7
 10
65.25155784284581
 20
139.7278572705992
 30
0.0
  0
VERTEX
  5
1DB
  8
1
  6
CONTINUOUS
 62
     7
 10
65.27837126366124
 20
139.7452861536274
 30
0.0
  0
VERTEX
  5
1DC
  8
1
  6
CONTINUOUS
 62
     7
 10
65.30459874008248
 20
139.763514072118
 30
0.0
  0
VERTEX
  5
1DD
  8
1
  6
CONTINUOUS
 62
     7
 10
65.33017030298967
 20
139.7824687060129
 30
0.0
  0
VERTEX
  5
1DE
  8
1
  6
CONTINUOUS
 62
     7
 10
65.35501598326294
 20
139.8020777352541
 30
0.0
  0
VERTEX
  5
1DF
  8
1
  6
CONTINUOUS
 62
     7
 10
65.3790658117825
 20
139.8222688397835
 30
0.0
  0
VERTEX
  5
1E0
  8
1
  6
CONTINUOUS
 62
     7
 10
65.40224981942848
 20
139.8429696995431
 30
0.0
  0
VERTEX
  5
1E1
  8
1
  6
CONTINUOUS
 62
     7
 10
65.42449803708102
 20
139.8641079944749
 30
0.0
  0
VERTEX
  5
1E2
  8
1
  6
CONTINUOUS
 62
     7
 10
65.45336994730421
 20
139.8936055909645
 30
0.0
  0
VERTEX
  5
1E3
  8
1
  6
CONTINUOUS
 62
     7
 10
65.48073801877074
 20
139.9239454089029
 30
0.0
  0
VERTEX
  5
1E4
  8
1
  6
CONTINUOUS
 62
     7
 10
65.50658999489863
 20
139.9550251531388
 30
0.0
  0
VERTEX
  5
1E5
  8
1
  6
CONTINUOUS
 62
     7
 10
65.53091361910603
 20
139.9867425285209
 30
0.0
  0
VERTEX
  5
1E6
  8
1
  6
CONTINUOUS
 62
     7
 10
65.55369663481099
 20
140.0189952398979
 30
0.0
  0
VERTEX
  5
1E7
  8
1
  6
CONTINUOUS
 62
     7
 10
65.57492678543164
 20
140.0516809921185
 30
0.0
  0
VERTEX
  5
1E8
  8
1
  6
CONTINUOUS
 62
     7
 10
65.59459181438605
 20
140.0846974900313
 30
0.0
  0
VERTEX
  5
1E9
  8
1
  6
CONTINUOUS
 62
     7
 10
65.6195425535696
 20
140.1313472467119
 30
0.0
  0
VERTEX
  5
1EA
  8
1
  6
CONTINUOUS
 62
     7
 10
65.64174676436676
 20
140.1787311540416
 30
0.0
  0
VERTEX
  5
1EB
  8
1
  6
CONTINUOUS
 62
     7
 10
65.6612341936587
 20
140.2267170905488
 30
0.0
  0
VERTEX
  5
1EC
  8
1
  6
CONTINUOUS
 62
     7
 10
65.67803458832657
 20
140.2751729347618
 30
0.0
  0
VERTEX
  5
1ED
  8
1
  6
CONTINUOUS
 62
     7
 10
65.69217769525152
 20
140.323966565209
 30
0.0
  0
VERTEX
  5
1EE
  8
1
  6
CONTINUOUS
 62
     7
 10
65.70369326131474
 20
140.3729658604186
 30
0.0
  0
VERTEX
  5
1EF
  8
1
  6
CONTINUOUS
 62
     7
 10
65.71261103339737
 20
140.4220386989191
 30
0.0
  0
VERTEX
  5
1F0
  8
1
  6
CONTINUOUS
 62
     7
 10
65.71867734475849
 20
140.4682812005147
 30
0.0
  0
VERTEX
  5
1F1
  8
1
  6
CONTINUOUS
 62
     7
 10
65.72252612526935
 20
140.5146336930055
 30
0.0
  0
VERTEX
  5
1F2
  8
1
  6
CONTINUOUS
 62
     7
 10
65.72416372332604
 20
140.5610168351689
 30
0.0
  0
VERTEX
  5
1F3
  8
1
  6
CONTINUOUS
 62
     7
 10
65.72420940828808
 20
140.5661600251189
 30
0.0
  0
SEQEND
  5
3C0
  8
1
  6
CONTINUOUS
 62
     7
  0
LINE
  5
8F
  8
1
  6
CONTINUOUS
 62
     7
 10
65.22422844675599
 20
139.7112997430913
 30
0.0
 11
64.73806837786198
 21
139.5750107816455
 31
0.0
  0
POLYLINE
  5
90
  8
1
  6
CONTINUOUS
 62
     7
 66
     1
 10
0.0
 20
0.0
 30
0.0
  0
VERTEX
  5
1F4
  8
1
  6
CONTINUOUS
 62
     7
 10
64.73806837786198
 20
139.5750107816455
 30
0.0
  0
VERTEX
  5
1F5
  8
1
  6
CONTINUOUS
 62
     7
 10
64.70037902576884
 20
139.5750357840228
 30
0.0
  0
VERTEX
  5
1F6
  8
1
  6
CONTINUOUS
 62
     7
 10
64.66270267594338
 20
139.5764654183058
 30
0.0
  0
VERTEX
  5
1F7
  8
1
  6
CONTINUOUS
 62
     7
 10
64.62514998931772
 20
139.5792897033161
 30
0.0
  0
VERTEX
  5
1F8
  8
1
  6
CONTINUOUS
 62
     7
 10
64.58783162682391
 20
139.5834986578753
 30
0.0
  0
VERTEX
  5
1F9
  8
1
  6
CONTINUOUS
 62
     7
 10
64.54958425332006
 20
139.5892919516865
 30
0.0
  0
VERTEX
  5
1FA
  8
1
  6
CONTINUOUS
 62
     7
 10
64.51165770758845
 20
139.59653456328
 30
0.0
  0
VERTEX
  5
1FB
  8
1
  6
CONTINUOUS
 62
     7
 10
64.47415389795414
 20
139.6051926840694
 30
0.0
  0
VERTEX
  5
1FC
  8
1
  6
CONTINUOUS
 62
     7
 10
64.43717473274208
 20
139.6152325054685
 30
0.0
  0
VERTEX
  5
1FD
  8
1
  6
CONTINUOUS
 62
     7
 10
64.4019197440278
 20
139.6262458779911
 30
0.0
  0
VERTEX
  5
1FE
  8
1
  6
CONTINUOUS
 62
     7
 10
64.36719626176317
 20
139.6385134984623
 30
0.0
  0
VERTEX
  5
1FF
  8
1
  6
CONTINUOUS
 62
     7
 10
64.33307125188215
 20
139.6519964711742
 30
0.0
  0
VERTEX
  5
200
  8
1
  6
CONTINUOUS
 62
     7
 10
64.2996116803187
 20
139.6666559004188
 30
0.0
  0
VERTEX
  5
201
  8
1
  6
CONTINUOUS
 62
     7
 10
64.25499860782726
 20
139.6885530855159
 30
0.0
  0
VERTEX
  5
202
  8
1
  6
CONTINUOUS
 62
     7
 10
64.21168527381505
 20
139.7125591787245
 30
0.0
  0
VERTEX
  5
203
  8
1
  6
CONTINUOUS
 62
     7
 10
64.16978855804071
 20
139.7385821644595
 30
0.0
  0
VERTEX
  5
204
  8
1
  6
CONTINUOUS
 62
     7
 10
64.14364976973346
 20
139.7563356380973
 30
0.0
  0
VERTEX
  5
205
  8
1
  6
CONTINUOUS
 62
     7
 10
64.11809659856743
 20
139.7749086740599
 30
0.0
  0
SEQEND
  5
3C1
  8
1
  6
CONTINUOUS
 62
     7
  0
LINE
  5
91
  8
1
  6
CONTINUOUS
 62
     7
 10
65.83333333333334
 20
142.5112517929745
 30
0.0
 11
65.83333333333333
 21
138.9103731014276
 31
0.0
  0
LINE
  5
92
  8
1
  6
CONTINUOUS
 62
     7
 10
75.83333333333331
 20
142.5112517929745
 30
0.0
 11
75.83333333333333
 21
138.9103731014276
 31
0.0
  0
LINE
  5
93
  8
1
  6
CONTINUOUS
 62
     7
 10
64.89648889916124
 20
156.2065549269617
 30
0.0
 11
64.89648889916124
 21
153.642034191902
 31
0.0
  0
LINE
  5
94
  8
1
  6
CONTINUOUS
 62
     7
 10
76.77017776750542
 20
156.2065549269617
 30
0.0
 11
76.77017776750542
 21
153.642034191902
 31
0.0
  0
LINE
  5
95
  8
1
  6
CONTINUOUS
 62
     7
 10
70.14594697908996
 20
134.4104302168313
 30
0.0
 11
71.5207196875767
 21
134.4104302168313
 31
0.0
  0
LINE
  5
96
  8
1
  6
CONTINUOUS
 62
     7
 10
71.52071968757672
 20
134.4104302168313
 30
0.0
 11
71.97897725707229
 21
134.4104302168313
 31
0.0
  0
LINE
  5
97
  8
1
  6
CONTINUOUS
 62
     7
 10
69.68768940959437
 20
134.4104302168313
 30
0.0
 11
70.14594697908996
 21
134.4104302168313
 31
0.0
  0
LINE
  5
98
  8
1
  6
CONTINUOUS
 62
     7
 10
73.55715272996105
 20
137.4104302168313
 30
0.0
 11
73.03784142636997
 21
137.3964672283661
 31
0.0
  0
LINE
  5
99
  8
1
  6
CONTINUOUS
 62
     7
 10
74.33339044873708
 20
137.4104302168313
 30
0.0
 11
73.55715272996105
 21
137.4104302168313
 31
0.0
  0
LINE
  5
9A
  8
1
  6
CONTINUOUS
 62
     7
 10
68.10951396288596
 20
137.4104332168031
 30
0.0
 11
67.3332762179296
 21
137.4104302168313
 31
0.0
  0
LINE
  5
9B
  8
1
  6
CONTINUOUS
 62
     7
 10
68.62882524029669
 20
137.3964672283661
 30
0.0
 11
68.1095139367076
 21
137.4104302170598
 31
0.0
  0
LINE
  5
9C
  8
1
  6
CONTINUOUS
 62
     7
 10
68.62882524029669
 20
137.3964672283661
 30
0.0
 11
73.03784142636997
 21
137.3964672283661
 31
0.0
  0
LINE
  5
9D
  8
1
  6
CONTINUOUS
 62
     7
 10
79.33087035902957
 20
134.4104302168313
 30
0.0
 11
77.8012227514634
 21
134.4104302168313
 31
0.0
  0
LINE
  5
9E
  8
1
  6
CONTINUOUS
 62
     7
 10
62.33579630763708
 20
134.4104302168313
 30
0.0
 11
63.86544391520327
 21
134.4104302168313
 31
0.0
  0
LINE
  5
9F
  8
1
  6
CONTINUOUS
 62
     7
 10
71.97897725707229
 20
134.4104302168313
 30
0.0
 11
77.8012227514634
 21
134.4104302168313
 31
0.0
  0
LINE
  5
A0
  8
1
  6
CONTINUOUS
 62
     7
 10
63.86544391520327
 20
134.4104302168313
 30
0.0
 11
69.68768940959437
 21
134.4104302168313
 31
0.0
  0
POLYLINE
  5
A1
  8
1
  6
CONTINUOUS
 62
     7
 66
     1
 10
0.0
 20
0.0
 30
0.0
  0
VERTEX
  5
206
  8
1
  6
CONTINUOUS
 62
     7
 10
65.83333333333333
 20
138.9103731014276
 30
0.0
  0
VERTEX
  5
207
  8
1
  6
CONTINUOUS
 62
     7
 10
65.86215372457472
 20
138.6177426756744
 30
0.0
  0
VERTEX
  5
208
  8
1
  6
CONTINUOUS
 62
     7
 10
65.94750745386688
 20
138.3363611757117
 30
0.0
  0
VERTEX
  5
209
  8
1
  6
CONTINUOUS
 62
     7
 10
66.08611474226899
 20
138.0770408897145
 30
0.0
  0
VERTEX
  5
20A
  8
1
  6
CONTINUOUS
 62
     7
 10
66.2726495042156
 20
137.8497463877136
 30
0.0
  0
VERTEX
  5
20B
  8
1
  6
CONTINUOUS
 62
     7
 10
66.49994400621651
 20
137.663211625767
 30
0.0
  0
VERTEX
  5
20C
  8
1
  6
CONTINUOUS
 62
     7
 10
66.75926429221377
 20
137.5246043373649
 30
0.0
  0
VERTEX
  5
20D
  8
1
  6
CONTINUOUS
 62
     7
 10
67.04064579217642
 20
137.4392506080727
 30
0.0
  0
VERTEX
  5
20E
  8
1
  6
CONTINUOUS
 62
     7
 10
67.3332762179296
 20
137.4104302168313
 30
0.0
  0
SEQEND
  5
3C2
  8
1
  6
CONTINUOUS
 62
     7
  0
POLYLINE
  5
A2
  8
1
  6
CONTINUOUS
 62
     7
 66
     1
 10
0.0
 20
0.0
 30
0.0
  0
VERTEX
  5
20F
  8
1
  6
CONTINUOUS
 62
     7
 10
74.33339044873706
 20
137.4104302168313
 30
0.0
  0
VERTEX
  5
210
  8
1
  6
CONTINUOUS
 62
     7
 10
74.62602087449024
 20
137.4392506080727
 30
0.0
  0
VERTEX
  5
211
  8
1
  6
CONTINUOUS
 62
     7
 10
74.90740237445289
 20
137.5246043373649
 30
0.0
  0
VERTEX
  5
212
  8
1
  6
CONTINUOUS
 62
     7
 10
75.16672266045015
 20
137.663211625767
 30
0.0
  0
VERTEX
  5
213
  8
1
  6
CONTINUOUS
 62
     7
 10
75.39401716245106
 20
137.8497463877136
 30
0.0
  0
VERTEX
  5
214
  8
1
  6
CONTINUOUS
 62
     7
 10
75.58055192439767
 20
138.0770408897145
 30
0.0
  0
VERTEX
  5
215
  8
1
  6
CONTINUOUS
 62
     7
 10
75.71915921279978
 20
138.3363611757117
 30
0.0
  0
VERTEX
  5
216
  8
1
  6
CONTINUOUS
 62
     7
 10
75.80451294209193
 20
138.6177426756744
 30
0.0
  0
VERTEX
  5
217
  8
1
  6
CONTINUOUS
 62
     7
 10
75.83333333333333
 20
138.9103731014276
 30
0.0
  0
SEQEND
  5
3C3
  8
1
  6
CONTINUOUS
 62
     7
  0
ARC
  5
A3
  8
1
  6
CONTINUOUS
 62
     7
 10
81.52650264782615
 20
139.2414349550543
 30
0.0
 40
2.999959359056718
 50
138.6255872841041
 51
191.3092365453879
  0
ARC
  5
A4
  8
1
  6
CONTINUOUS
 62
     7
 10
60.14016401884051
 20
139.2414349550543
 30
0.0
 40
2.999959359056718
 50
348.6907634546121
 51
41.37441271589586
  0
LINE
  5
A5
  8
1
  6
CONTINUOUS
 62
     7
 10
62.23333333333332
 20
134.4104302168313
 30
0.0
 11
63.08187334010029
 21
138.6531302506661
 31
0.0
  0
LINE
  5
A6
  8
1
  6
CONTINUOUS
 62
     7
 10
62.33579630763708
 20
134.4104302168313
 30
0.0
 11
62.23333333333332
 21
134.4104302168313
 31
0.0
  0
LINE
  5
A7
  8
1
  6
CONTINUOUS
 62
     7
 10
79.43333333333334
 20
134.4104302168313
 30
0.0
 11
78.58479332656637
 21
138.6531302506661
 31
0.0
  0
LINE
  5
A8
  8
1
  6
CONTINUOUS
 62
     7
 10
79.33087035902957
 20
134.4104302168313
 30
0.0
 11
79.43333333333334
 21
134.4104302168313
 31
0.0
  0
LINE
  5
A9
  8
1
  6
CONTINUOUS
 62
     7
 10
64.08333333333333
 20
144.8525436638989
 30
0.0
 11
64.08333333333333
 21
152.4683167697632
 31
0.0
  0
LINE
  5
AA
  8
1
  6
CONTINUOUS
 62
     7
 10
77.58333333333334
 20
152.4683167697632
 30
0.0
 11
77.58333333333334
 21
144.8525436638989
 31
0.0
  0
ENDBLK
  8
0
  0
BLOCK
  8
0
  2
D_FRAME_VIEW_1587
 70
     0
 10
0.0
 20
0.0
 30
0.0
  0
POLYLINE
  5
B7
  8
1
  6
CONTINUOUS
 62
     7
 66
     1
 10
0.0
 20
0.0
 30
0.0
  0
VERTEX
  5
218
  8
1
  6
CONTINUOUS
 62
     7
 10
129.1596851556664
 20
143.3503837773579
 30
0.0
  0
VERTEX
  5
219
  8
1
  6
CONTINUOUS
 62
     7
 10
134.0463278417197
 20
144.7314007430916
 30
0.0
  0
VERTEX
  5
21A
  8
1
  6
CONTINUOUS
 62
     7
 10
137.4006012667459
 20
146.2476031648345
 30
0.0
  0
VERTEX
  5
21B
  8
1
  6
CONTINUOUS
 62
     7
 10
139.1070955093961
 20
147.846823320976
 30
0.0
  0
VERTEX
  5
21C
  8
1
  6
CONTINUOUS
 62
     7
 10
139.1070955093961
 20
149.4740371126867
 30
0.0
  0
VERTEX
  5
21D
  8
1
  6
CONTINUOUS
 62
     7
 10
137.4006012667459
 20
151.0732572688281
 30
0.0
  0
VERTEX
  5
21E
  8
1
  6
CONTINUOUS
 62
     7
 10
134.0463278417197
 20
152.589459690571
 30
0.0
  0
VERTEX
  5
21F
  8
1
  6
CONTINUOUS
 62
     7
 10
129.1596851556665
 20
153.9704766563047
 30
0.0
  0
SEQEND
  5
3C4
  8
1
  6
CONTINUOUS
 62
     7
  0
ARC
  5
B8
  8
1
  6
CONTINUOUS
 62
     7
 10
124.8940505340064
 20
133.3487585591655
 30
0.0
 40
22.27650014190466
 50
53.20253153705693
 51
78.52798745685976
  0
ARC
  5
B9
  8
1
  6
CONTINUOUS
 62
     7
 10
136.6533823713954
 20
148.6438334373881
 30
0.0
 40
2.996003075341352
 50
299.2008080252813
 51
58.08138192757479
  0
ARC
  5
BA
  8
1
  6
CONTINUOUS
 62
     7
 10
129.2515313491893
 20
157.0221046509862
 30
0.0
 40
14.1216000058545
 50
290.1621559914117
 51
308.8774493766448
  0
POLYLINE
  5
BB
  8
1
  6
CONTINUOUS
 62
     7
 66
     1
 10
0.0
 20
0.0
 30
0.0
  0
VERTEX
  5
220
  8
1
  6
CONTINUOUS
 62
     7
 10
134.1189396796154
 20
143.7658637482925
 30
0.0
  0
VERTEX
  5
221
  8
1
  6
CONTINUOUS
 62
     7
 10
132.4344632329354
 20
143.1183781394951
 30
0.0
  0
VERTEX
  5
222
  8
1
  6
CONTINUOUS
 62
     7
 10
130.7219248825794
 20
142.5519676310302
 30
0.0
  0
VERTEX
  5
223
  8
1
  6
CONTINUOUS
 62
     7
 10
129.3246067978349
 20
142.1406422401681
 30
0.0
  0
SEQEND
  5
3C5
  8
1
  6
CONTINUOUS
 62
     7
  0
LINE
  5
BC
  8
1
  6
CONTINUOUS
 62
     7
 10
131.8202435300858
 20
141.2614174854827
 30
0.0
 11
143.3333333333333
 21
141.2243385314013
 31
0.0
  0
ARC
  5
BD
  8
1
  6
CONTINUOUS
 62
     7
 10
135.1538328233112
 20
136.8374770138872
 30
0.0
 40
5.539320073089282
 50
126.9992650774335
 51
147.9751244019351
  0
POLYLINE
  5
BE
  8
1
  6
CONTINUOUS
 62
     7
 66
     1
 10
0.0
 20
0.0
 30
0.0
  0
VERTEX
  5
224
  8
1
  6
CONTINUOUS
 62
     7
 10
157.5069815110003
 20
153.9704766563047
 30
0.0
  0
VERTEX
  5
225
  8
1
  6
CONTINUOUS
 62
     7
 10
152.620338824947
 20
152.589459690571
 30
0.0
  0
VERTEX
  5
226
  8
1
  6
CONTINUOUS
 62
     7
 10
149.2660653999208
 20
151.0732572688282
 30
0.0
  0
VERTEX
  5
227
  8
1
  6
CONTINUOUS
 62
     7
 10
147.5595711572706
 20
149.4740371126867
 30
0.0
  0
VERTEX
  5
228
  8
1
  6
CONTINUOUS
 62
     7
 10
147.5595711572706
 20
147.846823320976
 30
0.0
  0
VERTEX
  5
229
  8
1
  6
CONTINUOUS
 62
     7
 10
149.2660653999208
 20
146.2476031648345
 30
0.0
  0
VERTEX
  5
22A
  8
1
  6
CONTINUOUS
 62
     7
 10
152.6203388249469
 20
144.7314007430916
 30
0.0
  0
VERTEX
  5
22B
  8
1
  6
CONTINUOUS
 62
     7
 10
157.5069815110002
 20
143.3503837773579
 30
0.0
  0
SEQEND
  5
3C6
  8
1
  6
CONTINUOUS
 62
     7
  0
ARC
  5
BF
  8
1
  6
CONTINUOUS
 62
     7
 10
161.7726161326602
 20
133.3487585591655
 30
0.0
 40
22.27650014190466
 50
101.4720125431402
 51
126.7974684629431
  0
ARC
  5
C0
  8
1
  6
CONTINUOUS
 62
     7
 10
150.0132842952712
 20
148.6438334373881
 30
0.0
 40
2.996003075341352
 50
121.9186180724252
 51
240.7991919747188
  0
ARC
  5
C1
  8
1
  6
CONTINUOUS
 62
     7
 10
157.4151353174774
 20
157.0221046509862
 30
0.0
 40
14.1216000058545
 50
231.1225506233552
 51
249.8378440085882
  0
POLYLINE
  5
C2
  8
1
  6
CONTINUOUS
 62
     7
 66
     1
 10
0.0
 20
0.0
 30
0.0
  0
VERTEX
  5
22C
  8
1
  6
CONTINUOUS
 62
     7
 10
152.5477269870513
 20
143.7658637482925
 30
0.0
  0
VERTEX
  5
22D
  8
1
  6
CONTINUOUS
 62
     7
 10
154.2322034337313
 20
143.1183781394951
 30
0.0
  0
VERTEX
  5
22E
  8
1
  6
CONTINUOUS
 62
     7
 10
155.9447417840873
 20
142.5519676310302
 30
0.0
  0
VERTEX
  5
22F
  8
1
  6
CONTINUOUS
 62
     7
 10
157.3420598688318
 20
142.1406422401681
 30
0.0
  0
SEQEND
  5
3C7
  8
1
  6
CONTINUOUS
 62
     7
  0
ARC
  5
C3
  8
1
  6
CONTINUOUS
 62
     7
 10
151.5128338433555
 20
136.8374770138872
 30
0.0
 40
5.539320073089282
 50
32.02487559806491
 51
53.00073492256649
  0
LINE
  5
C4
  8
1
  6
CONTINUOUS
 62
     7
 10
154.8464231365809
 20
141.2614174854827
 30
0.0
 11
143.3333333333333
 21
141.2243385314013
 31
0.0
  0
LINE
  5
C5
  8
1
  6
CONTINUOUS
 62
     7
 10
129.1596851556664
 20
153.9704766563047
 30
0.0
 11
128.3333333333333
 21
153.9704766563047
 31
0.0
  0
LINE
  5
C6
  8
1
  6
CONTINUOUS
 62
     7
 10
128.3333333333333
 20
153.9704766563047
 30
0.0
 11
128.3333333333333
 21
154.5943368542107
 31
0.0
  0
POLYLINE
  5
C7
  8
1
  6
CONTINUOUS
 62
     7
 66
     1
 10
0.0
 20
0.0
 30
0.0
  0
VERTEX
  5
230
  8
1
  6
CONTINUOUS
 62
     7
 10
129.324606797837
 20
155.1802181934939
 30
0.0
  0
VERTEX
  5
231
  8
1
  6
CONTINUOUS
 62
     7
 10
129.1307596760798
 20
155.168092979343
 30
0.0
  0
VERTEX
  5
232
  8
1
  6
CONTINUOUS
 62
     7
 10
128.9446113631824
 20
155.1341621721086
 30
0.0
  0
VERTEX
  5
233
  8
1
  6
CONTINUOUS
 62
     7
 10
128.7732364230341
 20
155.0797153116199
 30
0.0
  0
VERTEX
  5
234
  8
1
  6
CONTINUOUS
 62
     7
 10
128.6231479577108
 20
155.0068216500076
 30
0.0
  0
VERTEX
  5
235
  8
1
  6
CONTINUOUS
 62
     7
 10
128.500050077126
 20
154.9182515098075
 30
0.0
  0
VERTEX
  5
236
  8
1
  6
CONTINUOUS
 62
     7
 10
128.408621114418
 20
154.8173709978931
 30
0.0
  0
VERTEX
  5
237
  8
1
  6
CONTINUOUS
 62
     7
 10
128.3523358259676
 20
154.7080140766337
 30
0.0
  0
VERTEX
  5
238
  8
1
  6
CONTINUOUS
 62
     7
 10
128.3333333333333
 20
154.5943368542108
 30
0.0
  0
SEQEND
  5
3C8
  8
1
  6
CONTINUOUS
 62
     7
  0
LINE
  5
C8
  8
1
  6
CONTINUOUS
 62
     7
 10
158.3333333333333
 20
153.9704766563047
 30
0.0
 11
158.3333333333333
 21
154.5943368542107
 31
0.0
  0
LINE
  5
C9
  8
1
  6
CONTINUOUS
 62
     7
 10
157.5069815110003
 20
153.9704766563047
 30
0.0
 11
158.3333333333333
 21
153.9704766563047
 31
0.0
  0
POLYLINE
  5
CA
  8
1
  6
CONTINUOUS
 62
     7
 66
     1
 10
0.0
 20
0.0
 30
0.0
  0
VERTEX
  5
239
  8
1
  6
CONTINUOUS
 62
     7
 10
158.3333333333334
 20
154.5943368542108
 30
0.0
  0
VERTEX
  5
23A
  8
1
  6
CONTINUOUS
 62
     7
 10
158.314330840699
 20
154.7080140766337
 30
0.0
  0
VERTEX
  5
23B
  8
1
  6
CONTINUOUS
 62
     7
 10
158.2580455522487
 20
154.8173709978931
 30
0.0
  0
VERTEX
  5
23C
  8
1
  6
CONTINUOUS
 62
     7
 10
158.1666165895407
 20
154.9182515098075
 30
0.0
  0
VERTEX
  5
23D
  8
1
  6
CONTINUOUS
 62
     7
 10
158.0435187089559
 20
155.0068216500076
 30
0.0
  0
VERTEX
  5
23E
  8
1
  6
CONTINUOUS
 62
     7
 10
157.8934302436326
 20
155.0797153116199
 30
0.0
  0
VERTEX
  5
23F
  8
1
  6
CONTINUOUS
 62
     7
 10
157.7220553034843
 20
155.1341621721086
 30
0.0
  0
VERTEX
  5
240
  8
1
  6
CONTINUOUS
 62
     7
 10
157.5359069905869
 20
155.168092979343
 30
0.0
  0
VERTEX
  5
241
  8
1
  6
CONTINUOUS
 62
     7
 10
157.3420598688296
 20
155.1802181934939
 30
0.0
  0
SEQEND
  5
3C9
  8
1
  6
CONTINUOUS
 62
     7
  0
POLYLINE
  5
CB
  8
1
  6
CONTINUOUS
 62
     7
 66
     1
 10
0.0
 20
0.0
 30
0.0
  0
VERTEX
  5
242
  8
1
  6
CONTINUOUS
 62
     7
 10
128.3333333333333
 20
142.7265235794519
 30
0.0
  0
VERTEX
  5
243
  8
1
  6
CONTINUOUS
 62
     7
 10
128.3523358259676
 20
142.612846357029
 30
0.0
  0
VERTEX
  5
244
  8
1
  6
CONTINUOUS
 62
     7
 10
128.4086211144178
 20
142.5034894357696
 30
0.0
  0
VERTEX
  5
245
  8
1
  6
CONTINUOUS
 62
     7
 10
128.5000500771255
 20
142.4026089238552
 30
0.0
  0
VERTEX
  5
246
  8
1
  6
CONTINUOUS
 62
     7
 10
128.62314795771
 20
142.3140387836551
 30
0.0
  0
VERTEX
  5
247
  8
1
  6
CONTINUOUS
 62
     7
 10
128.773236423033
 20
142.2411451220427
 30
0.0
  0
VERTEX
  5
248
  8
1
  6
CONTINUOUS
 62
     7
 10
128.9446113631809
 20
142.1866982615538
 30
0.0
  0
VERTEX
  5
249
  8
1
  6
CONTINUOUS
 62
     7
 10
129.130759676078
 20
142.1527674543192
 30
0.0
  0
VERTEX
  5
24A
  8
1
  6
CONTINUOUS
 62
     7
 10
129.3246067978349
 20
142.1406422401681
 30
0.0
  0
SEQEND
  5
3CA
  8
1
  6
CONTINUOUS
 62
     7
  0
LINE
  5
CC
  8
1
  6
CONTINUOUS
 62
     7
 10
128.3333333333333
 20
142.7265235794519
 30
0.0
 11
128.3333333333333
 21
143.3503837773579
 31
0.0
  0
LINE
  5
CD
  8
1
  6
CONTINUOUS
 62
     7
 10
129.1596851556664
 20
143.3503837773579
 30
0.0
 11
128.3333333333333
 21
143.3503837773579
 31
0.0
  0
LINE
  5
CE
  8
1
  6
CONTINUOUS
 62
     7
 10
158.3333333333333
 20
142.7265235794519
 30
0.0
 11
158.3333333333333
 21
143.3503837773579
 31
0.0
  0
POLYLINE
  5
CF
  8
1
  6
CONTINUOUS
 62
     7
 66
     1
 10
0.0
 20
0.0
 30
0.0
  0
VERTEX
  5
24B
  8
1
  6
CONTINUOUS
 62
     7
 10
157.3420598688318
 20
142.1406422401681
 30
0.0
  0
VERTEX
  5
24C
  8
1
  6
CONTINUOUS
 62
     7
 10
157.5359069905887
 20
142.1527674543192
 30
0.0
  0
VERTEX
  5
24D
  8
1
  6
CONTINUOUS
 62
     7
 10
157.7220553034858
 20
142.1866982615538
 30
0.0
  0
VERTEX
  5
24E
  8
1
  6
CONTINUOUS
 62
     7
 10
157.8934302436337
 20
142.2411451220427
 30
0.0
  0
VERTEX
  5
24F
  8
1
  6
CONTINUOUS
 62
     7
 10
158.0435187089566
 20
142.3140387836551
 30
0.0
  0
VERTEX
  5
250
  8
1
  6
CONTINUOUS
 62
     7
 10
158.1666165895411
 20
142.4026089238552
 30
0.0
  0
VERTEX
  5
251
  8
1
  6
CONTINUOUS
 62
     7
 10
158.2580455522489
 20
142.5034894357696
 30
0.0
  0
VERTEX
  5
252
  8
1
  6
CONTINUOUS
 62
     7
 10
158.3143308406991
 20
142.612846357029
 30
0.0
  0
VERTEX
  5
253
  8
1
  6
CONTINUOUS
 62
     7
 10
158.3333333333333
 20
142.7265235794519
 30
0.0
  0
SEQEND
  5
3CB
  8
1
  6
CONTINUOUS
 62
     7
  0
LINE
  5
D0
  8
1
  6
CONTINUOUS
 62
     7
 10
157.5069815110003
 20
143.3503837773579
 30
0.0
 11
158.3333333333333
 21
143.3503837773579
 31
0.0
  0
LINE
  5
D1
  8
1
  6
CONTINUOUS
 62
     7
 10
128.3333333333333
 20
143.3503837773579
 30
0.0
 11
128.3333333333333
 21
153.9704766563047
 31
0.0
  0
LINE
  5
D2
  8
1
  6
CONTINUOUS
 62
     7
 10
158.3333333333333
 20
143.3503837773579
 30
0.0
 11
158.3333333333333
 21
153.9704766563047
 31
0.0
  0
LINE
  5
D3
  8
1
  6
CONTINUOUS
 62
     7
 10
128.3333333333333
 20
154.5943368542108
 30
0.0
 11
128.3333333333333
 21
155.9227807637432
 31
0.0
  0
LINE
  5
D4
  8
1
  6
CONTINUOUS
 62
     7
 10
158.3333333333333
 20
154.5943368542108
 30
0.0
 11
158.3333333333333
 21
155.9227807637432
 31
0.0
  0
LINE
  5
D5
  8
1
  6
CONTINUOUS
 62
     7
 10
128.3333333333333
 20
140.5925595183342
 30
0.0
 11
128.3333333333333
 21
142.7265235794519
 31
0.0
  0
LINE
  5
D6
  8
1
  6
CONTINUOUS
 62
     7
 10
158.3333333333333
 20
140.5925595183342
 30
0.0
 11
158.3333333333333
 21
142.7265235794519
 31
0.0
  0
LINE
  5
D7
  8
1
  6
CONTINUOUS
 62
     7
 10
131.8202435300858
 20
134.4104302168313
 30
0.0
 11
143.3333333333333
 21
134.4104302168313
 31
0.0
  0
LINE
  5
D8
  8
1
  6
CONTINUOUS
 62
     7
 10
154.8464231365809
 20
134.4104302168313
 30
0.0
 11
143.3333333333333
 21
134.4104302168313
 31
0.0
  0
LINE
  5
D9
  8
1
  6
CONTINUOUS
 62
     7
 10
156.3333333333333
 20
138.3881540364228
 30
0.0
 11
156.3333333333333
 21
139.5750107816455
 31
0.0
  0
LINE
  5
DA
  8
1
  6
CONTINUOUS
 62
     7
 10
130.3333333333333
 20
138.3881540364228
 30
0.0
 11
130.3333333333333
 21
139.5750107816455
 31
0.0
  0
LINE
  5
DB
  8
1
  6
CONTINUOUS
 62
     7
 10
156.3333333333333
 20
134.4104302168313
 30
0.0
 11
156.3333333333333
 21
138.3881540364228
 31
0.0
  0
LINE
  5
DC
  8
1
  6
CONTINUOUS
 62
     7
 10
154.8464231365809
 20
134.4104302168313
 30
0.0
 11
156.3333333333333
 21
134.4104302168313
 31
0.0
  0
LINE
  5
DD
  8
1
  6
CONTINUOUS
 62
     7
 10
130.3333333333333
 20
134.4104302168313
 30
0.0
 11
130.3333333333333
 21
138.3881540364228
 31
0.0
  0
LINE
  5
DE
  8
1
  6
CONTINUOUS
 62
     7
 10
131.8202435300858
 20
134.4104302168313
 30
0.0
 11
130.3333333333333
 21
134.4104302168313
 31
0.0
  0
LINE
  5
DF
  8
1
  6
CONTINUOUS
 62
     7
 10
130.3334356974027
 20
139.5748458417007
 30
0.0
 11
130.4574978571972
 21
139.7749086740599
 31
0.0
  0
LINE
  5
E0
  8
1
  6
CONTINUOUS
 62
     7
 10
156.3332309692639
 20
139.5748458417007
 30
0.0
 11
156.2091688094695
 21
139.7749086740599
 31
0.0
  0
LINE
  5
E1
  8
1
  6
CONTINUOUS
 62
     7
 10
130.0333333333333
 20
134.4104302168313
 30
0.0
 11
130.3333333333333
 21
134.4104302168313
 31
0.0
  0
LINE
  5
E2
  8
1
  6
CONTINUOUS
 62
     7
 10
130.2289700655842
 20
137.2960701711116
 30
0.0
 11
130.3333333333333
 21
137.2969809355514
 31
0.0
  0
LINE
  5
E3
  8
1
  6
CONTINUOUS
 62
     7
 10
156.4376966010825
 20
137.2960701711116
 30
0.0
 11
156.3333333333333
 21
137.2969809355514
 31
0.0
  0
LINE
  5
E4
  8
1
  6
CONTINUOUS
 62
     7
 10
156.6333333333334
 20
134.4104302168313
 30
0.0
 11
156.3333333333333
 21
134.4104302168313
 31
0.0
  0
LINE
  5
E5
  8
1
  6
CONTINUOUS
 62
     7
 10
130.0789700655842
 20
137.294761140943
 30
0.0
 11
130.2289700655842
 21
137.2960701711116
 31
0.0
  0
LINE
  5
E6
  8
1
  6
CONTINUOUS
 62
     7
 10
129.5833333333333
 20
134.4104302168313
 30
0.0
 11
130.0333333333333
 21
134.4104302168313
 31
0.0
  0
LINE
  5
E7
  8
1
  6
CONTINUOUS
 62
     7
 10
156.5876966010825
 20
137.294761140943
 30
0.0
 11
156.4376966010825
 21
137.2960701711116
 31
0.0
  0
LINE
  5
E8
  8
1
  6
CONTINUOUS
 62
     7
 10
157.0833333333333
 20
134.4104302168313
 30
0.0
 11
156.6333333333334
 21
134.4104302168313
 31
0.0
  0
ARC
  5
E9
  8
1
  6
CONTINUOUS
 62
     7
 10
129.3333333333617
 20
155.9227807637434
 30
0.0
 40
1.000000000000007
 50
91.18314570379748
 51
180.0000000000337
  0
LINE
  5
EA
  8
1
  6
CONTINUOUS
 62
     7
 10
143.3333298087181
 20
157.2065787319134
 30
0.0
 11
129.3126915207098
 21
156.9225674209655
 31
0.0
  0
LINE
  5
EB
  8
1
  6
CONTINUOUS
 62
     7
 10
157.3539751459569
 20
156.9225674209655
 30
0.0
 11
143.3333368579486
 21
157.2065787319134
 31
0.0
  0
ARC
  5
EC
  8
1
  6
CONTINUOUS
 62
     7
 10
157.3333333333049
 20
155.9227807637434
 30
0.0
 40
1.000000000000001
 50
0.0
 51
88.81685429620254
  0
LINE
  5
ED
  8
1
  6
CONTINUOUS
 62
     7
 10
129.3157633090473
 20
139.5927140212826
 30
0.0
 11
130.3335488391911
 21
139.5748438578729
 31
0.0
  0
ARC
  5
EE
  8
1
  6
CONTINUOUS
 62
     7
 10
129.3333333333333
 20
140.5925595183342
 30
0.0
 40
1.000000000000001
 50
180.0
 51
268.9929970469425
  0
ARC
  5
EF
  8
1
  6
CONTINUOUS
 62
     7
 10
157.3333333333333
 20
140.5925595183342
 30
0.0
 40
0.9999999999999939
 50
271.0070029530573
 51
0.0000000000001137
  0
LINE
  5
F0
  8
1
  6
CONTINUOUS
 62
     7
 10
156.3331178274756
 20
139.5748438578729
 30
0.0
 11
157.3509033576194
 21
139.5927140212826
 31
0.0
  0
LINE
  5
F1
  8
1
  6
CONTINUOUS
 62
     7
 10
132.4597537878788
 20
134.4104302168313
 30
0.0
 11
132.4597537878788
 21
134.3729302168313
 31
0.0
  0
POLYLINE
  5
F2
  8
1
  6
CONTINUOUS
 62
     7
 66
     1
 10
0.0
 20
0.0
 30
0.0
  0
VERTEX
  5
254
  8
1
  6
CONTINUOUS
 62
     7
 10
130.0800368767831
 20
137.2947704508633
 30
0.0
  0
VERTEX
  5
255
  8
1
  6
CONTINUOUS
 62
     7
 10
130.0582085725304
 20
137.2941017425389
 30
0.0
  0
VERTEX
  5
256
  8
1
  6
CONTINUOUS
 62
     7
 10
130.0364219728844
 20
137.2924778865846
 30
0.0
  0
VERTEX
  5
257
  8
1
  6
CONTINUOUS
 62
     7
 10
130.0147191051615
 20
137.2899019991763
 30
0.0
  0
VERTEX
  5
258
  8
1
  6
CONTINUOUS
 62
     7
 10
129.9931418553822
 20
137.286379017205
 30
0.0
  0
VERTEX
  5
259
  8
1
  6
CONTINUOUS
 62
     7
 10
129.971731886157
 20
137.2819156887902
 30
0.0
  0
VERTEX
  5
25A
  8
1
  6
CONTINUOUS
 62
     7
 10
129.9509070825814
 20
137.2766250157595
 30
0.0
  0
VERTEX
  5
25B
  8
1
  6
CONTINUOUS
 62
     7
 10
129.9303223525798
 20
137.2704452889626
 30
0.0
  0
VERTEX
  5
25C
  8
1
  6
CONTINUOUS
 62
     7
 10
129.9100160825223
 20
137.263387918254
 30
0.0
  0
VERTEX
  5
25D
  8
1
  6
CONTINUOUS
 62
     7
 10
129.8900261532029
 20
137.2554659323588
 30
0.0
  0
VERTEX
  5
25E
  8
1
  6
CONTINUOUS
 62
     7
 10
129.8700363474245
 20
137.2465266950691
 30
0.0
  0
VERTEX
  5
25F
  8
1
  6
CONTINUOUS
 62
     7
 10
129.8504518450087
 20
137.2367233867351
 30
0.0
  0
VERTEX
  5
260
  8
1
  6
CONTINUOUS
 62
     7
 10
129.8313105580339
 20
137.2260747649911
 30
0.0
  0
VERTEX
  5
261
  8
1
  6
CONTINUOUS
 62
     7
 10
129.8126495516276
 20
137.214601203796
 30
0.0
  0
VERTEX
  5
262
  8
1
  6
CONTINUOUS
 62
     7
 10
129.794504971102
 20
137.202324654451
 30
0.0
  0
VERTEX
  5
263
  8
1
  6
CONTINUOUS
 62
     7
 10
129.7772210955575
 20
137.1895084403637
 30
0.0
  0
VERTEX
  5
264
  8
1
  6
CONTINUOUS
 62
     7
 10
129.7605015897896
 20
137.1759639618586
 30
0.0
  0
VERTEX
  5
265
  8
1
  6
CONTINUOUS
 62
     7
 10
129.7443777160258
 20
137.1617162126434
 30
0.0
  0
VERTEX
  5
266
  8
1
  6
CONTINUOUS
 62
     7
 10
129.7288796295214
 20
137.1467914834694
 30
0.0
  0
VERTEX
  5
267
  8
1
  6
CONTINUOUS
 62
     7
 10
129.7120645128455
 20
137.1290448166432
 30
0.0
  0
VERTEX
  5
268
  8
1
  6
CONTINUOUS
 62
     7
 10
129.6961355127426
 20
137.110501833403
 30
0.0
  0
VERTEX
  5
269
  8
1
  6
CONTINUOUS
 62
     7
 10
129.6811311216186
 20
137.0912067133542
 30
0.0
  0
VERTEX
  5
26A
  8
1
  6
CONTINUOUS
 62
     7
 10
129.6670876048998
 20
137.0712054272264
 30
0.0
  0
VERTEX
  5
26B
  8
1
  6
CONTINUOUS
 62
     7
 10
129.6540389120687
 20
137.050545627384
 30
0.0
  0
VERTEX
  5
26C
  8
1
  6
CONTINUOUS
 62
     7
 10
129.6420165933637
 20
137.0292765343368
 30
0.0
  0
VERTEX
  5
26D
  8
1
  6
CONTINUOUS
 62
     7
 10
129.6310497223525
 20
137.0074488195201
 30
0.0
  0
VERTEX
  5
26E
  8
1
  6
CONTINUOUS
 62
     7
 10
129.6211648245698
 20
136.9851144846216
 30
0.0
  0
VERTEX
  5
26F
  8
1
  6
CONTINUOUS
 62
     7
 10
129.6123858123968
 20
136.9623267377459
 30
0.0
  0
VERTEX
  5
270
  8
1
  6
CONTINUOUS
 62
     7
 10
129.6047339263443
 20
136.9391398667061
 30
0.0
  0
VERTEX
  5
271
  8
1
  6
CONTINUOUS
 62
     7
 10
129.598227682886
 20
136.9156091097495
 30
0.0
  0
VERTEX
  5
272
  8
1
  6
CONTINUOUS
 62
     7
 10
129.5928828289703
 20
136.8917905240201
 30
0.0
  0
VERTEX
  5
273
  8
1
  6
CONTINUOUS
 62
     7
 10
129.5887123033247
 20
136.8677408520745
 30
0.0
  0
VERTEX
  5
274
  8
1
  6
CONTINUOUS
 62
     7
 10
129.5857262046492
 20
136.8435173867665
 30
0.0
  0
VERTEX
  5
275
  8
1
  6
CONTINUOUS
 62
     7
 10
129.5839317667766
 20
136.8191778348224
 30
0.0
  0
VERTEX
  5
276
  8
1
  6
CONTINUOUS
 62
     7
 10
129.5833333408631
 20
136.7947801794328
 30
0.0
  0
SEQEND
  5
3CC
  8
1
  6
CONTINUOUS
 62
     7
  0
LINE
  5
F3
  8
1
  6
CONTINUOUS
 62
     7
 10
129.5833333333333
 20
136.7947801794109
 30
0.0
 11
129.5833333333333
 21
134.4104302168313
 31
0.0
  0
POLYLINE
  5
F4
  8
1
  6
CONTINUOUS
 62
     7
 66
     1
 10
0.0
 20
0.0
 30
0.0
  0
VERTEX
  5
277
  8
1
  6
CONTINUOUS
 62
     7
 10
157.0833333258036
 20
136.7947801794328
 30
0.0
  0
VERTEX
  5
278
  8
1
  6
CONTINUOUS
 62
     7
 10
157.0827348998901
 20
136.8191778348224
 30
0.0
  0
VERTEX
  5
279
  8
1
  6
CONTINUOUS
 62
     7
 10
157.0809404620175
 20
136.8435173867665
 30
0.0
  0
VERTEX
  5
27A
  8
1
  6
CONTINUOUS
 62
     7
 10
157.0779543633419
 20
136.8677408520745
 30
0.0
  0
VERTEX
  5
27B
  8
1
  6
CONTINUOUS
 62
     7
 10
157.0737838376964
 20
136.8917905240201
 30
0.0
  0
VERTEX
  5
27C
  8
1
  6
CONTINUOUS
 62
     7
 10
157.0684389837807
 20
136.9156091097495
 30
0.0
  0
VERTEX
  5
27D
  8
1
  6
CONTINUOUS
 62
     7
 10
157.0619327403223
 20
136.9391398667061
 30
0.0
  0
VERTEX
  5
27E
  8
1
  6
CONTINUOUS
 62
     7
 10
157.0542808542699
 20
136.9623267377459
 30
0.0
  0
VERTEX
  5
27F
  8
1
  6
CONTINUOUS
 62
     7
 10
157.0455018420968
 20
136.9851144846216
 30
0.0
  0
VERTEX
  5
280
  8
1
  6
CONTINUOUS
 62
     7
 10
157.0356169443141
 20
137.0074488195201
 30
0.0
  0
VERTEX
  5
281
  8
1
  6
CONTINUOUS
 62
     7
 10
157.024650073303
 20
137.0292765343368
 30
0.0
  0
VERTEX
  5
282
  8
1
  6
CONTINUOUS
 62
     7
 10
157.012627754598
 20
137.050545627384
 30
0.0
  0
VERTEX
  5
283
  8
1
  6
CONTINUOUS
 62
     7
 10
156.9995790617669
 20
137.0712054272264
 30
0.0
  0
VERTEX
  5
284
  8
1
  6
CONTINUOUS
 62
     7
 10
156.9855355450481
 20
137.0912067133542
 30
0.0
  0
VERTEX
  5
285
  8
1
  6
CONTINUOUS
 62
     7
 10
156.970531153924
 20
137.110501833403
 30
0.0
  0
VERTEX
  5
286
  8
1
  6
CONTINUOUS
 62
     7
 10
156.9546021538212
 20
137.1290448166432
 30
0.0
  0
VERTEX
  5
287
  8
1
  6
CONTINUOUS
 62
     7
 10
156.9377870371453
 20
137.1467914834694
 30
0.0
  0
VERTEX
  5
288
  8
1
  6
CONTINUOUS
 62
     7
 10
156.9220012852029
 20
137.1619813866415
 30
0.0
  0
VERTEX
  5
289
  8
1
  6
CONTINUOUS
 62
     7
 10
156.9055673447167
 20
137.1764689653054
 30
0.0
  0
VERTEX
  5
28A
  8
1
  6
CONTINUOUS
 62
     7
 10
156.8885170782629
 20
137.1902265053426
 30
0.0
  0
VERTEX
  5
28B
  8
1
  6
CONTINUOUS
 62
     7
 10
156.8708835358248
 20
137.2032276884449
 30
0.0
  0
VERTEX
  5
28C
  8
1
  6
CONTINUOUS
 62
     7
 10
156.8527008897651
 20
137.2154476424525
 30
0.0
  0
VERTEX
  5
28D
  8
1
  6
CONTINUOUS
 62
     7
 10
156.8343425318926
 20
137.2266663280104
 30
0.0
  0
VERTEX
  5
28E
  8
1
  6
CONTINUOUS
 62
     7
 10
156.8155227840472
 20
137.2370881769425
 30
0.0
  0
VERTEX
  5
28F
  8
1
  6
CONTINUOUS
 62
     7
 10
156.7962767985819
 20
137.2466939548091
 30
0.0
  0
VERTEX
  5
290
  8
1
  6
CONTINUOUS
 62
     7
 10
156.7766405134638
 20
137.2554659323588
 30
0.0
  0
VERTEX
  5
291
  8
1
  6
CONTINUOUS
 62
     7
 10
156.7562840888424
 20
137.2635239931886
 30
0.0
  0
VERTEX
  5
292
  8
1
  6
CONTINUOUS
 62
     7
 10
156.7356004263305
 20
137.2706854570988
 30
0.0
  0
VERTEX
  5
293
  8
1
  6
CONTINUOUS
 62
     7
 10
156.7146295259588
 20
137.2769366181043
 30
0.0
  0
VERTEX
  5
294
  8
1
  6
CONTINUOUS
 62
     7
 10
156.6934119282879
 20
137.2822655109368
 30
0.0
  0
VERTEX
  5
295
  8
1
  6
CONTINUOUS
 62
     7
 10
156.6719886348235
 20
137.2866619339616
 30
0.0
  0
VERTEX
  5
296
  8
1
  6
CONTINUOUS
 62
     7
 10
156.6507877203012
 20
137.290064054536
 30
0.0
  0
VERTEX
  5
297
  8
1
  6
CONTINUOUS
 62
     7
 10
156.6294677932214
 20
137.2925522986883
 30
0.0
  0
VERTEX
  5
298
  8
1
  6
CONTINUOUS
 62
     7
 10
156.6080685435233
 20
137.2941220661074
 30
0.0
  0
VERTEX
  5
299
  8
1
  6
CONTINUOUS
 62
     7
 10
156.5866297898835
 20
137.2947704508633
 30
0.0
  0
SEQEND
  5
3CD
  8
1
  6
CONTINUOUS
 62
     7
  0
LINE
  5
F5
  8
1
  6
CONTINUOUS
 62
     7
 10
157.0833333333333
 20
134.4104302168313
 30
0.0
 11
157.0833333333333
 21
136.7947801794109
 31
0.0
  0
ENDBLK
  8
0
  0
BLOCK
  8
0
  2
D_FRAME_VIEW_1673
 70
     0
 10
0.0
 20
0.0
 30
0.0
  0
LINE
  5
FA
  8
1
  6
CONTINUOUS
 62
     7
 10
76.89243007189737
 20
223.1753932021366
 30
0.0
 11
76.77017776750542
 21
209.1666666666667
 31
0.0
  0
LINE
  5
FB
  8
1
  6
CONTINUOUS
 62
     7
 10
64.7742365947693
 20
223.1753932021366
 30
0.0
 11
64.89648889916124
 21
209.1666666666667
 31
0.0
  0
LINE
  5
FC
  8
1
  6
CONTINUOUS
 62
     7
 10
64.7742365947693
 20
195.1579401311967
 30
0.0
 11
64.89648889916124
 21
209.1666666666667
 31
0.0
  0
LINE
  5
FD
  8
1
  6
CONTINUOUS
 62
     7
 10
76.89243007189737
 20
195.1579401311967
 30
0.0
 11
76.77017776750542
 21
209.1666666666667
 31
0.0
  0
ARC
  5
FE
  8
1
  6
CONTINUOUS
 62
     7
 10
77.89239199496177
 20
195.1666666666667
 30
0.0
 40
0.9999999999999907
 50
180.4999999983717
 51
269.9999999999765
  0
ARC
  5
FF
  8
1
  6
CONTINUOUS
 62
     7
 10
63.77427467170489
 20
195.1666666666667
 30
0.0
 40
0.9999999999999907
 50
270.0000000000236
 51
359.5000000016283
  0
ARC
  5
100
  8
1
  6
CONTINUOUS
 62
     7
 10
63.77427467170489
 20
223.1666666666667
 30
0.0
 40
0.9999999999999907
 50
0.4999999983716762
 51
89.9999999999765
  0
ARC
  5
101
  8
1
  6
CONTINUOUS
 62
     7
 10
77.89239199496177
 20
223.1666666666667
 30
0.0
 40
0.9999999999999907
 50
90.00000000002352
 51
179.5000000016283
  0
LINE
  5
102
  8
1
  6
CONTINUOUS
 62
     7
 10
79.04069567902042
 20
194.1666666666667
 30
0.0
 11
77.89239199496137
 21
194.1666666666667
 31
0.0
  0
LINE
  5
103
  8
1
  6
CONTINUOUS
 62
     7
 10
62.62597098764624
 20
194.1666666666667
 30
0.0
 11
63.77427467170529
 21
194.1666666666667
 31
0.0
  0
LINE
  5
104
  8
1
  6
CONTINUOUS
 62
     7
 10
79.04069567902042
 20
224.1666666666667
 30
0.0
 11
77.89239199496137
 21
224.1666666666667
 31
0.0
  0
LINE
  5
105
  8
1
  6
CONTINUOUS
 62
     7
 10
62.62597098764624
 20
224.1666666666667
 30
0.0
 11
63.77427467170529
 21
224.1666666666667
 31
0.0
  0
LINE
  5
106
  8
1
  6
CONTINUOUS
 62
     7
 10
59.64577135366138
 20
213.1782066369709
 30
0.0
 11
61.43762521149834
 21
223.3403148443336
 31
0.0
  0
LINE
  5
107
  8
1
  6
CONTINUOUS
 62
     7
 10
59.64577135366138
 20
205.1551266963624
 30
0.0
 11
61.43762521149834
 21
194.9930184889998
 31
0.0
  0
LINE
  5
108
  8
1
  6
CONTINUOUS
 62
     7
 10
82.02089531300527
 20
205.1551266963624
 30
0.0
 11
80.22904145516831
 21
194.9930184889998
 31
0.0
  0
LINE
  5
109
  8
1
  6
CONTINUOUS
 62
     7
 10
82.02089531300527
 20
213.1782066369709
 30
0.0
 11
80.22904145516831
 21
223.3403148443336
 31
0.0
  0
ARC
  5
10A
  8
1
  6
CONTINUOUS
 62
     7
 10
79.24423370215611
 20
195.1666666666667
 30
0.0
 40
0.9999999999999913
 50
269.9999999999989
 51
349.9999999999995
  0
LINE
  5
10B
  8
1
  6
CONTINUOUS
 62
     7
 10
79.24423370215611
 20
194.1666666666667
 30
0.0
 11
79.04069567902039
 21
194.1666666666667
 31
0.0
  0
ARC
  5
10C
  8
1
  6
CONTINUOUS
 62
     7
 10
62.42243296451056
 20
195.1666666666667
 30
0.0
 40
0.9999999999999982
 50
190.0000000000005
 51
270.0000000000011
  0
LINE
  5
10D
  8
1
  6
CONTINUOUS
 62
     7
 10
62.42243296451056
 20
194.1666666666667
 30
0.0
 11
62.62597098764627
 21
194.1666666666667
 31
0.0
  0
ARC
  5
10E
  8
1
  6
CONTINUOUS
 62
     7
 10
79.24423370215611
 20
223.1666666666667
 30
0.0
 40
0.9999999999999913
 50
10.00000000000053
 51
90.00000000000114
  0
LINE
  5
10F
  8
1
  6
CONTINUOUS
 62
     7
 10
79.24423370215611
 20
224.1666666666667
 30
0.0
 11
79.04069567902039
 21
224.1666666666667
 31
0.0
  0
ARC
  5
110
  8
1
  6
CONTINUOUS
 62
     7
 10
62.42243296451056
 20
223.1666666666667
 30
0.0
 40
0.9999999999999982
 50
89.99999999999888
 51
169.9999999999995
  0
LINE
  5
111
  8
1
  6
CONTINUOUS
 62
     7
 10
62.42243296451056
 20
224.1666666666667
 30
0.0
 11
62.62597098764627
 21
224.1666666666667
 31
0.0
  0
LINE
  5
112
  8
1
  6
CONTINUOUS
 62
     7
 10
76.95554756078968
 20
194.1666666666666
 30
0.0
 11
77.89239199496139
 21
194.1666666666666
 31
0.0
  0
POLYLINE
  5
113
  8
1
  6
CONTINUOUS
 62
     7
 66
     1
 10
0.0
 20
0.0
 30
0.0
  0
VERTEX
  5
29C
  8
1
  6
CONTINUOUS
 62
     7
 10
76.12449677823452
 20
194.6104701215367
 30
0.0
  0
VERTEX
  5
29D
  8
1
  6
CONTINUOUS
 62
     7
 10
76.14997739991418
 20
194.574169387677
 30
0.0
  0
VERTEX
  5
29E
  8
1
  6
CONTINUOUS
 62
     7
 10
76.17662852684965
 20
194.5395451508744
 30
0.0
  0
VERTEX
  5
29F
  8
1
  6
CONTINUOUS
 62
     7
 10
76.20429728805478
 20
194.506649221658
 30
0.0
  0
VERTEX
  5
2A0
  8
1
  6
CONTINUOUS
 62
     7
 10
76.2334464330891
 20
194.4748807119979
 30
0.0
  0
VERTEX
  5
2A1
  8
1
  6
CONTINUOUS
 62
     7
 10
76.26344658822377
 20
194.4448675036296
 30
0.0
  0
VERTEX
  5
2A2
  8
1
  6
CONTINUOUS
 62
     7
 10
76.29416151456779
 20
194.4166210028148
 30
0.0
  0
VERTEX
  5
2A3
  8
1
  6
CONTINUOUS
 62
     7
 10
76.33083360717522
 20
194.3858151413512
 30
0.0
  0
VERTEX
  5
2A4
  8
1
  6
CONTINUOUS
 62
     7
 10
76.36825168761956
 20
194.3572983233954
 30
0.0
  0
VERTEX
  5
2A5
  8
1
  6
CONTINUOUS
 62
     7
 10
76.40625305202288
 20
194.3310401470074
 30
0.0
  0
VERTEX
  5
2A6
  8
1
  6
CONTINUOUS
 62
     7
 10
76.44467499650733
 20
194.3070102102472
 30
0.0
  0
VERTEX
  5
2A7
  8
1
  6
CONTINUOUS
 62
     7
 10
76.49787591402335
 20
194.2775457922675
 30
0.0
  0
VERTEX
  5
2A8
  8
1
  6
CONTINUOUS
 62
     7
 10
76.55152238045704
 20
194.2519194213818
 30
0.0
  0
VERTEX
  5
2A9
  8
1
  6
CONTINUOUS
 62
     7
 10
76.6053361205918
 20
194.2299959950032
 30
0.0
  0
VERTEX
  5
2AA
  8
1
  6
CONTINUOUS
 62
     7
 10
76.66415258955153
 20
194.2100631618863
 30
0.0
  0
VERTEX
  5
2AB
  8
1
  6
CONTINUOUS
 62
     7
 10
76.72282237472666
 20
194.1941236831825
 30
0.0
  0
VERTEX
  5
2AC
  8
1
  6
CONTINUOUS
 62
     7
 10
76.78111424792644
 20
194.1819976769226
 30
0.0
  0
VERTEX
  5
2AD
  8
1
  6
CONTINUOUS
 62
     7
 10
76.8399186474833
 20
194.1733731537942
 30
0.0
  0
VERTEX
  5
2AE
  8
1
  6
CONTINUOUS
 62
     7
 10
76.8981139643396
 20
194.1683164646464
 30
0.0
  0
VERTEX
  5
2AF
  8
1
  6
CONTINUOUS
 62
     7
 10
76.95554756078967
 20
194.1666666666667
 30
0.0
  0
SEQEND
  5
3CE
  8
1
  6
CONTINUOUS
 62
     7
  0
LINE
  5
114
  8
1
  6
CONTINUOUS
 62
     7
 10
64.71111910587697
 20
194.1666666666666
 30
0.0
 11
63.77427467170487
 21
194.1666666666666
 31
0.0
  0
POLYLINE
  5
115
  8
1
  6
CONTINUOUS
 62
     7
 66
     1
 10
0.0
 20
0.0
 30
0.0
  0
VERTEX
  5
2B0
  8
1
  6
CONTINUOUS
 62
     7
 10
65.54216988843214
 20
194.6104701215367
 30
0.0
  0
VERTEX
  5
2B1
  8
1
  6
CONTINUOUS
 62
     7
 10
65.52321920932737
 20
194.5831488101848
 30
0.0
  0
VERTEX
  5
2B2
  8
1
  6
CONTINUOUS
 62
     7
 10
65.5036043096254
 20
194.5567755273312
 30
0.0
  0
VERTEX
  5
2B3
  8
1
  6
CONTINUOUS
 62
     7
 10
65.4832704115287
 20
194.5312281532748
 30
0.0
  0
VERTEX
  5
2B4
  8
1
  6
CONTINUOUS
 62
     7
 10
65.46236937861188
 20
194.506649221658
 30
0.0
  0
VERTEX
  5
2B5
  8
1
  6
CONTINUOUS
 62
     7
 10
65.44063348365728
 20
194.4827013371284
 30
0.0
  0
VERTEX
  5
2B6
  8
1
  6
CONTINUOUS
 62
     7
 10
65.41841329114845
 20
194.4597473392458
 30
0.0
  0
VERTEX
  5
2B7
  8
1
  6
CONTINUOUS
 62
     7
 10
65.39565758459798
 20
194.4376900382919
 30
0.0
  0
VERTEX
  5
2B8
  8
1
  6
CONTINUOUS
 62
     7
 10
65.37250515209887
 20
194.4166210028148
 30
0.0
  0
VERTEX
  5
2B9
  8
1
  6
CONTINUOUS
 62
     7
 10
65.33595554253168
 20
194.3859113299152
 30
0.0
  0
VERTEX
  5
2BA
  8
1
  6
CONTINUOUS
 62
     7
 10
65.2986998439011
 20
194.3575011234659
 30
0.0
  0
VERTEX
  5
2BB
  8
1
  6
CONTINUOUS
 62
     7
 10
65.26057606002335
 20
194.3311448112194
 30
0.0
  0
VERTEX
  5
2BC
  8
1
  6
CONTINUOUS
 62
     7
 10
65.22199167015933
 20
194.3070102102472
 30
0.0
  0
VERTEX
  5
2BD
  8
1
  6
CONTINUOUS
 62
     7
 10
65.18224080878923
 20
194.2845985223775
 30
0.0
  0
VERTEX
  5
2BE
  8
1
  6
CONTINUOUS
 62
     7
 10
65.14222936881303
 20
194.2643674140951
 30
0.0
  0
VERTEX
  5
2BF
  8
1
  6
CONTINUOUS
 62
     7
 10
65.101821889141
 20
194.2461497941816
 30
0.0
  0
VERTEX
  5
2C0
  8
1
  6
CONTINUOUS
 62
     7
 10
65.06133054607487
 20
194.2299959950032
 30
0.0
  0
VERTEX
  5
2C1
  8
1
  6
CONTINUOUS
 62
     7
 10
65.0173046096425
 20
194.2146947678539
 30
0.0
  0
VERTEX
  5
2C2
  8
1
  6
CONTINUOUS
 62
     7
 10
64.97335442780513
 20
194.2016627102327
 30
0.0
  0
VERTEX
  5
2C3
  8
1
  6
CONTINUOUS
 62
     7
 10
64.92934349422559
 20
194.1907679901341
 30
0.0
  0
VERTEX
  5
2C4
  8
1
  6
CONTINUOUS
 62
     7
 10
64.88555241874022
 20
194.1819976769226
 30
0.0
  0
VERTEX
  5
2C5
  8
1
  6
CONTINUOUS
 62
     7
 10
64.84146774793133
 20
194.1751983745466
 30
0.0
  0
VERTEX
  5
2C6
  8
1
  6
CONTINUOUS
 62
     7
 10
64.79772302472286
 20
194.1704238442381
 30
0.0
  0
VERTEX
  5
2C7
  8
1
  6
CONTINUOUS
 62
     7
 10
64.7542052397271
 20
194.1675952261328
 30
0.0
  0
VERTEX
  5
2C8
  8
1
  6
CONTINUOUS
 62
     7
 10
64.711119105877
 20
194.1666666666667
 30
0.0
  0
SEQEND
  5
3CF
  8
1
  6
CONTINUOUS
 62
     7
  0
LINE
  5
116
  8
1
  6
CONTINUOUS
 62
     7
 10
64.71111910587697
 20
224.1666666666667
 30
0.0
 11
63.77427467170487
 21
224.1666666666667
 31
0.0
  0
POLYLINE
  5
117
  8
1
  6
CONTINUOUS
 62
     7
 66
     1
 10
0.0
 20
0.0
 30
0.0
  0
VERTEX
  5
2C9
  8
1
  6
CONTINUOUS
 62
     7
 10
65.54216988843214
 20
223.7228632117966
 30
0.0
  0
VERTEX
  5
2CA
  8
1
  6
CONTINUOUS
 62
     7
 10
65.52321920932737
 20
223.7501845231485
 30
0.0
  0
VERTEX
  5
2CB
  8
1
  6
CONTINUOUS
 62
     7
 10
65.5036043096254
 20
223.7765578060021
 30
0.0
  0
VERTEX
  5
2CC
  8
1
  6
CONTINUOUS
 62
     7
 10
65.4832704115287
 20
223.8021051800585
 30
0.0
  0
VERTEX
  5
2CD
  8
1
  6
CONTINUOUS
 62
     7
 10
65.46236937861188
 20
223.8266841116753
 30
0.0
  0
VERTEX
  5
2CE
  8
1
  6
CONTINUOUS
 62
     7
 10
65.44063348365728
 20
223.850631996205
 30
0.0
  0
VERTEX
  5
2CF
  8
1
  6
CONTINUOUS
 62
     7
 10
65.41841329114845
 20
223.8735859940875
 30
0.0
  0
VERTEX
  5
2D0
  8
1
  6
CONTINUOUS
 62
     7
 10
65.39565758459798
 20
223.8956432950414
 30
0.0
  0
VERTEX
  5
2D1
  8
1
  6
CONTINUOUS
 62
     7
 10
65.37250515209887
 20
223.9167123305185
 30
0.0
  0
VERTEX
  5
2D2
  8
1
  6
CONTINUOUS
 62
     7
 10
65.33595554253168
 20
223.9474220034181
 30
0.0
  0
VERTEX
  5
2D3
  8
1
  6
CONTINUOUS
 62
     7
 10
65.2986998439011
 20
223.9758322098674
 30
0.0
  0
VERTEX
  5
2D4
  8
1
  6
CONTINUOUS
 62
     7
 10
65.26057606002335
 20
224.002188522114
 30
0.0
  0
VERTEX
  5
2D5
  8
1
  6
CONTINUOUS
 62
     7
 10
65.22199167015933
 20
224.0263231230861
 30
0.0
  0
VERTEX
  5
2D6
  8
1
  6
CONTINUOUS
 62
     7
 10
65.18224080878923
 20
224.0487348109559
 30
0.0
  0
VERTEX
  5
2D7
  8
1
  6
CONTINUOUS
 62
     7
 10
65.14222936881303
 20
224.0689659192383
 30
0.0
  0
VERTEX
  5
2D8
  8
1
  6
CONTINUOUS
 62
     7
 10
65.101821889141
 20
224.0871835391517
 30
0.0
  0
VERTEX
  5
2D9
  8
1
  6
CONTINUOUS
 62
     7
 10
65.06133054607487
 20
224.1033373383302
 30
0.0
  0
VERTEX
  5
2DA
  8
1
  6
CONTINUOUS
 62
     7
 10
65.0173046096425
 20
224.1186385654794
 30
0.0
  0
VERTEX
  5
2DB
  8
1
  6
CONTINUOUS
 62
     7
 10
64.97335442780513
 20
224.1316706231007
 30
0.0
  0
VERTEX
  5
2DC
  8
1
  6
CONTINUOUS
 62
     7
 10
64.92934349422559
 20
224.1425653431992
 30
0.0
  0
VERTEX
  5
2DD
  8
1
  6
CONTINUOUS
 62
     7
 10
64.88555241874022
 20
224.1513356564107
 30
0.0
  0
VERTEX
  5
2DE
  8
1
  6
CONTINUOUS
 62
     7
 10
64.84146774793133
 20
224.1581349587867
 30
0.0
  0
VERTEX
  5
2DF
  8
1
  6
CONTINUOUS
 62
     7
 10
64.79772302472286
 20
224.1629094890953
 30
0.0
  0
VERTEX
  5
2E0
  8
1
  6
CONTINUOUS
 62
     7
 10
64.7542052397271
 20
224.1657381072006
 30
0.0
  0
VERTEX
  5
2E1
  8
1
  6
CONTINUOUS
 62
     7
 10
64.711119105877
 20
224.1666666666667
 30
0.0
  0
SEQEND
  5
3D0
  8
1
  6
CONTINUOUS
 62
     7
  0
LINE
  5
118
  8
1
  6
CONTINUOUS
 62
     7
 10
76.95554756078968
 20
224.1666666666667
 30
0.0
 11
77.89239199496139
 21
224.1666666666667
 31
0.0
  0
POLYLINE
  5
119
  8
1
  6
CONTINUOUS
 62
     7
 66
     1
 10
0.0
 20
0.0
 30
0.0
  0
VERTEX
  5
2E2
  8
1
  6
CONTINUOUS
 62
     7
 10
76.12449677823452
 20
223.7228632117966
 30
0.0
  0
VERTEX
  5
2E3
  8
1
  6
CONTINUOUS
 62
     7
 10
76.14997739991418
 20
223.7591639456563
 30
0.0
  0
VERTEX
  5
2E4
  8
1
  6
CONTINUOUS
 62
     7
 10
76.17662852684965
 20
223.7937881824589
 30
0.0
  0
VERTEX
  5
2E5
  8
1
  6
CONTINUOUS
 62
     7
 10
76.20429728805478
 20
223.8266841116753
 30
0.0
  0
VERTEX
  5
2E6
  8
1
  6
CONTINUOUS
 62
     7
 10
76.2334464330891
 20
223.8584526213355
 30
0.0
  0
VERTEX
  5
2E7
  8
1
  6
CONTINUOUS
 62
     7
 10
76.26344658822377
 20
223.8884658297037
 30
0.0
  0
VERTEX
  5
2E8
  8
1
  6
CONTINUOUS
 62
     7
 10
76.29416151456779
 20
223.9167123305185
 30
0.0
  0
VERTEX
  5
2E9
  8
1
  6
CONTINUOUS
 62
     7
 10
76.33083360717522
 20
223.9475181919822
 30
0.0
  0
VERTEX
  5
2EA
  8
1
  6
CONTINUOUS
 62
     7
 10
76.36825168761956
 20
223.976035009938
 30
0.0
  0
VERTEX
  5
2EB
  8
1
  6
CONTINUOUS
 62
     7
 10
76.40625305202288
 20
224.0022931863259
 30
0.0
  0
VERTEX
  5
2EC
  8
1
  6
CONTINUOUS
 62
     7
 10
76.44467499650733
 20
224.0263231230861
 30
0.0
  0
VERTEX
  5
2ED
  8
1
  6
CONTINUOUS
 62
     7
 10
76.49787591402335
 20
224.0557875410658
 30
0.0
  0
VERTEX
  5
2EE
  8
1
  6
CONTINUOUS
 62
     7
 10
76.55152238045704
 20
224.0814139119516
 30
0.0
  0
VERTEX
  5
2EF
  8
1
  6
CONTINUOUS
 62
     7
 10
76.6053361205918
 20
224.1033373383302
 30
0.0
  0
VERTEX
  5
2F0
  8
1
  6
CONTINUOUS
 62
     7
 10
76.66415258955153
 20
224.123270171447
 30
0.0
  0
VERTEX
  5
2F1
  8
1
  6
CONTINUOUS
 62
     7
 10
76.72282237472666
 20
224.1392096501508
 30
0.0
  0
VERTEX
  5
2F2
  8
1
  6
CONTINUOUS
 62
     7
 10
76.78111424792644
 20
224.1513356564107
 30
0.0
  0
VERTEX
  5
2F3
  8
1
  6
CONTINUOUS
 62
     7
 10
76.8399186474833
 20
224.1599601795391
 30
0.0
  0
VERTEX
  5
2F4
  8
1
  6
CONTINUOUS
 62
     7
 10
76.8981139643396
 20
224.1650168686869
 30
0.0
  0
VERTEX
  5
2F5
  8
1
  6
CONTINUOUS
 62
     7
 10
76.95554756078967
 20
224.1666666666667
 30
0.0
  0
SEQEND
  5
3D1
  8
1
  6
CONTINUOUS
 62
     7
  0
LINE
  5
11A
  8
1
  6
CONTINUOUS
 62
     7
 10
65.71108102894115
 20
195.1579401311683
 30
0.0
 11
65.83333333333334
 21
209.1666666666667
 31
0.0
  0
LINE
  5
11B
  8
1
  6
CONTINUOUS
 62
     7
 10
65.54216988843214
 20
194.6104701215367
 30
0.0
 11
65.71108102894115
 21
195.1579401311683
 31
0.0
  0
LINE
  5
11C
  8
1
  6
CONTINUOUS
 62
     7
 10
75.9555856377255
 20
195.1579401311683
 30
0.0
 11
75.83333333333331
 21
209.1666666666667
 31
0.0
  0
LINE
  5
11D
  8
1
  6
CONTINUOUS
 62
     7
 10
76.12449677823452
 20
194.6104701215367
 30
0.0
 11
75.9555856377255
 21
195.1579401311683
 31
0.0
  0
LINE
  5
11E
  8
1
  6
CONTINUOUS
 62
     7
 10
75.9555856377255
 20
223.175393202165
 30
0.0
 11
75.83333333333331
 21
209.1666666666667
 31
0.0
  0
LINE
  5
11F
  8
1
  6
CONTINUOUS
 62
     7
 10
76.12449677823452
 20
223.7228632117966
 30
0.0
 11
75.9555856377255
 21
223.175393202165
 31
0.0
  0
LINE
  5
120
  8
1
  6
CONTINUOUS
 62
     7
 10
65.71108102894115
 20
223.175393202165
 30
0.0
 11
65.83333333333334
 21
209.1666666666667
 31
0.0
  0
LINE
  5
121
  8
1
  6
CONTINUOUS
 62
     7
 10
65.54216988843214
 20
223.7228632117966
 30
0.0
 11
65.71108102894115
 21
223.175393202165
 31
0.0
  0
LINE
  5
122
  8
1
  6
CONTINUOUS
 62
     7
 10
65.7194793541128
 20
222.1666666666667
 30
0.0
 11
67.22415229288433
 21
222.1666666666667
 31
0.0
  0
LINE
  5
123
  8
1
  6
CONTINUOUS
 62
     7
 10
74.44251437378234
 20
196.1666666666667
 30
0.0
 11
75.94718731255385
 21
196.1666666666667
 31
0.0
  0
LINE
  5
124
  8
1
  6
CONTINUOUS
 62
     7
 10
65.7194793541128
 20
196.1666666666667
 30
0.0
 11
67.22415229288433
 21
196.1666666666667
 31
0.0
  0
LINE
  5
125
  8
1
  6
CONTINUOUS
 62
     7
 10
74.44251437378234
 20
222.1666666666667
 30
0.0
 11
75.94718731255385
 21
222.1666666666667
 31
0.0
  0
LINE
  5
126
  8
1
  6
CONTINUOUS
 62
     7
 10
68.62882524029669
 20
210.7666666666667
 30
0.0
 11
73.03784142636997
 21
210.7666666666667
 31
0.0
  0
ARC
  5
127
  8
1
  6
CONTINUOUS
 62
     7
 10
70.83333333333333
 20
209.1668741079086
 30
0.0
 40
2.723819412426079
 50
144.0319308045482
 51
180.0043640953866
  0
ARC
  5
128
  8
1
  6
CONTINUOUS
 62
     7
 10
70.83333333333333
 20
209.1668741079086
 30
0.0
 40
2.723819412426079
 50
359.9956364553197
 51
35.96806919545185
  0
LINE
  5
129
  8
1
  6
CONTINUOUS
 62
     7
 10
68.62882524029669
 20
207.5666666666667
 30
0.0
 11
73.03784142636997
 21
207.5666666666667
 31
0.0
  0
ARC
  5
12A
  8
1
  6
CONTINUOUS
 62
     7
 10
70.83333333333333
 20
209.1664592254247
 30
0.0
 40
2.723819412426079
 50
324.0319308045482
 51
0.0043635446803592
  0
ARC
  5
12B
  8
1
  6
CONTINUOUS
 62
     7
 10
70.83333333333333
 20
209.1664592254247
 30
0.0
 40
2.723819412426079
 50
179.9956359046134
 51
215.9680691954518
  0
POLYLINE
  5
12C
  8
1
  6
CONTINUOUS
 62
     7
 66
     1
 10
0.0
 20
0.0
 30
0.0
  0
VERTEX
  5
2F6
  8
1
  6
CONTINUOUS
 62
     7
 10
69.68768940959437
 20
196.1666666666667
 30
0.0
  0
VERTEX
  5
2F7
  8
1
  6
CONTINUOUS
 62
     7
 10
69.7118316747246
 20
196.1660834775915
 30
0.0
  0
VERTEX
  5
2F8
  8
1
  6
CONTINUOUS
 62
     7
 10
69.73591762183376
 20
196.1643352708042
 30
0.0
  0
VERTEX
  5
2F9
  8
1
  6
CONTINUOUS
 62
     7
 10
69.75989106427694
 20
196.161426124445
 30
0.0
  0
VERTEX
  5
2FA
  8
1
  6
CONTINUOUS
 62
     7
 10
69.78369607785528
 20
196.1573628248434
 30
0.0
  0
VERTEX
  5
2FB
  8
1
  6
CONTINUOUS
 62
     7
 10
69.80727713127334
 20
196.1521548506873
 30
0.0
  0
VERTEX
  5
2FC
  8
1
  6
CONTINUOUS
 62
     7
 10
69.83057921568019
 20
196.1458143509111
 30
0.0
  0
VERTEX
  5
2FD
  8
1
  6
CONTINUOUS
 62
     7
 10
69.8535479729916
 20
196.1383561163555
 30
0.0
  0
VERTEX
  5
2FE
  8
1
  6
CONTINUOUS
 62
     7
 10
69.8761298226943
 20
196.1297975452644
 30
0.0
  0
VERTEX
  5
2FF
  8
1
  6
CONTINUOUS
 62
     7
 10
69.89827208683604
 20
196.1201586026983
 30
0.0
  0
VERTEX
  5
300
  8
1
  6
CONTINUOUS
 62
     7
 10
69.91992311291071
 20
196.1094617739612
 30
0.0
  0
VERTEX
  5
301
  8
1
  6
CONTINUOUS
 62
     7
 10
69.94103239435076
 20
196.0977320121478
 30
0.0
  0
VERTEX
  5
302
  8
1
  6
CONTINUOUS
 62
     7
 10
69.96155068834696
 20
196.0849966799337
 30
0.0
  0
VERTEX
  5
303
  8
1
  6
CONTINUOUS
 62
     7
 10
69.98143013071969
 20
196.0712854857455
 30
0.0
  0
VERTEX
  5
304
  8
1
  6
CONTINUOUS
 62
     7
 10
70.0006243475745
 20
196.0566304144579
 30
0.0
  0
VERTEX
  5
305
  8
1
  6
CONTINUOUS
 62
     7
 10
70.01908856348112
 20
196.0410656527806
 30
0.0
  0
VERTEX
  5
306
  8
1
  6
CONTINUOUS
 62
     7
 10
70.03677970592354
 20
196.0246275095096
 30
0.0
  0
VERTEX
  5
307
  8
1
  6
CONTINUOUS
 62
     7
 10
70.05365650577775
 20
196.0073543308271
 30
0.0
  0
VERTEX
  5
308
  8
1
  6
CONTINUOUS
 62
     7
 10
70.06967959358258
 20
195.9892864108496
 30
0.0
  0
VERTEX
  5
309
  8
1
  6
CONTINUOUS
 62
     7
 10
70.08481159137901
 20
195.9704658976311
 30
0.0
  0
VERTEX
  5
30A
  8
1
  6
CONTINUOUS
 62
     7
 10
70.09901719990381
 20
195.9509366948426
 30
0.0
  0
VERTEX
  5
30B
  8
1
  6
CONTINUOUS
 62
     7
 10
70.11226328093423
 20
195.9307443593548
 30
0.0
  0
VERTEX
  5
30C
  8
1
  6
CONTINUOUS
 62
     7
 10
70.12451893459126
 20
195.9099359949656
 30
0.0
  0
VERTEX
  5
30D
  8
1
  6
CONTINUOUS
 62
     7
 10
70.13575557142163
 20
195.888560142518
 30
0.0
  0
VERTEX
  5
30E
  8
1
  6
CONTINUOUS
 62
     7
 10
70.14594697908996
 20
195.8666666666666
 30
0.0
  0
SEQEND
  5
3D2
  8
1
  6
CONTINUOUS
 62
     7
  0
LINE
  5
12D
  8
1
  6
CONTINUOUS
 62
     7
 10
74.44251437378234
 20
222.1666666666667
 30
0.0
 11
71.97897725707229
 21
222.1666666666667
 31
0.0
  0
POLYLINE
  5
12E
  8
1
  6
CONTINUOUS
 62
     7
 66
     1
 10
0.0
 20
0.0
 30
0.0
  0
VERTEX
  5
30F
  8
1
  6
CONTINUOUS
 62
     7
 10
71.52071968757672
 20
222.4666666666667
 30
0.0
  0
VERTEX
  5
310
  8
1
  6
CONTINUOUS
 62
     7
 10
71.53091109524503
 20
222.4447731908153
 30
0.0
  0
VERTEX
  5
311
  8
1
  6
CONTINUOUS
 62
     7
 10
71.54214773207539
 20
222.4233973383678
 30
0.0
  0
VERTEX
  5
312
  8
1
  6
CONTINUOUS
 62
     7
 10
71.55440338573243
 20
222.4025889739785
 30
0.0
  0
VERTEX
  5
313
  8
1
  6
CONTINUOUS
 62
     7
 10
71.56764946676284
 20
222.3823966384907
 30
0.0
  0
VERTEX
  5
314
  8
1
  6
CONTINUOUS
 62
     7
 10
71.58185507528765
 20
222.3628674357022
 30
0.0
  0
VERTEX
  5
315
  8
1
  6
CONTINUOUS
 62
     7
 10
71.59698707308408
 20
222.3440469224837
 30
0.0
  0
VERTEX
  5
316
  8
1
  6
CONTINUOUS
 62
     7
 10
71.61301016088892
 20
222.3259790025062
 30
0.0
  0
VERTEX
  5
317
  8
1
  6
CONTINUOUS
 62
     7
 10
71.62988696074312
 20
222.3087058238237
 30
0.0
  0
VERTEX
  5
318
  8
1
  6
CONTINUOUS
 62
     7
 10
71.64757810318555
 20
222.2922676805527
 30
0.0
  0
VERTEX
  5
319
  8
1
  6
CONTINUOUS
 62
     7
 10
71.66604231909216
 20
222.2767029188754
 30
0.0
  0
VERTEX
  5
31A
  8
1
  6
CONTINUOUS
 62
     7
 10
71.68523653594698
 20
222.2620478475878
 30
0.0
  0
VERTEX
  5
31B
  8
1
  6
CONTINUOUS
 62
     7
 10
71.7051159783197
 20
222.2483366533996
 30
0.0
  0
VERTEX
  5
31C
  8
1
  6
CONTINUOUS
 62
     7
 10
71.7256342723159
 20
222.2356013211856
 30
0.0
  0
VERTEX
  5
31D
  8
1
  6
CONTINUOUS
 62
     7
 10
71.74674355375596
 20
222.2238715593721
 30
0.0
  0
VERTEX
  5
31E
  8
1
  6
CONTINUOUS
 62
     7
 10
71.76839457983061
 20
222.213174730635
 30
0.0
  0
VERTEX
  5
31F
  8
1
  6
CONTINUOUS
 62
     7
 10
71.79053684397238
 20
222.2035357880689
 30
0.0
  0
VERTEX
  5
320
  8
1
  6
CONTINUOUS
 62
     7
 10
71.81311869367505
 20
222.1949772169778
 30
0.0
  0
VERTEX
  5
321
  8
1
  6
CONTINUOUS
 62
     7
 10
71.83608745098647
 20
222.1875189824223
 30
0.0
  0
VERTEX
  5
322
  8
1
  6
CONTINUOUS
 62
     7
 10
71.85938953539333
 20
222.181178482646
 30
0.0
  0
VERTEX
  5
323
  8
1
  6
CONTINUOUS
 62
     7
 10
71.88297058881138
 20
222.1759705084899
 30
0.0
  0
VERTEX
  5
324
  8
1
  6
CONTINUOUS
 62
     7
 10
71.90677560238971
 20
222.1719072088883
 30
0.0
  0
VERTEX
  5
325
  8
1
  6
CONTINUOUS
 62
     7
 10
71.93074904483291
 20
222.1689980625291
 30
0.0
  0
VERTEX
  5
326
  8
1
  6
CONTINUOUS
 62
     7
 10
71.95483499194205
 20
222.1672498557418
 30
0.0
  0
VERTEX
  5
327
  8
1
  6
CONTINUOUS
 62
     7
 10
71.97897725707229
 20
222.1666666666667
 30
0.0
  0
SEQEND
  5
3D3
  8
1
  6
CONTINUOUS
 62
     7
  0
POLYLINE
  5
12F
  8
1
  6
CONTINUOUS
 62
     7
 66
     1
 10
0.0
 20
0.0
 30
0.0
  0
VERTEX
  5
328
  8
1
  6
CONTINUOUS
 62
     7
 10
71.52071968757672
 20
195.8666666666666
 30
0.0
  0
VERTEX
  5
329
  8
1
  6
CONTINUOUS
 62
     7
 10
71.53091109524503
 20
195.888560142518
 30
0.0
  0
VERTEX
  5
32A
  8
1
  6
CONTINUOUS
 62
     7
 10
71.54214773207539
 20
195.9099359949656
 30
0.0
  0
VERTEX
  5
32B
  8
1
  6
CONTINUOUS
 62
     7
 10
71.55440338573243
 20
195.9307443593548
 30
0.0
  0
VERTEX
  5
32C
  8
1
  6
CONTINUOUS
 62
     7
 10
71.56764946676284
 20
195.9509366948426
 30
0.0
  0
VERTEX
  5
32D
  8
1
  6
CONTINUOUS
 62
     7
 10
71.58185507528765
 20
195.9704658976311
 30
0.0
  0
VERTEX
  5
32E
  8
1
  6
CONTINUOUS
 62
     7
 10
71.59698707308408
 20
195.9892864108496
 30
0.0
  0
VERTEX
  5
32F
  8
1
  6
CONTINUOUS
 62
     7
 10
71.61301016088892
 20
196.0073543308271
 30
0.0
  0
VERTEX
  5
330
  8
1
  6
CONTINUOUS
 62
     7
 10
71.62988696074312
 20
196.0246275095096
 30
0.0
  0
VERTEX
  5
331
  8
1
  6
CONTINUOUS
 62
     7
 10
71.64757810318555
 20
196.0410656527806
 30
0.0
  0
VERTEX
  5
332
  8
1
  6
CONTINUOUS
 62
     7
 10
71.66604231909216
 20
196.0566304144579
 30
0.0
  0
VERTEX
  5
333
  8
1
  6
CONTINUOUS
 62
     7
 10
71.68523653594698
 20
196.0712854857455
 30
0.0
  0
VERTEX
  5
334
  8
1
  6
CONTINUOUS
 62
     7
 10
71.7051159783197
 20
196.0849966799337
 30
0.0
  0
VERTEX
  5
335
  8
1
  6
CONTINUOUS
 62
     7
 10
71.7256342723159
 20
196.0977320121478
 30
0.0
  0
VERTEX
  5
336
  8
1
  6
CONTINUOUS
 62
     7
 10
71.74674355375596
 20
196.1094617739612
 30
0.0
  0
VERTEX
  5
337
  8
1
  6
CONTINUOUS
 62
     7
 10
71.76839457983061
 20
196.1201586026983
 30
0.0
  0
VERTEX
  5
338
  8
1
  6
CONTINUOUS
 62
     7
 10
71.79053684397238
 20
196.1297975452644
 30
0.0
  0
VERTEX
  5
339
  8
1
  6
CONTINUOUS
 62
     7
 10
71.81311869367505
 20
196.1383561163555
 30
0.0
  0
VERTEX
  5
33A
  8
1
  6
CONTINUOUS
 62
     7
 10
71.83608745098647
 20
196.1458143509111
 30
0.0
  0
VERTEX
  5
33B
  8
1
  6
CONTINUOUS
 62
     7
 10
71.85938953539333
 20
196.1521548506873
 30
0.0
  0
VERTEX
  5
33C
  8
1
  6
CONTINUOUS
 62
     7
 10
71.88297058881138
 20
196.1573628248434
 30
0.0
  0
VERTEX
  5
33D
  8
1
  6
CONTINUOUS
 62
     7
 10
71.90677560238971
 20
196.161426124445
 30
0.0
  0
VERTEX
  5
33E
  8
1
  6
CONTINUOUS
 62
     7
 10
71.93074904483291
 20
196.1643352708042
 30
0.0
  0
VERTEX
  5
33F
  8
1
  6
CONTINUOUS
 62
     7
 10
71.95483499194205
 20
196.1660834775915
 30
0.0
  0
VERTEX
  5
340
  8
1
  6
CONTINUOUS
 62
     7
 10
71.97897725707229
 20
196.1666666666667
 30
0.0
  0
SEQEND
  5
3D4
  8
1
  6
CONTINUOUS
 62
     7
  0
LINE
  5
130
  8
1
  6
CONTINUOUS
 62
     7
 10
69.68768940959437
 20
196.1666666666667
 30
0.0
 11
67.22415229288433
 21
196.1666666666667
 31
0.0
  0
LINE
  5
131
  8
1
  6
CONTINUOUS
 62
     7
 10
69.68768940959437
 20
222.1666666666667
 30
0.0
 11
67.22415229288433
 21
222.1666666666667
 31
0.0
  0
LINE
  5
132
  8
1
  6
CONTINUOUS
 62
     7
 10
74.44251437378234
 20
196.1666666666667
 30
0.0
 11
71.97897725707229
 21
196.1666666666667
 31
0.0
  0
POLYLINE
  5
133
  8
1
  6
CONTINUOUS
 62
     7
 66
     1
 10
0.0
 20
0.0
 30
0.0
  0
VERTEX
  5
341
  8
1
  6
CONTINUOUS
 62
     7
 10
69.68768940959437
 20
222.1666666666667
 30
0.0
  0
VERTEX
  5
342
  8
1
  6
CONTINUOUS
 62
     7
 10
69.7118316747246
 20
222.1672498557418
 30
0.0
  0
VERTEX
  5
343
  8
1
  6
CONTINUOUS
 62
     7
 10
69.73591762183376
 20
222.1689980625291
 30
0.0
  0
VERTEX
  5
344
  8
1
  6
CONTINUOUS
 62
     7
 10
69.75989106427694
 20
222.1719072088883
 30
0.0
  0
VERTEX
  5
345
  8
1
  6
CONTINUOUS
 62
     7
 10
69.78369607785528
 20
222.1759705084899
 30
0.0
  0
VERTEX
  5
346
  8
1
  6
CONTINUOUS
 62
     7
 10
69.80727713127334
 20
222.181178482646
 30
0.0
  0
VERTEX
  5
347
  8
1
  6
CONTINUOUS
 62
     7
 10
69.83057921568019
 20
222.1875189824223
 30
0.0
  0
VERTEX
  5
348
  8
1
  6
CONTINUOUS
 62
     7
 10
69.8535479729916
 20
222.1949772169778
 30
0.0
  0
VERTEX
  5
349
  8
1
  6
CONTINUOUS
 62
     7
 10
69.8761298226943
 20
222.2035357880689
 30
0.0
  0
VERTEX
  5
34A
  8
1
  6
CONTINUOUS
 62
     7
 10
69.89827208683604
 20
222.213174730635
 30
0.0
  0
VERTEX
  5
34B
  8
1
  6
CONTINUOUS
 62
     7
 10
69.91992311291071
 20
222.2238715593721
 30
0.0
  0
VERTEX
  5
34C
  8
1
  6
CONTINUOUS
 62
     7
 10
69.94103239435076
 20
222.2356013211856
 30
0.0
  0
VERTEX
  5
34D
  8
1
  6
CONTINUOUS
 62
     7
 10
69.96155068834696
 20
222.2483366533996
 30
0.0
  0
VERTEX
  5
34E
  8
1
  6
CONTINUOUS
 62
     7
 10
69.98143013071969
 20
222.2620478475878
 30
0.0
  0
VERTEX
  5
34F
  8
1
  6
CONTINUOUS
 62
     7
 10
70.0006243475745
 20
222.2767029188754
 30
0.0
  0
VERTEX
  5
350
  8
1
  6
CONTINUOUS
 62
     7
 10
70.01908856348112
 20
222.2922676805527
 30
0.0
  0
VERTEX
  5
351
  8
1
  6
CONTINUOUS
 62
     7
 10
70.03677970592354
 20
222.3087058238237
 30
0.0
  0
VERTEX
  5
352
  8
1
  6
CONTINUOUS
 62
     7
 10
70.05365650577775
 20
222.3259790025062
 30
0.0
  0
VERTEX
  5
353
  8
1
  6
CONTINUOUS
 62
     7
 10
70.06967959358258
 20
222.3440469224837
 30
0.0
  0
VERTEX
  5
354
  8
1
  6
CONTINUOUS
 62
     7
 10
70.08481159137901
 20
222.3628674357022
 30
0.0
  0
VERTEX
  5
355
  8
1
  6
CONTINUOUS
 62
     7
 10
70.09901719990381
 20
222.3823966384907
 30
0.0
  0
VERTEX
  5
356
  8
1
  6
CONTINUOUS
 62
     7
 10
70.11226328093423
 20
222.4025889739785
 30
0.0
  0
VERTEX
  5
357
  8
1
  6
CONTINUOUS
 62
     7
 10
70.12451893459126
 20
222.4233973383678
 30
0.0
  0
VERTEX
  5
358
  8
1
  6
CONTINUOUS
 62
     7
 10
70.13575557142163
 20
222.4447731908153
 30
0.0
  0
VERTEX
  5
359
  8
1
  6
CONTINUOUS
 62
     7
 10
70.14594697908996
 20
222.4666666666667
 30
0.0
  0
SEQEND
  5
3D5
  8
1
  6
CONTINUOUS
 62
     7
  0
POLYLINE
  5
134
  8
1
  6
CONTINUOUS
 62
     7
 66
     1
 10
0.0
 20
0.0
 30
0.0
  0
VERTEX
  5
35A
  8
1
  6
CONTINUOUS
 62
     7
 10
71.52071968757672
 20
222.4666666666667
 30
0.0
  0
VERTEX
  5
35B
  8
1
  6
CONTINUOUS
 62
     7
 10
71.50543257607421
 20
222.4995068804437
 30
0.0
  0
VERTEX
  5
35C
  8
1
  6
CONTINUOUS
 62
     7
 10
71.48857762082866
 20
222.531570659115
 30
0.0
  0
VERTEX
  5
35D
  8
1
  6
CONTINUOUS
 62
     7
 10
71.47019414034311
 20
222.5627832056988
 30
0.0
  0
VERTEX
  5
35E
  8
1
  6
CONTINUOUS
 62
     7
 10
71.4503250187975
 20
222.5930717089306
 30
0.0
  0
VERTEX
  5
35F
  8
1
  6
CONTINUOUS
 62
     7
 10
71.4290166060103
 20
222.6223655131134
 30
0.0
  0
VERTEX
  5
360
  8
1
  6
CONTINUOUS
 62
     7
 10
71.40631860931565
 20
222.650596282941
 30
0.0
  0
VERTEX
  5
361
  8
1
  6
CONTINUOUS
 62
     7
 10
71.3822839776084
 20
222.6776981629073
 30
0.0
  0
VERTEX
  5
362
  8
1
  6
CONTINUOUS
 62
     7
 10
71.35696877782708
 20
222.703607930931
 30
0.0
  0
VERTEX
  5
363
  8
1
  6
CONTINUOUS
 62
     7
 10
71.33043206416345
 20
222.7282651458376
 30
0.0
  0
VERTEX
  5
364
  8
1
  6
CONTINUOUS
 62
     7
 10
71.30273574030353
 20
222.7516122883535
 30
0.0
  0
VERTEX
  5
365
  8
1
  6
CONTINUOUS
 62
     7
 10
71.2739444150213
 20
222.773594895285
 30
0.0
  0
VERTEX
  5
366
  8
1
  6
CONTINUOUS
 62
     7
 10
71.24412525146221
 20
222.7941616865672
 30
0.0
  0
VERTEX
  5
367
  8
1
  6
CONTINUOUS
 62
     7
 10
71.21334781046791
 20
222.8132646848883
 30
0.0
  0
VERTEX
  5
368
  8
1
  6
CONTINUOUS
 62
     7
 10
71.18168388830783
 20
222.8308593276085
 30
0.0
  0
VERTEX
  5
369
  8
1
  6
CONTINUOUS
 62
     7
 10
71.14920734919585
 20
222.8469045707141
 30
0.0
  0
VERTEX
  5
36A
  8
1
  6
CONTINUOUS
 62
     7
 10
71.1159939529832
 20
222.8613629845633
 30
0.0
  0
VERTEX
  5
36B
  8
1
  6
CONTINUOUS
 62
     7
 10
71.08212117842919
 20
222.8742008412
 30
0.0
  0
VERTEX
  5
36C
  8
1
  6
CONTINUOUS
 62
     7
 10
71.04766804246204
 20
222.8853881930332
 30
0.0
  0
VERTEX
  5
36D
  8
1
  6
CONTINUOUS
 62
     7
 10
71.01271491585177
 20
222.8948989426976
 30
0.0
  0
VERTEX
  5
36E
  8
1
  6
CONTINUOUS
 62
     7
 10
70.97734333572468
 20
222.9027109039318
 30
0.0
  0
VERTEX
  5
36F
  8
1
  6
CONTINUOUS
 62
     7
 10
70.9416358153572
 20
222.9088058533341
 30
0.0
  0
VERTEX
  5
370
  8
1
  6
CONTINUOUS
 62
     7
 10
70.9056756516924
 20
222.913169572873
 30
0.0
  0
VERTEX
  5
371
  8
1
  6
CONTINUOUS
 62
     7
 10
70.86954673102869
 20
222.915791883054
 30
0.0
  0
VERTEX
  5
372
  8
1
  6
CONTINUOUS
 62
     7
 10
70.83333333333331
 20
222.9166666666667
 30
0.0
  0
VERTEX
  5
373
  8
1
  6
CONTINUOUS
 62
     7
 10
70.79711993563797
 20
222.915791883054
 30
0.0
  0
VERTEX
  5
374
  8
1
  6
CONTINUOUS
 62
     7
 10
70.76099101497422
 20
222.913169572873
 30
0.0
  0
VERTEX
  5
375
  8
1
  6
CONTINUOUS
 62
     7
 10
70.72503085130944
 20
222.9088058533341
 30
0.0
  0
VERTEX
  5
376
  8
1
  6
CONTINUOUS
 62
     7
 10
70.68932333094195
 20
222.9027109039318
 30
0.0
  0
VERTEX
  5
377
  8
1
  6
CONTINUOUS
 62
     7
 10
70.65395175081487
 20
222.8948989426976
 30
0.0
  0
VERTEX
  5
378
  8
1
  6
CONTINUOUS
 62
     7
 10
70.61899862420461
 20
222.8853881930332
 30
0.0
  0
VERTEX
  5
379
  8
1
  6
CONTINUOUS
 62
     7
 10
70.58454548823747
 20
222.8742008412
 30
0.0
  0
VERTEX
  5
37A
  8
1
  6
CONTINUOUS
 62
     7
 10
70.55067271368344
 20
222.8613629845633
 30
0.0
  0
VERTEX
  5
37B
  8
1
  6
CONTINUOUS
 62
     7
 10
70.51745931747081
 20
222.8469045707141
 30
0.0
  0
VERTEX
  5
37C
  8
1
  6
CONTINUOUS
 62
     7
 10
70.48498277835883
 20
222.8308593276085
 30
0.0
  0
VERTEX
  5
37D
  8
1
  6
CONTINUOUS
 62
     7
 10
70.45331885619873
 20
222.8132646848883
 30
0.0
  0
VERTEX
  5
37E
  8
1
  6
CONTINUOUS
 62
     7
 10
70.42254141520445
 20
222.7941616865672
 30
0.0
  0
VERTEX
  5
37F
  8
1
  6
CONTINUOUS
 62
     7
 10
70.39272225164535
 20
222.773594895285
 30
0.0
  0
VERTEX
  5
380
  8
1
  6
CONTINUOUS
 62
     7
 10
70.36393092636311
 20
222.7516122883535
 30
0.0
  0
VERTEX
  5
381
  8
1
  6
CONTINUOUS
 62
     7
 10
70.3362346025032
 20
222.7282651458376
 30
0.0
  0
VERTEX
  5
382
  8
1
  6
CONTINUOUS
 62
     7
 10
70.30969788883958
 20
222.703607930931
 30
0.0
  0
VERTEX
  5
383
  8
1
  6
CONTINUOUS
 62
     7
 10
70.28438268905825
 20
222.6776981629073
 30
0.0
  0
VERTEX
  5
384
  8
1
  6
CONTINUOUS
 62
     7
 10
70.260348057351
 20
222.650596282941
 30
0.0
  0
VERTEX
  5
385
  8
1
  6
CONTINUOUS
 62
     7
 10
70.23765006065636
 20
222.6223655131134
 30
0.0
  0
VERTEX
  5
386
  8
1
  6
CONTINUOUS
 62
     7
 10
70.21634164786914
 20
222.5930717089306
 30
0.0
  0
VERTEX
  5
387
  8
1
  6
CONTINUOUS
 62
     7
 10
70.19647252632353
 20
222.5627832056988
 30
0.0
  0
VERTEX
  5
388
  8
1
  6
CONTINUOUS
 62
     7
 10
70.178089045838
 20
222.531570659115
 30
0.0
  0
VERTEX
  5
389
  8
1
  6
CONTINUOUS
 62
     7
 10
70.16123409059246
 20
222.4995068804437
 30
0.0
  0
VERTEX
  5
38A
  8
1
  6
CONTINUOUS
 62
     7
 10
70.14594697908994
 20
222.4666666666666
 30
0.0
  0
SEQEND
  5
3D6
  8
1
  6
CONTINUOUS
 62
     7
  0
POLYLINE
  5
135
  8
1
  6
CONTINUOUS
 62
     7
 66
     1
 10
0.0
 20
0.0
 30
0.0
  0
VERTEX
  5
38B
  8
1
  6
CONTINUOUS
 62
     7
 10
71.52071968757672
 20
195.8666666666666
 30
0.0
  0
VERTEX
  5
38C
  8
1
  6
CONTINUOUS
 62
     7
 10
71.50543257607421
 20
195.8338264528896
 30
0.0
  0
VERTEX
  5
38D
  8
1
  6
CONTINUOUS
 62
     7
 10
71.48857762082866
 20
195.8017626742183
 30
0.0
  0
VERTEX
  5
38E
  8
1
  6
CONTINUOUS
 62
     7
 10
71.47019414034311
 20
195.7705501276345
 30
0.0
  0
VERTEX
  5
38F
  8
1
  6
CONTINUOUS
 62
     7
 10
71.4503250187975
 20
195.7402616244028
 30
0.0
  0
VERTEX
  5
390
  8
1
  6
CONTINUOUS
 62
     7
 10
71.4290166060103
 20
195.71096782022
 30
0.0
  0
VERTEX
  5
391
  8
1
  6
CONTINUOUS
 62
     7
 10
71.40631860931565
 20
195.6827370503923
 30
0.0
  0
VERTEX
  5
392
  8
1
  6
CONTINUOUS
 62
     7
 10
71.3822839776084
 20
195.655635170426
 30
0.0
  0
VERTEX
  5
393
  8
1
  6
CONTINUOUS
 62
     7
 10
71.35696877782708
 20
195.6297254024023
 30
0.0
  0
VERTEX
  5
394
  8
1
  6
CONTINUOUS
 62
     7
 10
71.33043206416345
 20
195.6050681874958
 30
0.0
  0
VERTEX
  5
395
  8
1
  6
CONTINUOUS
 62
     7
 10
71.30273574030353
 20
195.5817210449798
 30
0.0
  0
VERTEX
  5
396
  8
1
  6
CONTINUOUS
 62
     7
 10
71.2739444150213
 20
195.5597384380484
 30
0.0
  0
VERTEX
  5
397
  8
1
  6
CONTINUOUS
 62
     7
 10
71.24412525146221
 20
195.5391716467661
 30
0.0
  0
VERTEX
  5
398
  8
1
  6
CONTINUOUS
 62
     7
 10
71.21334781046791
 20
195.520068648445
 30
0.0
  0
VERTEX
  5
399
  8
1
  6
CONTINUOUS
 62
     7
 10
71.18168388830783
 20
195.5024740057248
 30
0.0
  0
VERTEX
  5
39A
  8
1
  6
CONTINUOUS
 62
     7
 10
71.14920734919585
 20
195.4864287626192
 30
0.0
  0
VERTEX
  5
39B
  8
1
  6
CONTINUOUS
 62
     7
 10
71.1159939529832
 20
195.47197034877
 30
0.0
  0
VERTEX
  5
39C
  8
1
  6
CONTINUOUS
 62
     7
 10
71.08212117842919
 20
195.4591324921333
 30
0.0
  0
VERTEX
  5
39D
  8
1
  6
CONTINUOUS
 62
     7
 10
71.04766804246204
 20
195.4479451403001
 30
0.0
  0
VERTEX
  5
39E
  8
1
  6
CONTINUOUS
 62
     7
 10
71.01271491585177
 20
195.4384343906357
 30
0.0
  0
VERTEX
  5
39F
  8
1
  6
CONTINUOUS
 62
     7
 10
70.97734333572468
 20
195.4306224294015
 30
0.0
  0
VERTEX
  5
3A0
  8
1
  6
CONTINUOUS
 62
     7
 10
70.9416358153572
 20
195.4245274799992
 30
0.0
  0
VERTEX
  5
3A1
  8
1
  6
CONTINUOUS
 62
     7
 10
70.9056756516924
 20
195.4201637604604
 30
0.0
  0
VERTEX
  5
3A2
  8
1
  6
CONTINUOUS
 62
     7
 10
70.86954673102869
 20
195.4175414502793
 30
0.0
  0
VERTEX
  5
3A3
  8
1
  6
CONTINUOUS
 62
     7
 10
70.83333333333331
 20
195.4166666666667
 30
0.0
  0
VERTEX
  5
3A4
  8
1
  6
CONTINUOUS
 62
     7
 10
70.79711993563797
 20
195.4175414502793
 30
0.0
  0
VERTEX
  5
3A5
  8
1
  6
CONTINUOUS
 62
     7
 10
70.76099101497422
 20
195.4201637604604
 30
0.0
  0
VERTEX
  5
3A6
  8
1
  6
CONTINUOUS
 62
     7
 10
70.72503085130944
 20
195.4245274799992
 30
0.0
  0
VERTEX
  5
3A7
  8
1
  6
CONTINUOUS
 62
     7
 10
70.68932333094195
 20
195.4306224294015
 30
0.0
  0
VERTEX
  5
3A8
  8
1
  6
CONTINUOUS
 62
     7
 10
70.65395175081487
 20
195.4384343906357
 30
0.0
  0
VERTEX
  5
3A9
  8
1
  6
CONTINUOUS
 62
     7
 10
70.61899862420461
 20
195.4479451403001
 30
0.0
  0
VERTEX
  5
3AA
  8
1
  6
CONTINUOUS
 62
     7
 10
70.58454548823747
 20
195.4591324921333
 30
0.0
  0
VERTEX
  5
3AB
  8
1
  6
CONTINUOUS
 62
     7
 10
70.55067271368344
 20
195.47197034877
 30
0.0
  0
VERTEX
  5
3AC
  8
1
  6
CONTINUOUS
 62
     7
 10
70.51745931747081
 20
195.4864287626192
 30
0.0
  0
VERTEX
  5
3AD
  8
1
  6
CONTINUOUS
 62
     7
 10
70.48498277835883
 20
195.5024740057249
 30
0.0
  0
VERTEX
  5
3AE
  8
1
  6
CONTINUOUS
 62
     7
 10
70.45331885619873
 20
195.5200686484451
 30
0.0
  0
VERTEX
  5
3AF
  8
1
  6
CONTINUOUS
 62
     7
 10
70.42254141520445
 20
195.5391716467661
 30
0.0
  0
VERTEX
  5
3B0
  8
1
  6
CONTINUOUS
 62
     7
 10
70.39272225164535
 20
195.5597384380484
 30
0.0
  0
VERTEX
  5
3B1
  8
1
  6
CONTINUOUS
 62
     7
 10
70.36393092636311
 20
195.5817210449798
 30
0.0
  0
VERTEX
  5
3B2
  8
1
  6
CONTINUOUS
 62
     7
 10
70.3362346025032
 20
195.6050681874958
 30
0.0
  0
VERTEX
  5
3B3
  8
1
  6
CONTINUOUS
 62
     7
 10
70.30969788883958
 20
195.6297254024023
 30
0.0
  0
VERTEX
  5
3B4
  8
1
  6
CONTINUOUS
 62
     7
 10
70.28438268905825
 20
195.655635170426
 30
0.0
  0
VERTEX
  5
3B5
  8
1
  6
CONTINUOUS
 62
     7
 10
70.260348057351
 20
195.6827370503923
 30
0.0
  0
VERTEX
  5
3B6
  8
1
  6
CONTINUOUS
 62
     7
 10
70.23765006065636
 20
195.71096782022
 30
0.0
  0
VERTEX
  5
3B7
  8
1
  6
CONTINUOUS
 62
     7
 10
70.21634164786914
 20
195.7402616244028
 30
0.0
  0
VERTEX
  5
3B8
  8
1
  6
CONTINUOUS
 62
     7
 10
70.19647252632353
 20
195.7705501276345
 30
0.0
  0
VERTEX
  5
3B9
  8
1
  6
CONTINUOUS
 62
     7
 10
70.178089045838
 20
195.8017626742183
 30
0.0
  0
VERTEX
  5
3BA
  8
1
  6
CONTINUOUS
 62
     7
 10
70.16123409059246
 20
195.8338264528897
 30
0.0
  0
VERTEX
  5
3BB
  8
1
  6
CONTINUOUS
 62
     7
 10
70.14594697908994
 20
195.8666666666667
 30
0.0
  0
SEQEND
  5
3D7
  8
1
  6
CONTINUOUS
 62
     7
  0
LINE
  5
136
  8
1
  6
CONTINUOUS
 62
     7
 10
82.0511976330085
 20
205.4842801454838
 30
0.0
 11
82.05120365310923
 21
205.4849699806994
 31
0.0
  0
LINE
  5
137
  8
1
  6
CONTINUOUS
 62
     7
 10
82.05120365310923
 20
205.4849699806994
 30
0.0
 11
82.08333333333333
 21
209.1666666666667
 31
0.0
  0
LINE
  5
138
  8
1
  6
CONTINUOUS
 62
     7
 10
59.58333333333333
 20
209.1666666666667
 30
0.0
 11
59.61546301355744
 21
205.4849699806994
 31
0.0
  0
LINE
  5
139
  8
1
  6
CONTINUOUS
 62
     7
 10
59.61546301355744
 20
205.4849699806994
 30
0.0
 11
59.61546903365817
 21
205.4842801454838
 31
0.0
  0
LINE
  5
13A
  8
1
  6
CONTINUOUS
 62
     7
 10
59.61546903365817
 20
212.8490531878495
 30
0.0
 11
59.61546301355744
 21
212.8483633526339
 31
0.0
  0
LINE
  5
13B
  8
1
  6
CONTINUOUS
 62
     7
 10
59.61546301355744
 20
212.8483633526339
 30
0.0
 11
59.58333333333333
 21
209.1666666666667
 31
0.0
  0
LINE
  5
13C
  8
1
  6
CONTINUOUS
 62
     7
 10
82.08333333333333
 20
209.1666666666667
 30
0.0
 11
82.05120365310923
 21
212.8483633526339
 31
0.0
  0
LINE
  5
13D
  8
1
  6
CONTINUOUS
 62
     7
 10
82.05120365310923
 20
212.8483633526339
 30
0.0
 11
82.0511976330085
 21
212.8490531878495
 31
0.0
  0
ARC
  5
13E
  8
1
  6
CONTINUOUS
 62
     7
 10
61.61538685968581
 20
212.8309102816371
 30
0.0
 40
2.000000000000004
 50
170.0000000000001
 51
179.5000000000001
  0
ARC
  5
13F
  8
1
  6
CONTINUOUS
 62
     7
 10
61.61538685968581
 20
205.5024230516962
 30
0.0
 40
1.999999999999999
 50
180.5
 51
190.0000000000001
  0
ARC
  5
140
  8
1
  6
CONTINUOUS
 62
     7
 10
80.05127980698084
 20
205.5024230516962
 30
0.0
 40
2.00000000000001
 50
349.9999999999999
 51
359.5000000000001
  0
ARC
  5
141
  8
1
  6
CONTINUOUS
 62
     7
 10
80.05127980698084
 20
212.8309102816371
 30
0.0
 40
2.000000000000006
 50
0.4999999999999458
 51
10.00000000000005
  0
ENDBLK
  8
0
  0
ENDSEC
  0
SECTION
  2
ENTITIES
  0
TEXT
  5
71
  8
3
  6
CONTINUOUS
 62
     7
 10
100.8848213913551
 20
110.5185715476637
 30
0.0
 40
3.0
  1
GSFY-10
  0
INSERT
  5
AB
  8
1
  6
DOT
 62
     7
  2
D_FRAME_VIEW_1472
 10
0.0
 20
0.0
 30
0.0
  0
LINE
  5
AD
  8
3
  6
CENTER
 62
     1
 10
57.58333333333334
 20
148.6604302168313
 30
0.0
 11
84.08333333333333
 21
148.6604302168313
 31
0.0
  0
LINE
  5
AF
  8
3
  6
CENTER
 62
     1
 10
57.58325536624957
 20
209.1664592254247
 30
0.0
 11
84.0834113004171
 21
209.1664592254247
 31
0.0
  0
LINE
  5
B0
  8
3
  6
CENTER
 62
     1
 10
70.83333333333333
 20
192.1666666666667
 30
0.0
 11
70.83333333333333
 21
226.1666666666667
 31
0.0
  0
LINE
  5
B1
  8
3
  6
CENTER
 62
     1
 10
143.3333333333333
 20
132.4104302168313
 30
0.0
 11
143.3333333333333
 21
159.2069890935237
 31
0.0
  0
LINE
  5
B2
  8
3
  6
CENTER
 62
     1
 10
126.3333333333333
 20
148.2765869565415
 30
0.0
 11
160.3333333333333
 21
148.2765869565415
 31
0.0
  0
LINE
  5
B3
  8
3
  6
CENTER
 62
     1
 10
70.83333333333333
 20
132.4104302168313
 30
0.0
 11
70.83333333333333
 21
161.9104302168313
 31
0.0
  0
INSERT
  5
F6
  8
1
  6
DOT
 62
     7
  2
D_FRAME_VIEW_1587
 10
0.0
 20
0.0
 30
0.0
  0
INSERT
  5
142
  8
1
  6
DOT
 62
     7
  2
D_FRAME_VIEW_1673
 10
0.0
 20
0.0
 30
0.0
  0
ENDSEC
  0
EOF
