  0
SECTION
  2
HEADER
  9
$ACADVER
  1
AC1006
  9
$DWGCODEPAGE
  3
ansi_932
  9
$INSBASE
 10
0.0
 20
0.0
 30
0.0
  9
$EXTMIN
 10
55.58325536624957
 20
110.8606060606061
  9
$EXTMAX
 10
160.3333333333333
 20
226.1666666666667
  9
$LIMMIN
 10
0.0
 20
0.0
  9
$LIMMAX
 10
12.0
 20
9.0
  9
$ORTHOMODE
 70
     0
  9
$REGENMODE
 70
     1
  9
$FILLMODE
 70
     1
  9
$QTEXTMODE
 70
     0
  9
$MIRRTEXT
 70
     1
  9
$DRAGMODE
 70
     2
  9
$LTSCALE
 40
1.0
  9
$OSMODE
 70
    37
  9
$ATTMODE
 70
     1
  9
$TEXTSIZE
 40
0.2
  9
$TRACEWID
 40
0.05
  9
$TEXTSTYLE
  7
STANDARD
  9
$CLAYER
  8
0
  9
$CELTYPE
  6
BYLAYER
  9
$CECOLOR
 62
   256
  9
$DIMSCALE
 40
1.0
  9
$DIMASZ
 40
3.0
  9
$DIMEXO
 40
0.0625
  9
$DIMDLI
 40
0.38
  9
$DIMRND
 40
0.0
  9
$DIMDLE
 40
0.0
  9
$DIMEXE
 40
1.5
  9
$DIMTP
 40
0.0
  9
$DIMTM
 40
0.0
  9
$DIMTXT
 40
3.0
  9
$DIMCEN
 40
0.09
  9
$DIMTSZ
 40
0.0
  9
$DIMTOL
 70
     0
  9
$DIMLIM
 70
     0
  9
$DIMTIH
 70
     1
  9
$DIMTOH
 70
     1
  9
$DIMSE1
 70
     0
  9
$DIMSE2
 70
     0
  9
$DIMTAD
 70
     1
  9
$DIMZIN
 70
     0
  9
$DIMBLK
  1

  9
$DIMASO
 70
     1
  9
$DIMSHO
 70
     1
  9
$DIMPOST
  1

  9
$DIMAPOST
  1

  9
$DIMALT
 70
     0
  9
$DIMALTD
 70
     2
  9
$DIMALTF
 40
25.4
  9
$DIMLFAC
 40
1.0
  9
$DIMTOFL
 70
     0
  9
$DIMTVP
 40
0.0
  9
$DIMTIX
 70
     0
  9
$DIMSOXD
 70
     0
  9
$DIMSAH
 70
     0
  9
$DIMBLK1
  1

  9
$DIMBLK2
  1

  9
$LUNITS
 70
     2
  9
$LUPREC
 70
     4
  9
$SKETCHINC
 40
0.1
  9
$FILLETRAD
 40
0.5
  9
$AUNITS
 70
     0
  9
$AUPREC
 70
     0
  9
$MENU
  1
.
  9
$ELEVATION
 40
0.0
  9
$THICKNESS
 40
0.0
  9
$LIMCHECK
 70
     0
  9
$CHAMFERA
 40
0.0
  9
$CHAMFERB
 40
0.0
  9
$SKPOLY
 70
     0
  9
$TDCREATE
 40
2460910.431011389
  9
$TDUPDATE
 40
2460910.43101147
  9
$TDINDWG
 40
0.0000000116
  9
$TDUSRTIMER
 40
0.0000000116
  9
$USRTIMER
 70
     1
  9
$ANGBASE
 50
0.0
  9
$ANGDIR
 70
     0
  9
$PDMODE
 70
     0
  9
$PDSIZE
 40
0.0
  9
$PLINEWID
 40
0.0
  9
$COORDS
 70
     1
  9
$SPLFRAME
 70
     0
  9
$SPLINETYPE
 70
     6
  9
$SPLINESEGS
 70
     8
  9
$ATTDIA
 70
     0
  9
$ATTREQ
 70
     1
  9
$HANDLING
 70
     1
  9
$HANDSEED
  5
3FE
  9
$SURFTAB1
 70
     6
  9
$SURFTAB2
 70
     6
  9
$SURFTYPE
 70
     6
  9
$SURFU
 70
     6
  9
$SURFV
 70
     6
  9
$UCSNAME
  2

  9
$UCSORG
 10
0.0
 20
0.0
 30
0.0
  9
$UCSXDIR
 10
1.0
 20
0.0
 30
0.0
  9
$UCSYDIR
 10
0.0
 20
1.0
 30
0.0
  9
$USERI1
 70
     0
  9
$USERI2
 70
     0
  9
$USERI3
 70
     0
  9
$USERI4
 70
     0
  9
$USERI5
 70
     0
  9
$USERR1
 40
0.0
  9
$USERR2
 40
0.0
  9
$USERR3
 40
0.0
  9
$USERR4
 40
0.0
  9
$USERR5
 40
0.0
  9
$WORLDVIEW
 70
     1
  0
ENDSEC
  0
SECTION
  2
TABLES
  0
TABLE
  2
VPORT
 70
     1
  0
VPORT
  2
*ACTIVE
 70
     0
 10
0.0
 20
0.0
 11
1.0
 21
1.0
 12
107.9582943497915
 22
168.5136363636364
 13
0.0
 23
0.0
 14
0.5
 24
0.5
 15
0.5
 25
0.5
 16
0.0
 26
0.0
 36
1.0
 17
0.0
 27
0.0
 37
0.0
 40
115.3060606060606
 41
1.6
 42
50.0
 43
0.0
 44
0.0
 50
0.0
 51
0.0
 71
     0
 72
   100
 73
     1
 74
     3
 75
     0
 76
     0
 77
     0
 78
     0
  0
ENDTAB
  0
TABLE
  2
LTYPE
 70
     3
  0
LTYPE
  2
CONTINUOUS
 70
     0
  3
Solid line
 72
    65
 73
     0
 40
0.0
  0
LTYPE
  2
CENTER
 70
     0
  3

 72
    65
 73
     0
 40
0.0
  0
LTYPE
  2
DOT
 70
     0
  3

 72
    65
 73
     0
 40
0.0
  0
ENDTAB
  0
TABLE
  2
LAYER
 70
     3
  0
LAYER
  2
0
 70
     0
 62
     7
  6
CONTINUOUS
  0
LAYER
  2
1
 70
     0
 62
     7
  6
CONTINUOUS
  0
LAYER
  2
3
 70
     0
 62
     7
  6
CONTINUOUS
  0
ENDTAB
  0
TABLE
  2
STYLE
 70
     2
  0
STYLE
  2
STANDARD
 70
     0
 40
0.0
 41
1.0
 50
0.0
 71
     0
 42
0.2
  3
txt
  4

  0
STYLE
  2
ＭＳ_ゴシック
 70
     0
 40
0.0
 41
1.0
 50
0.0
 71
     0
 42
0.2
  3
ＭＳ ゴシック.shx
  4

  0
ENDTAB
  0
TABLE
  2
VIEW
 70
     0
  0
ENDTAB
  0
TABLE
  2
UCS
 70
     0
  0
ENDTAB
  0
ENDSEC
  0
SECTION
  2
BLOCKS
  0
BLOCK
  8
0
  2
D_FRAME_VIEW_1472
 70
     0
 10
0.0
 20
0.0
 30
0.0
  0
ARC
  5
79
  8
1
  6
CONTINUOUS
 62
     7
 10
70.83333333333333
 20
149.0079596285333
 30
0.0
 40
13.25000000000001
 50
311.8040070627396
 51
46.26402299655331
  0
ARC
  5
7A
  8
1
  6
CONTINUOUS
 62
     7
 10
70.65162803648738
 20
149.3710755006753
 30
0.0
 40
13.54211088192213
 50
300.1339412620844
 51
311.1553330191458
  0
ARC
  5
7B
  8
1
  6
CONTINUOUS
 62
     7
 10
78.09403783758536
 20
143.7023750535225
 30
0.0
 40
4.135136660322027
 50
323.8197605559547
 51
0.4596099795985538
  0
ARC
  5
7C
  8
1
  6
CONTINUOUS
 62
     7
 10
78.09660852544907
 20
154.3143725472285
 30
0.0
 40
4.132572787023348
 50
359.5286199744557
 51
36.19200948999156
  0
ARC
  5
7D
  8
1
  6
CONTINUOUS
 62
     7
 10
71.01503863017929
 20
149.3710755006753
 30
0.0
 40
13.54211088192213
 50
228.8446669808543
 51
239.8660587379156
  0
ARC
  5
7E
  8
1
  6
CONTINUOUS
 62
     7
 10
70.83333333333333
 20
149.0079596285333
 30
0.0
 40
13.25000000000001
 50
133.7359770034467
 51
228.1959929372604
  0
ARC
  5
7F
  8
1
  6
CONTINUOUS
 62
     7
 10
63.57005814121754
 20
154.3143725472285
 30
0.0
 40
4.132572787023297
 50
143.8079905100079
 51
180.4713800255444
  0
ARC
  5
80
  8
1
  6
CONTINUOUS
 62
     7
 10
63.57262882908117
 20
143.7023750535224
 30
0.0
 40
4.135136660321902
 50
179.540390020401
 51
216.180239444046
  0
ARC
  5
81
  8
1
  6
CONTINUOUS
 62
     7
 10
70.83333333333333
 20
149.0079596285333
 30
0.0
 40
9.749999999999996
 50
140.0000000000004
 51
153.823047828334
  0
LINE
  5
82
  8
1
  6
CONTINUOUS
 62
     7
 10
62.08333333333329
 20
153.3091222620545
 30
0.0
 11
61.58333333333329
 21
152.1039418637075
 31
0.0
  0
ARC
  5
83
  8
1
  6
CONTINUOUS
 62
     7
 10
70.83333333333333
 20
149.0079596285333
 30
0.0
 40
9.754363433895382
 50
161.494565985214
 51
198.505434014786
  0
LINE
  5
84
  8
1
  6
CONTINUOUS
 62
     7
 10
61.58333333333329
 20
145.911977393359
 30
0.0
 11
62.08333333333329
 21
144.706796995012
 31
0.0
  0
ARC
  5
85
  8
1
  6
CONTINUOUS
 62
     7
 10
70.83333333333333
 20
149.0079596285333
 30
0.0
 40
9.749999999999996
 50
206.176952171666
 51
237.5485674156146
  0
LINE
  5
86
  8
1
  6
CONTINUOUS
 62
     7
 10
80.08333333333337
 20
145.911977393359
 30
0.0
 11
79.58333333333337
 21
144.706796995012
 31
0.0
  0
ARC
  5
87
  8
1
  6
CONTINUOUS
 62
     7
 10
70.83333333333333
 20
149.0079596285333
 30
0.0
 40
9.754363433895382
 50
341.494565985214
 51
18.50543401478603
  0
LINE
  5
88
  8
1
  6
CONTINUOUS
 62
     7
 10
79.58333333333337
 20
153.3091222620545
 30
0.0
 11
80.08333333333337
 21
152.1039418637075
 31
0.0
  0
ARC
  5
89
  8
1
  6
CONTINUOUS
 62
     7
 10
70.83333333333333
 20
149.0079596285333
 30
0.0
 40
9.749999999999996
 50
26.17695217166602
 51
39.9999999999996
  0
ARC
  5
8A
  8
1
  6
CONTINUOUS
 62
     7
 10
70.83333333333333
 20
149.0079596285333
 30
0.0
 40
9.749999999999996
 50
302.4514325843854
 51
333.823047828334
  0
LINE
  5
8B
  8
1
  6
CONTINUOUS
 62
     7
 10
82.22904145516829
 20
154.2803737028616
 30
0.0
 11
82.22904145516827
 21
143.7355455542052
 31
0.0
  0
LINE
  5
8C
  8
1
  6
CONTINUOUS
 62
     7
 10
59.43762521149838
 20
154.2803737028616
 30
0.0
 11
59.43762521149839
 21
143.7355455542052
 31
0.0
  0
POLYLINE
  5
8D
  8
1
  6
CONTINUOUS
 62
     7
 66
     1
 10
0.0
 20
0.0
 30
0.0
  0
VERTEX
  5
15E
  8
1
  6
CONTINUOUS
 62
     7
 10
75.83333333333333
 20
140.3585481378852
 30
0.0
  0
VERTEX
  5
15F
  8
1
  6
CONTINUOUS
 62
     7
 10
75.83376649954981
 20
140.3793157749829
 30
0.0
  0
VERTEX
  5
160
  8
1
  6
CONTINUOUS
 62
     7
 10
75.835063024305
 20
140.4000654276736
 30
0.0
  0
VERTEX
  5
161
  8
1
  6
CONTINUOUS
 62
     7
 10
75.83721844675749
 20
140.4207435128069
 30
0.0
  0
VERTEX
  5
162
  8
1
  6
CONTINUOUS
 62
     7
 10
75.84022830606588
 20
140.4412964472322
 30
0.0
  0
VERTEX
  5
163
  8
1
  6
CONTINUOUS
 62
     7
 10
75.8442176005835
 20
140.4622962330866
 30
0.0
  0
VERTEX
  5
164
  8
1
  6
CONTINUOUS
 62
     7
 10
75.84910531016331
 20
140.4831253758468
 30
0.0
  0
VERTEX
  5
165
  8
1
  6
CONTINUOUS
 62
     7
 10
75.85487683874179
 20
140.5037271316364
 30
0.0
  0
VERTEX
  5
166
  8
1
  6
CONTINUOUS
 62
     7
 10
75.86151759025533
 20
140.5240447565792
 30
0.0
  0
VERTEX
  5
167
  8
1
  6
CONTINUOUS
 62
     7
 10
75.8688005222447
 20
140.543498328517
 30
0.0
  0
VERTEX
  5
168
  8
1
  6
CONTINUOUS
 62
     7
 10
75.87689221385344
 20
140.5626491458277
 30
0.0
  0
VERTEX
  5
169
  8
1
  6
CONTINUOUS
 62
     7
 10
75.88577071550229
 20
140.581448121398
 30
0.0
  0
VERTEX
  5
16A
  8
1
  6
CONTINUOUS
 62
     7
 10
75.89541407761199
 20
140.5998461681149
 30
0.0
  0
VERTEX
  5
16B
  8
1
  6
CONTINUOUS
 62
     7
 10
75.9061295985023
 20
140.6183416881726
 30
0.0
  0
VERTEX
  5
16C
  8
1
  6
CONTINUOUS
 62
     7
 10
75.91763641629707
 20
140.6363787952244
 30
0.0
  0
VERTEX
  5
16D
  8
1
  6
CONTINUOUS
 62
     7
 10
75.92990197125047
 20
140.6539087767304
 30
0.0
  0
VERTEX
  5
16E
  8
1
  6
CONTINUOUS
 62
     7
 10
75.9428937036167
 20
140.6708829201509
 30
0.0
  0
VERTEX
  5
16F
  8
1
  6
CONTINUOUS
 62
     7
 10
75.95590336068354
 20
140.6864820758772
 30
0.0
  0
VERTEX
  5
170
  8
1
  6
CONTINUOUS
 62
     7
 10
75.96954715967321
 20
140.70155238574
 30
0.0
  0
VERTEX
  5
171
  8
1
  6
CONTINUOUS
 62
     7
 10
75.9837906067436
 20
140.7160572715753
 30
0.0
  0
VERTEX
  5
172
  8
1
  6
CONTINUOUS
 62
     7
 10
75.99859920805258
 20
140.7299601552189
 30
0.0
  0
VERTEX
  5
173
  8
1
  6
CONTINUOUS
 62
     7
 10
76.01439567937918
 20
140.7436068854028
 30
0.0
  0
VERTEX
  5
174
  8
1
  6
CONTINUOUS
 62
     7
 10
76.03076230969343
 20
140.7565936768332
 30
0.0
  0
VERTEX
  5
175
  8
1
  6
CONTINUOUS
 62
     7
 10
76.04765565168964
 20
140.7688875105925
 30
0.0
  0
VERTEX
  5
176
  8
1
  6
CONTINUOUS
 62
     7
 10
76.0650322580621
 20
140.7804553677631
 30
0.0
  0
SEQEND
  5
3DE
  8
1
  6
CONTINUOUS
 62
     7
  0
POLYLINE
  5
8E
  8
1
  6
CONTINUOUS
 62
     7
 66
     1
 10
0.0
 20
0.0
 30
0.0
  0
VERTEX
  5
177
  8
1
  6
CONTINUOUS
 62
     7
 10
65.83333333333333
 20
140.3585481378852
 30
0.0
  0
VERTEX
  5
178
  8
1
  6
CONTINUOUS
 62
     7
 10
65.83290016711685
 20
140.3793157749829
 30
0.0
  0
VERTEX
  5
179
  8
1
  6
CONTINUOUS
 62
     7
 10
65.83160364236167
 20
140.4000654276736
 30
0.0
  0
VERTEX
  5
17A
  8
1
  6
CONTINUOUS
 62
     7
 10
65.82944821990917
 20
140.4207435128069
 30
0.0
  0
VERTEX
  5
17B
  8
1
  6
CONTINUOUS
 62
     7
 10
65.82643836060079
 20
140.4412964472322
 30
0.0
  0
VERTEX
  5
17C
  8
1
  6
CONTINUOUS
 62
     7
 10
65.82244906608315
 20
140.4622962330866
 30
0.0
  0
VERTEX
  5
17D
  8
1
  6
CONTINUOUS
 62
     7
 10
65.81756135650335
 20
140.4831253758468
 30
0.0
  0
VERTEX
  5
17E
  8
1
  6
CONTINUOUS
 62
     7
 10
65.81178982792487
 20
140.5037271316364
 30
0.0
  0
VERTEX
  5
17F
  8
1
  6
CONTINUOUS
 62
     7
 10
65.80514907641133
 20
140.5240447565792
 30
0.0
  0
VERTEX
  5
180
  8
1
  6
CONTINUOUS
 62
     7
 10
65.79786614442197
 20
140.543498328517
 30
0.0
  0
VERTEX
  5
181
  8
1
  6
CONTINUOUS
 62
     7
 10
65.78977445281322
 20
140.5626491458277
 30
0.0
  0
VERTEX
  5
182
  8
1
  6
CONTINUOUS
 62
     7
 10
65.78089595116437
 20
140.581448121398
 30
0.0
  0
VERTEX
  5
183
  8
1
  6
CONTINUOUS
 62
     7
 10
65.77125258905467
 20
140.5998461681149
 30
0.0
  0
VERTEX
  5
184
  8
1
  6
CONTINUOUS
 62
     7
 10
65.76053706816435
 20
140.6183416881726
 30
0.0
  0
VERTEX
  5
185
  8
1
  6
CONTINUOUS
 62
     7
 10
65.74903025036959
 20
140.6363787952244
 30
0.0
  0
VERTEX
  5
186
  8
1
  6
CONTINUOUS
 62
     7
 10
65.73676469541618
 20
140.6539087767304
 30
0.0
  0
VERTEX
  5
187
  8
1
  6
CONTINUOUS
 62
     7
 10
65.72377296304995
 20
140.6708829201509
 30
0.0
  0
VERTEX
  5
188
  8
1
  6
CONTINUOUS
 62
     7
 10
65.71076330598312
 20
140.6864820758772
 30
0.0
  0
VERTEX
  5
189
  8
1
  6
CONTINUOUS
 62
     7
 10
65.69711950699345
 20
140.70155238574
 30
0.0
  0
VERTEX
  5
18A
  8
1
  6
CONTINUOUS
 62
     7
 10
65.68287605992306
 20
140.7160572715753
 30
0.0
  0
VERTEX
  5
18B
  8
1
  6
CONTINUOUS
 62
     7
 10
65.66806745861408
 20
140.7299601552189
 30
0.0
  0
VERTEX
  5
18C
  8
1
  6
CONTINUOUS
 62
     7
 10
65.65227098728748
 20
140.7436068854028
 30
0.0
  0
VERTEX
  5
18D
  8
1
  6
CONTINUOUS
 62
     7
 10
65.63590435697324
 20
140.7565936768332
 30
0.0
  0
VERTEX
  5
18E
  8
1
  6
CONTINUOUS
 62
     7
 10
65.61901101497702
 20
140.7688875105925
 30
0.0
  0
VERTEX
  5
18F
  8
1
  6
CONTINUOUS
 62
     7
 10
65.60163440860455
 20
140.7804553677631
 30
0.0
  0
SEQEND
  5
3DF
  8
1
  6
CONTINUOUS
 62
     7
  0
POLYLINE
  5
8F
  8
1
  6
CONTINUOUS
 62
     7
 66
     1
 10
0.0
 20
0.0
 30
0.0
  0
VERTEX
  5
190
  8
1
  6
CONTINUOUS
 62
     7
 10
63.36440001292325
 20
157.8590186748529
 30
0.0
  0
VERTEX
  5
191
  8
1
  6
CONTINUOUS
 62
     7
 10
63.35387749794792
 20
158.0030617163763
 30
0.0
  0
VERTEX
  5
192
  8
1
  6
CONTINUOUS
 62
     7
 10
63.32281249691822
 20
158.1443677049158
 30
0.0
  0
VERTEX
  5
193
  8
1
  6
CONTINUOUS
 62
     7
 10
63.27177860613982
 20
158.2792368349637
 30
0.0
  0
VERTEX
  5
194
  8
1
  6
CONTINUOUS
 62
     7
 10
63.20160577448802
 20
158.4058595754759
 30
0.0
  0
VERTEX
  5
195
  8
1
  6
CONTINUOUS
 62
     7
 10
63.11429899317574
 20
158.5206172247491
 30
0.0
  0
VERTEX
  5
196
  8
1
  6
CONTINUOUS
 62
     7
 10
63.01095848148021
 20
158.6218410155775
 30
0.0
  0
VERTEX
  5
197
  8
1
  6
CONTINUOUS
 62
     7
 10
62.89440746833469
 20
158.7070935905207
 30
0.0
  0
VERTEX
  5
198
  8
1
  6
CONTINUOUS
 62
     7
 10
62.76672725872784
 20
158.7744834163544
 30
0.0
  0
VERTEX
  5
199
  8
1
  6
CONTINUOUS
 62
     7
 10
62.63048315614214
 20
158.8230063154827
 30
0.0
  0
VERTEX
  5
19A
  8
1
  6
CONTINUOUS
 62
     7
 10
62.4891254889869
 20
158.8511891783153
 30
0.0
  0
VERTEX
  5
19B
  8
1
  6
CONTINUOUS
 62
     7
 10
62.34462431784218
 20
158.8587836319677
 30
0.0
  0
VERTEX
  5
19C
  8
1
  6
CONTINUOUS
 62
     7
 10
62.20109084499667
 20
158.8455750044347
 30
0.0
  0
VERTEX
  5
19D
  8
1
  6
CONTINUOUS
 62
     7
 10
62.06050962089542
 20
158.8116064565913
 30
0.0
  0
SEQEND
  5
3E0
  8
1
  6
CONTINUOUS
 62
     7
  0
ARC
  5
90
  8
1
  6
CONTINUOUS
 62
     7
 10
62.36470847260738
 20
157.8582856019114
 30
0.0
 40
1.000678566449019
 50
107.6975649301824
 51
133.7181449412849
  0
POLYLINE
  5
91
  8
1
  6
CONTINUOUS
 62
     7
 66
     1
 10
0.0
 20
0.0
 30
0.0
  0
VERTEX
  5
19E
  8
1
  6
CONTINUOUS
 62
     7
 10
78.30226665374342
 20
157.8590186748529
 30
0.0
  0
VERTEX
  5
19F
  8
1
  6
CONTINUOUS
 62
     7
 10
78.31278916871874
 20
158.0030617163763
 30
0.0
  0
VERTEX
  5
1A0
  8
1
  6
CONTINUOUS
 62
     7
 10
78.34385416974844
 20
158.1443677049158
 30
0.0
  0
VERTEX
  5
1A1
  8
1
  6
CONTINUOUS
 62
     7
 10
78.39488806052684
 20
158.2792368349637
 30
0.0
  0
VERTEX
  5
1A2
  8
1
  6
CONTINUOUS
 62
     7
 10
78.46506089217864
 20
158.4058595754759
 30
0.0
  0
VERTEX
  5
1A3
  8
1
  6
CONTINUOUS
 62
     7
 10
78.55236767349092
 20
158.5206172247491
 30
0.0
  0
VERTEX
  5
1A4
  8
1
  6
CONTINUOUS
 62
     7
 10
78.65570818518646
 20
158.6218410155775
 30
0.0
  0
VERTEX
  5
1A5
  8
1
  6
CONTINUOUS
 62
     7
 10
78.77225919833197
 20
158.7070935905207
 30
0.0
  0
VERTEX
  5
1A6
  8
1
  6
CONTINUOUS
 62
     7
 10
78.89993940793882
 20
158.7744834163544
 30
0.0
  0
VERTEX
  5
1A7
  8
1
  6
CONTINUOUS
 62
     7
 10
79.03618351052452
 20
158.8230063154827
 30
0.0
  0
VERTEX
  5
1A8
  8
1
  6
CONTINUOUS
 62
     7
 10
79.17754117767976
 20
158.8511891783153
 30
0.0
  0
VERTEX
  5
1A9
  8
1
  6
CONTINUOUS
 62
     7
 10
79.32204234882448
 20
158.8587836319677
 30
0.0
  0
VERTEX
  5
1AA
  8
1
  6
CONTINUOUS
 62
     7
 10
79.46557582166999
 20
158.8455750044347
 30
0.0
  0
VERTEX
  5
1AB
  8
1
  6
CONTINUOUS
 62
     7
 10
79.60615704577124
 20
158.8116064565913
 30
0.0
  0
SEQEND
  5
3E1
  8
1
  6
CONTINUOUS
 62
     7
  0
ARC
  5
92
  8
1
  6
CONTINUOUS
 62
     7
 10
79.30195819405932
 20
157.8582856019115
 30
0.0
 40
1.000678566448903
 50
46.28185505871238
 51
72.30243506981759
  0
LINE
  5
93
  8
1
  6
CONTINUOUS
 62
     7
 10
77.096237494193
 20
137.5348061868767
 30
0.0
 11
77.45008124504615
 21
137.6591242922169
 31
0.0
  0
POLYLINE
  5
94
  8
1
  6
CONTINUOUS
 62
     7
 66
     1
 10
0.0
 20
0.0
 30
0.0
  0
VERTEX
  5
1AC
  8
1
  6
CONTINUOUS
 62
     7
 10
76.44243821991067
 20
137.6600175646909
 30
0.0
  0
VERTEX
  5
1AD
  8
1
  6
CONTINUOUS
 62
     7
 10
76.48675593792635
 20
137.6356214456047
 30
0.0
  0
VERTEX
  5
1AE
  8
1
  6
CONTINUOUS
 62
     7
 10
76.53227900858714
 20
137.6134817625743
 30
0.0
  0
VERTEX
  5
1AF
  8
1
  6
CONTINUOUS
 62
     7
 10
76.57883281437525
 20
137.5936834300208
 30
0.0
  0
VERTEX
  5
1B0
  8
1
  6
CONTINUOUS
 62
     7
 10
76.62748243784792
 20
137.5758828662058
 30
0.0
  0
VERTEX
  5
1B1
  8
1
  6
CONTINUOUS
 62
     7
 10
76.67702123300313
 20
137.5606130918326
 30
0.0
  0
VERTEX
  5
1B2
  8
1
  6
CONTINUOUS
 62
     7
 10
76.72724995581687
 20
137.5479354929833
 30
0.0
  0
VERTEX
  5
1B3
  8
1
  6
CONTINUOUS
 62
     7
 10
76.76795856985703
 20
137.5396664189967
 30
0.0
  0
VERTEX
  5
1B4
  8
1
  6
CONTINUOUS
 62
     7
 10
76.80901098505022
 20
137.5330896467197
 30
0.0
  0
VERTEX
  5
1B5
  8
1
  6
CONTINUOUS
 62
     7
 10
76.85030070527657
 20
137.5282199573272
 30
0.0
  0
VERTEX
  5
1B6
  8
1
  6
CONTINUOUS
 62
     7
 10
76.89172123441624
 20
137.5250721319942
 30
0.0
  0
VERTEX
  5
1B7
  8
1
  6
CONTINUOUS
 62
     7
 10
76.93444325642048
 20
137.5236389719068
 30
0.0
  0
VERTEX
  5
1B8
  8
1
  6
CONTINUOUS
 62
     7
 10
76.97722663800445
 20
137.524033351758
 30
0.0
  0
VERTEX
  5
1B9
  8
1
  6
CONTINUOUS
 62
     7
 10
77.01995429401478
 20
137.5262516622539
 30
0.0
  0
VERTEX
  5
1BA
  8
1
  6
CONTINUOUS
 62
     7
 10
77.06250913929813
 20
137.5302902941011
 30
0.0
  0
VERTEX
  5
1BB
  8
1
  6
CONTINUOUS
 62
     7
 10
77.096237494193
 20
137.5348061868767
 30
0.0
  0
SEQEND
  5
3E2
  8
1
  6
CONTINUOUS
 62
     7
  0
POLYLINE
  5
95
  8
1
  6
CONTINUOUS
 62
     7
 66
     1
 10
0.0
 20
0.0
 30
0.0
  0
VERTEX
  5
1BC
  8
1
  6
CONTINUOUS
 62
     7
 10
75.94245725837861
 20
138.5160166938807
 30
0.0
  0
VERTEX
  5
1BD
  8
1
  6
CONTINUOUS
 62
     7
 10
75.94250287780058
 20
138.5108707879455
 30
0.0
  0
VERTEX
  5
1BE
  8
1
  6
CONTINUOUS
 62
     7
 10
75.94413637179368
 20
138.4644765972243
 30
0.0
  0
VERTEX
  5
1BF
  8
1
  6
CONTINUOUS
 62
     7
 10
75.94797488689872
 20
138.418112956808
 30
0.0
  0
VERTEX
  5
1C0
  8
1
  6
CONTINUOUS
 62
     7
 10
75.95402479651905
 20
138.3718588793506
 30
0.0
  0
VERTEX
  5
1C1
  8
1
  6
CONTINUOUS
 62
     7
 10
75.96293888460285
 20
138.3226734760701
 30
0.0
  0
VERTEX
  5
1C2
  8
1
  6
CONTINUOUS
 62
     7
 10
75.97445415202155
 20
138.2735614846025
 30
0.0
  0
VERTEX
  5
1C3
  8
1
  6
CONTINUOUS
 62
     7
 10
75.98860079420851
 20
138.2246554122157
 30
0.0
  0
VERTEX
  5
1C4
  8
1
  6
CONTINUOUS
 62
     7
 10
76.00540900659703
 20
138.1760877661775
 30
0.0
  0
VERTEX
  5
1C5
  8
1
  6
CONTINUOUS
 62
     7
 10
76.02490898462047
 20
138.1279910537559
 30
0.0
  0
VERTEX
  5
1C6
  8
1
  6
CONTINUOUS
 62
     7
 10
76.04713092371215
 20
138.0804977822187
 30
0.0
  0
VERTEX
  5
1C7
  8
1
  6
CONTINUOUS
 62
     7
 10
76.07210501930541
 20
138.0337404588338
 30
0.0
  0
VERTEX
  5
1C8
  8
1
  6
CONTINUOUS
 62
     7
 10
76.0917681616119
 20
138.0006841585502
 30
0.0
  0
VERTEX
  5
1C9
  8
1
  6
CONTINUOUS
 62
     7
 10
76.11299671104392
 20
137.967958873377
 30
0.0
  0
VERTEX
  5
1CA
  8
1
  6
CONTINUOUS
 62
     7
 10
76.13577877741155
 20
137.9356671603197
 30
0.0
  0
VERTEX
  5
1CB
  8
1
  6
CONTINUOUS
 62
     7
 10
76.1601024705248
 20
137.9039115763838
 30
0.0
  0
VERTEX
  5
1CC
  8
1
  6
CONTINUOUS
 62
     7
 10
76.1859559001937
 20
137.8727946785748
 30
0.0
  0
VERTEX
  5
1CD
  8
1
  6
CONTINUOUS
 62
     7
 10
76.21332717622832
 20
137.8424190238984
 30
0.0
  0
VERTEX
  5
1CE
  8
1
  6
CONTINUOUS
 62
     7
 10
76.24220440843865
 20
137.8128871693601
 30
0.0
  0
VERTEX
  5
1CF
  8
1
  6
CONTINUOUS
 62
     7
 10
76.26444481055887
 20
137.7917371800761
 30
0.0
  0
VERTEX
  5
1D0
  8
1
  6
CONTINUOUS
 62
     7
 10
76.28762167212155
 20
137.7710251922149
 30
0.0
  0
VERTEX
  5
1D1
  8
1
  6
CONTINUOUS
 62
     7
 10
76.31166516687887
 20
137.7508238177365
 30
0.0
  0
VERTEX
  5
1D2
  8
1
  6
CONTINUOUS
 62
     7
 10
76.33650546858297
 20
137.7312056686011
 30
0.0
  0
VERTEX
  5
1D3
  8
1
  6
CONTINUOUS
 62
     7
 10
76.36207275098604
 20
137.7122433567687
 30
0.0
  0
VERTEX
  5
1D4
  8
1
  6
CONTINUOUS
 62
     7
 10
76.38829718784024
 20
137.6940094941995
 30
0.0
  0
VERTEX
  5
1D5
  8
1
  6
CONTINUOUS
 62
     7
 10
76.41510895289773
 20
137.6765766928535
 30
0.0
  0
VERTEX
  5
1D6
  8
1
  6
CONTINUOUS
 62
     7
 10
76.44243821991067
 20
137.6600175646909
 30
0.0
  0
SEQEND
  5
3E3
  8
1
  6
CONTINUOUS
 62
     7
  0
POLYLINE
  5
96
  8
1
  6
CONTINUOUS
 62
     7
 66
     1
 10
0.0
 20
0.0
 30
0.0
  0
VERTEX
  5
1D7
  8
1
  6
CONTINUOUS
 62
     7
 10
65.22422844675599
 20
137.6600175646909
 30
0.0
  0
VERTEX
  5
1D8
  8
1
  6
CONTINUOUS
 62
     7
 10
65.25155771376893
 20
137.6765766928535
 30
0.0
  0
VERTEX
  5
1D9
  8
1
  6
CONTINUOUS
 62
     7
 10
65.27836947882642
 20
137.6940094941995
 30
0.0
  0
VERTEX
  5
1DA
  8
1
  6
CONTINUOUS
 62
     7
 10
65.30459391568063
 20
137.7122433567687
 30
0.0
  0
VERTEX
  5
1DB
  8
1
  6
CONTINUOUS
 62
     7
 10
65.33016119808369
 20
137.7312056686011
 30
0.0
  0
VERTEX
  5
1DC
  8
1
  6
CONTINUOUS
 62
     7
 10
65.35500149978779
 20
137.7508238177365
 30
0.0
  0
VERTEX
  5
1DD
  8
1
  6
CONTINUOUS
 62
     7
 10
65.37904499454511
 20
137.7710251922149
 30
0.0
  0
VERTEX
  5
1DE
  8
1
  6
CONTINUOUS
 62
     7
 10
65.40222185610779
 20
137.7917371800761
 30
0.0
  0
VERTEX
  5
1DF
  8
1
  6
CONTINUOUS
 62
     7
 10
65.424462258228
 20
137.8128871693601
 30
0.0
  0
VERTEX
  5
1E0
  8
1
  6
CONTINUOUS
 62
     7
 10
65.45333949043834
 20
137.8424190238984
 30
0.0
  0
VERTEX
  5
1E1
  8
1
  6
CONTINUOUS
 62
     7
 10
65.48071076647295
 20
137.8727946785748
 30
0.0
  0
VERTEX
  5
1E2
  8
1
  6
CONTINUOUS
 62
     7
 10
65.50656419614185
 20
137.9039115763838
 30
0.0
  0
VERTEX
  5
1E3
  8
1
  6
CONTINUOUS
 62
     7
 10
65.53088788925511
 20
137.9356671603197
 30
0.0
  0
VERTEX
  5
1E4
  8
1
  6
CONTINUOUS
 62
     7
 10
65.55366995562274
 20
137.967958873377
 30
0.0
  0
VERTEX
  5
1E5
  8
1
  6
CONTINUOUS
 62
     7
 10
65.57489850505476
 20
138.0006841585502
 30
0.0
  0
VERTEX
  5
1E6
  8
1
  6
CONTINUOUS
 62
     7
 10
65.59456164736125
 20
138.0337404588338
 30
0.0
  0
VERTEX
  5
1E7
  8
1
  6
CONTINUOUS
 62
     7
 10
65.61953574295451
 20
138.0804977822187
 30
0.0
  0
VERTEX
  5
1E8
  8
1
  6
CONTINUOUS
 62
     7
 10
65.64175768204619
 20
138.1279910537559
 30
0.0
  0
VERTEX
  5
1E9
  8
1
  6
CONTINUOUS
 62
     7
 10
65.66125766006962
 20
138.1760877661775
 30
0.0
  0
VERTEX
  5
1EA
  8
1
  6
CONTINUOUS
 62
     7
 10
65.67806587245815
 20
138.2246554122157
 30
0.0
  0
VERTEX
  5
1EB
  8
1
  6
CONTINUOUS
 62
     7
 10
65.6922125146451
 20
138.2735614846025
 30
0.0
  0
VERTEX
  5
1EC
  8
1
  6
CONTINUOUS
 62
     7
 10
65.70372778206381
 20
138.3226734760701
 30
0.0
  0
VERTEX
  5
1ED
  8
1
  6
CONTINUOUS
 62
     7
 10
65.7126418701476
 20
138.3718588793506
 30
0.0
  0
VERTEX
  5
1EE
  8
1
  6
CONTINUOUS
 62
     7
 10
65.71869177976791
 20
138.4181129568078
 30
0.0
  0
VERTEX
  5
1EF
  8
1
  6
CONTINUOUS
 62
     7
 10
65.72253029487295
 20
138.4644765972239
 30
0.0
  0
VERTEX
  5
1F0
  8
1
  6
CONTINUOUS
 62
     7
 10
65.72416378886608
 20
138.5108707879448
 30
0.0
  0
VERTEX
  5
1F1
  8
1
  6
CONTINUOUS
 62
     7
 10
65.72420940828805
 20
138.5160166938807
 30
0.0
  0
SEQEND
  5
3E4
  8
1
  6
CONTINUOUS
 62
     7
  0
POLYLINE
  5
97
  8
1
  6
CONTINUOUS
 62
     7
 66
     1
 10
0.0
 20
0.0
 30
0.0
  0
VERTEX
  5
1F2
  8
1
  6
CONTINUOUS
 62
     7
 10
65.22422844675599
 20
137.6600175646909
 30
0.0
  0
VERTEX
  5
1F3
  8
1
  6
CONTINUOUS
 62
     7
 10
65.17991072874031
 20
137.6356214456047
 30
0.0
  0
VERTEX
  5
1F4
  8
1
  6
CONTINUOUS
 62
     7
 10
65.13438765807952
 20
137.6134817625743
 30
0.0
  0
VERTEX
  5
1F5
  8
1
  6
CONTINUOUS
 62
     7
 10
65.08783385229141
 20
137.5936834300208
 30
0.0
  0
VERTEX
  5
1F6
  8
1
  6
CONTINUOUS
 62
     7
 10
65.03918422881874
 20
137.5758828662058
 30
0.0
  0
VERTEX
  5
1F7
  8
1
  6
CONTINUOUS
 62
     7
 10
64.98964543366353
 20
137.5606130918326
 30
0.0
  0
VERTEX
  5
1F8
  8
1
  6
CONTINUOUS
 62
     7
 10
64.93941671084978
 20
137.5479354929833
 30
0.0
  0
VERTEX
  5
1F9
  8
1
  6
CONTINUOUS
 62
     7
 10
64.89870809680963
 20
137.5396664189967
 30
0.0
  0
VERTEX
  5
1FA
  8
1
  6
CONTINUOUS
 62
     7
 10
64.85765568161644
 20
137.5330896467197
 30
0.0
  0
VERTEX
  5
1FB
  8
1
  6
CONTINUOUS
 62
     7
 10
64.81636596139009
 20
137.5282199573272
 30
0.0
  0
VERTEX
  5
1FC
  8
1
  6
CONTINUOUS
 62
     7
 10
64.77494543225042
 20
137.5250721319942
 30
0.0
  0
VERTEX
  5
1FD
  8
1
  6
CONTINUOUS
 62
     7
 10
64.73222341024618
 20
137.5236389719068
 30
0.0
  0
VERTEX
  5
1FE
  8
1
  6
CONTINUOUS
 62
     7
 10
64.6894400286622
 20
137.524033351758
 30
0.0
  0
VERTEX
  5
1FF
  8
1
  6
CONTINUOUS
 62
     7
 10
64.64671237265188
 20
137.5262516622539
 30
0.0
  0
VERTEX
  5
200
  8
1
  6
CONTINUOUS
 62
     7
 10
64.60415752736853
 20
137.5302902941011
 30
0.0
  0
VERTEX
  5
201
  8
1
  6
CONTINUOUS
 62
     7
 10
64.57042917247365
 20
137.5348061868767
 30
0.0
  0
SEQEND
  5
3E5
  8
1
  6
CONTINUOUS
 62
     7
  0
LINE
  5
98
  8
1
  6
CONTINUOUS
 62
     7
 10
64.57042917247365
 20
137.5348061868767
 30
0.0
 11
64.21658542162051
 21
137.6591242922169
 31
0.0
  0
LINE
  5
99
  8
1
  6
CONTINUOUS
 62
     7
 10
65.83333333333333
 20
140.3585481378852
 30
0.0
 11
65.83333333333333
 21
137.2579025131295
 31
0.0
  0
LINE
  5
9A
  8
1
  6
CONTINUOUS
 62
     7
 10
75.83333333333333
 20
140.3585481378852
 30
0.0
 11
75.83333333333333
 21
137.2579025131295
 31
0.0
  0
LINE
  5
9B
  8
1
  6
CONTINUOUS
 62
     7
 10
63.36440001292325
 20
157.8590186748529
 30
0.0
 11
63.36440001292325
 21
155.275138822977
 31
0.0
  0
LINE
  5
9C
  8
1
  6
CONTINUOUS
 62
     7
 10
78.30226665374342
 20
157.8590186748529
 30
0.0
 11
78.30226665374342
 21
155.275138822977
 31
0.0
  0
LINE
  5
9D
  8
1
  6
CONTINUOUS
 62
     7
 10
70.14594697908996
 20
132.7579596285333
 30
0.0
 11
71.5207196875767
 21
132.7579596285333
 31
0.0
  0
LINE
  5
9E
  8
1
  6
CONTINUOUS
 62
     7
 10
69.68768940959437
 20
132.7579596285333
 30
0.0
 11
70.14594697908996
 21
132.7579596285333
 31
0.0
  0
LINE
  5
9F
  8
1
  6
CONTINUOUS
 62
     7
 10
71.52071968757672
 20
132.7579596285333
 30
0.0
 11
71.97897725707229
 21
132.7579596285333
 31
0.0
  0
LINE
  5
A0
  8
1
  6
CONTINUOUS
 62
     7
 10
70.33333333333333
 20
135.7345913266928
 30
0.0
 11
70.33333333333333
 21
135.743996640068
 31
0.0
  0
LINE
  5
A1
  8
1
  6
CONTINUOUS
 62
     7
 10
71.33333333333333
 20
135.7345913266928
 30
0.0
 11
70.33333333333333
 21
135.7345913266928
 31
0.0
  0
LINE
  5
A2
  8
1
  6
CONTINUOUS
 62
     7
 10
71.33333333333333
 20
135.7345913266928
 30
0.0
 11
71.33333333333333
 21
135.743996640068
 31
0.0
  0
LINE
  5
A3
  8
1
  6
CONTINUOUS
 62
     7
 10
71.33333333333333
 20
135.743996640068
 30
0.0
 11
73.03784142636997
 21
135.743996640068
 31
0.0
  0
LINE
  5
A4
  8
1
  6
CONTINUOUS
 62
     7
 10
73.55715272996105
 20
135.7579596285333
 30
0.0
 11
73.03784142636997
 21
135.743996640068
 31
0.0
  0
LINE
  5
A5
  8
1
  6
CONTINUOUS
 62
     7
 10
74.33339044873708
 20
135.7579596285333
 30
0.0
 11
73.55715272996105
 21
135.7579596285333
 31
0.0
  0
LINE
  5
A6
  8
1
  6
CONTINUOUS
 62
     7
 10
68.10951396288638
 20
135.7579626285524
 30
0.0
 11
67.3332762179296
 21
135.7579596285333
 31
0.0
  0
LINE
  5
A7
  8
1
  6
CONTINUOUS
 62
     7
 10
68.62882524029669
 20
135.743996640068
 30
0.0
 11
68.1095139367076
 21
135.7579596287617
 31
0.0
  0
LINE
  5
A8
  8
1
  6
CONTINUOUS
 62
     7
 10
70.33333333333333
 20
135.743996640068
 30
0.0
 11
68.62882524029669
 21
135.743996640068
 31
0.0
  0
LINE
  5
A9
  8
1
  6
CONTINUOUS
 62
     7
 10
63.86544391520327
 20
132.7579596285333
 30
0.0
 11
69.68768940959437
 21
132.7579596285333
 31
0.0
  0
LINE
  5
AA
  8
1
  6
CONTINUOUS
 62
     7
 10
79.33087035902957
 20
132.7579596285333
 30
0.0
 11
77.8012227514634
 21
132.7579596285333
 31
0.0
  0
LINE
  5
AB
  8
1
  6
CONTINUOUS
 62
     7
 10
62.33579630763708
 20
132.7579596285333
 30
0.0
 11
63.86544391520327
 21
132.7579596285333
 31
0.0
  0
LINE
  5
AC
  8
1
  6
CONTINUOUS
 62
     7
 10
71.97897725707229
 20
132.7579596285333
 30
0.0
 11
77.8012227514634
 21
132.7579596285333
 31
0.0
  0
POLYLINE
  5
AD
  8
1
  6
CONTINUOUS
 62
     7
 66
     1
 10
0.0
 20
0.0
 30
0.0
  0
VERTEX
  5
202
  8
1
  6
CONTINUOUS
 62
     7
 10
74.33339044873708
 20
135.7579596285333
 30
0.0
  0
VERTEX
  5
203
  8
1
  6
CONTINUOUS
 62
     7
 10
74.62602087449025
 20
135.7867800197747
 30
0.0
  0
VERTEX
  5
204
  8
1
  6
CONTINUOUS
 62
     7
 10
74.9074023744529
 20
135.8721337490668
 30
0.0
  0
VERTEX
  5
205
  8
1
  6
CONTINUOUS
 62
     7
 10
75.16672266045015
 20
136.010741037469
 30
0.0
  0
VERTEX
  5
206
  8
1
  6
CONTINUOUS
 62
     7
 10
75.39401716245106
 20
136.1972757994155
 30
0.0
  0
VERTEX
  5
207
  8
1
  6
CONTINUOUS
 62
     7
 10
75.58055192439767
 20
136.4245703014165
 30
0.0
  0
VERTEX
  5
208
  8
1
  6
CONTINUOUS
 62
     7
 10
75.71915921279978
 20
136.6838905874137
 30
0.0
  0
VERTEX
  5
209
  8
1
  6
CONTINUOUS
 62
     7
 10
75.80451294209193
 20
136.9652720873763
 30
0.0
  0
VERTEX
  5
20A
  8
1
  6
CONTINUOUS
 62
     7
 10
75.83333333333331
 20
137.2579025131295
 30
0.0
  0
SEQEND
  5
3E6
  8
1
  6
CONTINUOUS
 62
     7
  0
POLYLINE
  5
AE
  8
1
  6
CONTINUOUS
 62
     7
 66
     1
 10
0.0
 20
0.0
 30
0.0
  0
VERTEX
  5
20B
  8
1
  6
CONTINUOUS
 62
     7
 10
65.83333333333334
 20
137.2579025131295
 30
0.0
  0
VERTEX
  5
20C
  8
1
  6
CONTINUOUS
 62
     7
 10
65.86215372457474
 20
136.9652720873763
 30
0.0
  0
VERTEX
  5
20D
  8
1
  6
CONTINUOUS
 62
     7
 10
65.94750745386689
 20
136.6838905874137
 30
0.0
  0
VERTEX
  5
20E
  8
1
  6
CONTINUOUS
 62
     7
 10
66.08611474226899
 20
136.4245703014165
 30
0.0
  0
VERTEX
  5
20F
  8
1
  6
CONTINUOUS
 62
     7
 10
66.2726495042156
 20
136.1972757994155
 30
0.0
  0
VERTEX
  5
210
  8
1
  6
CONTINUOUS
 62
     7
 10
66.49994400621651
 20
136.010741037469
 30
0.0
  0
VERTEX
  5
211
  8
1
  6
CONTINUOUS
 62
     7
 10
66.75926429221377
 20
135.8721337490668
 30
0.0
  0
VERTEX
  5
212
  8
1
  6
CONTINUOUS
 62
     7
 10
67.04064579217642
 20
135.7867800197747
 30
0.0
  0
VERTEX
  5
213
  8
1
  6
CONTINUOUS
 62
     7
 10
67.33327621792958
 20
135.7579596285333
 30
0.0
  0
SEQEND
  5
3E7
  8
1
  6
CONTINUOUS
 62
     7
  0
ARC
  5
AF
  8
1
  6
CONTINUOUS
 62
     7
 10
60.00142858770309
 20
136.8948236208157
 30
0.0
 40
2.999868441322964
 50
348.6898783481918
 51
48.19618211504854
  0
ARC
  5
B0
  8
1
  6
CONTINUOUS
 62
     7
 10
81.66523807896357
 20
136.8948236208157
 30
0.0
 40
2.999868441322964
 50
131.8038178849514
 51
191.3101216518082
  0
LINE
  5
B1
  8
1
  6
CONTINUOUS
 62
     7
 10
79.43333333333334
 20
132.7579596285333
 30
0.0
 11
78.7236269983123
 21
136.3064913036385
 31
0.0
  0
LINE
  5
B2
  8
1
  6
CONTINUOUS
 62
     7
 10
79.33087035902957
 20
132.7579596285333
 30
0.0
 11
79.43333333333334
 21
132.7579596285333
 31
0.0
  0
LINE
  5
B3
  8
1
  6
CONTINUOUS
 62
     7
 10
62.23333333333333
 20
132.7579596285333
 30
0.0
 11
62.94303966835437
 21
136.3064913036385
 31
0.0
  0
LINE
  5
B4
  8
1
  6
CONTINUOUS
 62
     7
 10
62.33579630763708
 20
132.7579596285333
 30
0.0
 11
62.23333333333333
 21
132.7579596285333
 31
0.0
  0
LINE
  5
B5
  8
1
  6
CONTINUOUS
 62
     9
 10
80.08333333333337
 20
152.1039418637075
 30
0.0
 11
80.08333333333337
 21
145.911977393359
 31
0.0
  0
LINE
  5
B6
  8
1
  6
CONTINUOUS
 62
     9
 10
61.58333333333329
 20
152.1039418637075
 30
0.0
 11
61.58333333333329
 21
145.911977393359
 31
0.0
  0
LINE
  5
B7
  8
1
  6
CONTINUOUS
 62
     7
 10
79.58333333333337
 20
153.3091222620545
 30
0.0
 11
79.58333333333337
 21
144.706796995012
 31
0.0
  0
LINE
  5
B8
  8
1
  6
CONTINUOUS
 62
     7
 10
62.08333333333329
 20
144.706796995012
 30
0.0
 11
62.08333333333329
 21
153.3091222620545
 31
0.0
  0
ENDBLK
  8
0
  0
BLOCK
  8
0
  2
D_FRAME_VIEW_1587
 70
     0
 10
0.0
 20
0.0
 30
0.0
  0
ARC
  5
BF
  8
1
  6
CONTINUOUS
 62
     7
 10
124.1962770276124
 20
135.849932610543
 30
0.0
 40
21.52454576689647
 50
49.62065187896701
 51
76.21643050707746
  0
ARC
  5
C0
  8
1
  6
CONTINUOUS
 62
     7
 10
135.837181546969
 20
149.0006278415912
 30
0.0
 40
3.980459992566143
 50
304.3301079779377
 51
54.63765385860984
  0
ARC
  5
C1
  8
1
  6
CONTINUOUS
 62
     7
 10
125.5228217956505
 20
160.4856047363745
 30
0.0
 40
19.3893382736995
 50
288.4432768656301
 51
310.371153073223
  0
LINE
  5
C2
  8
1
  6
CONTINUOUS
 62
     7
 10
131.6569425077028
 20
142.0921547668359
 30
0.0
 11
129.3246067978349
 21
141.2612909003743
 31
0.0
  0
LINE
  5
C3
  8
1
  6
CONTINUOUS
 62
     7
 10
131.8202435300858
 20
139.1748385304864
 30
0.0
 11
143.3333333333333
 21
139.131020304407
 31
0.0
  0
ARC
  5
C4
  8
1
  6
CONTINUOUS
 62
     7
 10
133.9286810436282
 20
135.706272605699
 30
0.0
 40
4.059120387856114
 50
121.2941670206547
 51
151.242587798217
  0
POLYLINE
  5
C5
  8
1
  6
CONTINUOUS
 62
     7
 66
     1
 10
0.0
 20
0.0
 30
0.0
  0
VERTEX
  5
214
  8
1
  6
CONTINUOUS
 62
     7
 10
129.1596851556669
 20
143.7355455542051
 30
0.0
  0
VERTEX
  5
215
  8
1
  6
CONTINUOUS
 62
     7
 10
133.9691530352551
 20
145.1091440274514
 30
0.0
  0
VERTEX
  5
216
  8
1
  6
CONTINUOUS
 62
     7
 10
137.2688035806097
 20
146.6146336127695
 30
0.0
  0
VERTEX
  5
217
  8
1
  6
CONTINUOUS
 62
     7
 10
138.9470145391281
 20
148.2010858447133
 30
0.0
  0
VERTEX
  5
218
  8
1
  6
CONTINUOUS
 62
     7
 10
138.947014539128
 20
149.8148334123534
 30
0.0
  0
VERTEX
  5
219
  8
1
  6
CONTINUOUS
 62
     7
 10
137.2688035806094
 20
151.4012856442972
 30
0.0
  0
VERTEX
  5
21A
  8
1
  6
CONTINUOUS
 62
     7
 10
133.9691530352547
 20
152.9067752296153
 30
0.0
  0
VERTEX
  5
21B
  8
1
  6
CONTINUOUS
 62
     7
 10
129.1596851556664
 20
154.2803737028616
 30
0.0
  0
SEQEND
  5
3E8
  8
1
  6
CONTINUOUS
 62
     7
  0
ARC
  5
C6
  8
1
  6
CONTINUOUS
 62
     7
 10
152.7379856230384
 20
135.706272605699
 30
0.0
 40
4.059120387856114
 50
28.75741220178306
 51
58.7058329793453
  0
LINE
  5
C7
  8
1
  6
CONTINUOUS
 62
     7
 10
154.8464231365809
 20
139.1748385304864
 30
0.0
 11
143.3333333333333
 21
139.131020304407
 31
0.0
  0
ARC
  5
C8
  8
1
  6
CONTINUOUS
 62
     7
 10
162.4703896390542
 20
135.849932610543
 30
0.0
 40
21.52454576689647
 50
103.7835694929225
 51
130.379348121033
  0
ARC
  5
C9
  8
1
  6
CONTINUOUS
 62
     7
 10
150.8294851196977
 20
149.0006278415912
 30
0.0
 40
3.980459992566143
 50
125.3623461413902
 51
235.6698920220624
  0
ARC
  5
CA
  8
1
  6
CONTINUOUS
 62
     7
 10
161.1438448710162
 20
160.4856047363745
 30
0.0
 40
19.3893382736995
 50
229.6288469267769
 51
251.5567231343699
  0
LINE
  5
CB
  8
1
  6
CONTINUOUS
 62
     7
 10
155.0097241589639
 20
142.0921547668359
 30
0.0
 11
157.3420598688318
 21
141.2612909003743
 31
0.0
  0
POLYLINE
  5
CC
  8
1
  6
CONTINUOUS
 62
     7
 66
     1
 10
0.0
 20
0.0
 30
0.0
  0
VERTEX
  5
21C
  8
1
  6
CONTINUOUS
 62
     7
 10
157.5069815110003
 20
154.2803737028616
 30
0.0
  0
VERTEX
  5
21D
  8
1
  6
CONTINUOUS
 62
     7
 10
152.697513631412
 20
152.9067752296153
 30
0.0
  0
VERTEX
  5
21E
  8
1
  6
CONTINUOUS
 62
     7
 10
149.3978630860572
 20
151.4012856442972
 30
0.0
  0
VERTEX
  5
21F
  8
1
  6
CONTINUOUS
 62
     7
 10
147.7196521275386
 20
149.8148334123534
 30
0.0
  0
VERTEX
  5
220
  8
1
  6
CONTINUOUS
 62
     7
 10
147.7196521275386
 20
148.2010858447133
 30
0.0
  0
VERTEX
  5
221
  8
1
  6
CONTINUOUS
 62
     7
 10
149.397863086057
 20
146.6146336127695
 30
0.0
  0
VERTEX
  5
222
  8
1
  6
CONTINUOUS
 62
     7
 10
152.6975136314115
 20
145.1091440274514
 30
0.0
  0
VERTEX
  5
223
  8
1
  6
CONTINUOUS
 62
     7
 10
157.5069815109996
 20
143.7355455542051
 30
0.0
  0
SEQEND
  5
3E9
  8
1
  6
CONTINUOUS
 62
     7
  0
POLYLINE
  5
CD
  8
1
  6
CONTINUOUS
 62
     7
 66
     1
 10
0.0
 20
0.0
 30
0.0
  0
VERTEX
  5
224
  8
1
  6
CONTINUOUS
 62
     7
 10
128.3333333333333
 20
141.8513672743545
 30
0.0
  0
VERTEX
  5
225
  8
1
  6
CONTINUOUS
 62
     7
 10
128.3523358259676
 20
141.7368760988999
 30
0.0
  0
VERTEX
  5
226
  8
1
  6
CONTINUOUS
 62
     7
 10
128.4086211144178
 20
141.6267361588819
 30
0.0
  0
VERTEX
  5
227
  8
1
  6
CONTINUOUS
 62
     7
 10
128.5000500771255
 20
141.5251333210983
 30
0.0
  0
VERTEX
  5
228
  8
1
  6
CONTINUOUS
 62
     7
 10
128.62314795771
 20
141.4359289999023
 30
0.0
  0
VERTEX
  5
229
  8
1
  6
CONTINUOUS
 62
     7
 10
128.773236423033
 20
141.3625134042069
 30
0.0
  0
VERTEX
  5
22A
  8
1
  6
CONTINUOUS
 62
     7
 10
128.9446113631809
 20
141.3076766926449
 30
0.0
  0
VERTEX
  5
22B
  8
1
  6
CONTINUOUS
 62
     7
 10
129.130759676078
 20
141.2735029336314
 30
0.0
  0
VERTEX
  5
22C
  8
1
  6
CONTINUOUS
 62
     7
 10
129.3246067978349
 20
141.2612909003743
 30
0.0
  0
SEQEND
  5
3EA
  8
1
  6
CONTINUOUS
 62
     7
  0
LINE
  5
CE
  8
1
  6
CONTINUOUS
 62
     7
 10
128.3333333333333
 20
141.8513672743545
 30
0.0
 11
128.3333333333333
 21
143.7355455542052
 31
0.0
  0
LINE
  5
CF
  8
1
  6
CONTINUOUS
 62
     7
 10
129.1596851556664
 20
143.7355455542052
 30
0.0
 11
128.3333333333333
 21
143.7355455542052
 31
0.0
  0
LINE
  5
D0
  8
1
  6
CONTINUOUS
 62
     7
 10
158.3333333333333
 20
141.8513672743545
 30
0.0
 11
158.3333333333333
 21
143.7355455542052
 31
0.0
  0
POLYLINE
  5
D1
  8
1
  6
CONTINUOUS
 62
     7
 66
     1
 10
0.0
 20
0.0
 30
0.0
  0
VERTEX
  5
22D
  8
1
  6
CONTINUOUS
 62
     7
 10
157.3420598688318
 20
141.2612909003743
 30
0.0
  0
VERTEX
  5
22E
  8
1
  6
CONTINUOUS
 62
     7
 10
157.5359069905887
 20
141.2735029336314
 30
0.0
  0
VERTEX
  5
22F
  8
1
  6
CONTINUOUS
 62
     7
 10
157.7220553034858
 20
141.3076766926449
 30
0.0
  0
VERTEX
  5
230
  8
1
  6
CONTINUOUS
 62
     7
 10
157.8934302436337
 20
141.3625134042069
 30
0.0
  0
VERTEX
  5
231
  8
1
  6
CONTINUOUS
 62
     7
 10
158.0435187089567
 20
141.4359289999023
 30
0.0
  0
VERTEX
  5
232
  8
1
  6
CONTINUOUS
 62
     7
 10
158.1666165895411
 20
141.5251333210983
 30
0.0
  0
VERTEX
  5
233
  8
1
  6
CONTINUOUS
 62
     7
 10
158.2580455522489
 20
141.6267361588819
 30
0.0
  0
VERTEX
  5
234
  8
1
  6
CONTINUOUS
 62
     7
 10
158.3143308406991
 20
141.7368760988999
 30
0.0
  0
VERTEX
  5
235
  8
1
  6
CONTINUOUS
 62
     7
 10
158.3333333333333
 20
141.8513672743545
 30
0.0
  0
SEQEND
  5
3EB
  8
1
  6
CONTINUOUS
 62
     7
  0
LINE
  5
D2
  8
1
  6
CONTINUOUS
 62
     7
 10
157.5069815110003
 20
143.7355455542052
 30
0.0
 11
158.3333333333333
 21
143.7355455542052
 31
0.0
  0
LINE
  5
D3
  8
1
  6
CONTINUOUS
 62
     7
 10
129.1596851556664
 20
154.2803737028616
 30
0.0
 11
128.3333333333333
 21
154.2803737028616
 31
0.0
  0
LINE
  5
D4
  8
1
  6
CONTINUOUS
 62
     7
 10
128.3333333333333
 20
154.2803737028616
 30
0.0
 11
128.3333333333333
 21
156.1645519827121
 31
0.0
  0
POLYLINE
  5
D5
  8
1
  6
CONTINUOUS
 62
     7
 66
     1
 10
0.0
 20
0.0
 30
0.0
  0
VERTEX
  5
236
  8
1
  6
CONTINUOUS
 62
     7
 10
129.3246067978353
 20
156.7546283566921
 30
0.0
  0
VERTEX
  5
237
  8
1
  6
CONTINUOUS
 62
     7
 10
129.1307596760784
 20
156.7424163234351
 30
0.0
  0
VERTEX
  5
238
  8
1
  6
CONTINUOUS
 62
     7
 10
128.9446113631812
 20
156.7082425644217
 30
0.0
  0
VERTEX
  5
239
  8
1
  6
CONTINUOUS
 62
     7
 10
128.7732364230332
 20
156.6534058528597
 30
0.0
  0
VERTEX
  5
23A
  8
1
  6
CONTINUOUS
 62
     7
 10
128.6231479577102
 20
156.5799902571642
 30
0.0
  0
VERTEX
  5
23B
  8
1
  6
CONTINUOUS
 62
     7
 10
128.5000500771256
 20
156.4907859359682
 30
0.0
  0
VERTEX
  5
23C
  8
1
  6
CONTINUOUS
 62
     7
 10
128.4086211144179
 20
156.3891830981846
 30
0.0
  0
VERTEX
  5
23D
  8
1
  6
CONTINUOUS
 62
     7
 10
128.3523358259676
 20
156.2790431581666
 30
0.0
  0
VERTEX
  5
23E
  8
1
  6
CONTINUOUS
 62
     7
 10
128.3333333333333
 20
156.1645519827121
 30
0.0
  0
SEQEND
  5
3EC
  8
1
  6
CONTINUOUS
 62
     7
  0
LINE
  5
D6
  8
1
  6
CONTINUOUS
 62
     7
 10
158.3333333333333
 20
154.2803737028616
 30
0.0
 11
158.3333333333333
 21
156.1645519827121
 31
0.0
  0
LINE
  5
D7
  8
1
  6
CONTINUOUS
 62
     7
 10
157.5069815110003
 20
154.2803737028616
 30
0.0
 11
158.3333333333333
 21
154.2803737028616
 31
0.0
  0
POLYLINE
  5
D8
  8
1
  6
CONTINUOUS
 62
     7
 66
     1
 10
0.0
 20
0.0
 30
0.0
  0
VERTEX
  5
23F
  8
1
  6
CONTINUOUS
 62
     7
 10
158.3333333333333
 20
156.1645519827121
 30
0.0
  0
VERTEX
  5
240
  8
1
  6
CONTINUOUS
 62
     7
 10
158.3143308406991
 20
156.2790431581666
 30
0.0
  0
VERTEX
  5
241
  8
1
  6
CONTINUOUS
 62
     7
 10
158.2580455522488
 20
156.3891830981846
 30
0.0
  0
VERTEX
  5
242
  8
1
  6
CONTINUOUS
 62
     7
 10
158.166616589541
 20
156.4907859359682
 30
0.0
  0
VERTEX
  5
243
  8
1
  6
CONTINUOUS
 62
     7
 10
158.0435187089565
 20
156.5799902571642
 30
0.0
  0
VERTEX
  5
244
  8
1
  6
CONTINUOUS
 62
     7
 10
157.8934302436334
 20
156.6534058528597
 30
0.0
  0
VERTEX
  5
245
  8
1
  6
CONTINUOUS
 62
     7
 10
157.7220553034855
 20
156.7082425644217
 30
0.0
  0
VERTEX
  5
246
  8
1
  6
CONTINUOUS
 62
     7
 10
157.5359069905883
 20
156.7424163234351
 30
0.0
  0
VERTEX
  5
247
  8
1
  6
CONTINUOUS
 62
     7
 10
157.3420598688313
 20
156.7546283566921
 30
0.0
  0
SEQEND
  5
3ED
  8
1
  6
CONTINUOUS
 62
     7
  0
LINE
  5
D9
  8
1
  6
CONTINUOUS
 62
     7
 10
128.3333333333333
 20
143.7355455542052
 30
0.0
 11
128.3333333333333
 21
154.2803737028616
 31
0.0
  0
LINE
  5
DA
  8
1
  6
CONTINUOUS
 62
     7
 10
158.3333333333333
 20
143.7355455542052
 30
0.0
 11
158.3333333333333
 21
154.2803737028616
 31
0.0
  0
LINE
  5
DB
  8
1
  6
CONTINUOUS
 62
     7
 10
128.3333333333333
 20
156.1645519827121
 30
0.0
 11
128.3333333333333
 21
157.568063106617
 31
0.0
  0
LINE
  5
DC
  8
1
  6
CONTINUOUS
 62
     7
 10
158.3333333333333
 20
156.1645519827121
 30
0.0
 11
158.3333333333333
 21
157.568063106617
 31
0.0
  0
LINE
  5
DD
  8
1
  6
CONTINUOUS
 62
     7
 10
128.3333333333333
 20
138.5388774959945
 30
0.0
 11
128.3333333333333
 21
141.8513672743545
 31
0.0
  0
LINE
  5
DE
  8
1
  6
CONTINUOUS
 62
     7
 10
158.3333333333333
 20
138.5388774959945
 30
0.0
 11
158.3333333333333
 21
141.8513672743545
 31
0.0
  0
LINE
  5
DF
  8
1
  6
CONTINUOUS
 62
     7
 10
156.3333333333333
 20
136.0490566285406
 30
0.0
 11
156.3333333333333
 21
137.4238522877233
 31
0.0
  0
LINE
  5
E0
  8
1
  6
CONTINUOUS
 62
     7
 10
156.3333333333333
 20
137.4238522877233
 30
0.0
 11
156.3333333333333
 21
137.5348061868767
 31
0.0
  0
LINE
  5
E1
  8
1
  6
CONTINUOUS
 62
     7
 10
156.3333333333333
 20
137.5348061868767
 30
0.0
 11
156.296472466287
 21
137.6591242922169
 31
0.0
  0
LINE
  5
E2
  8
1
  6
CONTINUOUS
 62
     7
 10
130.3333333333333
 20
136.0490566285406
 30
0.0
 11
130.3333333333333
 21
137.4238522877233
 31
0.0
  0
LINE
  5
E3
  8
1
  6
CONTINUOUS
 62
     7
 10
130.3333333333333
 20
137.4238522877233
 30
0.0
 11
130.3333333333333
 21
137.5348061868767
 31
0.0
  0
LINE
  5
E4
  8
1
  6
CONTINUOUS
 62
     7
 10
130.3333333333333
 20
137.5348061868767
 30
0.0
 11
130.3701942003796
 21
137.6591242922169
 31
0.0
  0
LINE
  5
E5
  8
1
  6
CONTINUOUS
 62
     7
 10
154.8464231365809
 20
132.7579596285333
 30
0.0
 11
143.3333333333333
 21
132.7579596285333
 31
0.0
  0
LINE
  5
E6
  8
1
  6
CONTINUOUS
 62
     7
 10
131.8202435300858
 20
132.7579596285333
 30
0.0
 11
143.3333333333333
 21
132.7579596285333
 31
0.0
  0
LINE
  5
E7
  8
1
  6
CONTINUOUS
 62
     7
 10
156.3333333333333
 20
132.7579596285333
 30
0.0
 11
156.3333333333333
 21
136.0490566285406
 31
0.0
  0
LINE
  5
E8
  8
1
  6
CONTINUOUS
 62
     7
 10
154.8464231365809
 20
132.7579596285333
 30
0.0
 11
156.3333333333333
 21
132.7579596285333
 31
0.0
  0
LINE
  5
E9
  8
1
  6
CONTINUOUS
 62
     7
 10
130.3333333333333
 20
132.7579596285333
 30
0.0
 11
130.3333333333333
 21
136.0490566285406
 31
0.0
  0
LINE
  5
EA
  8
1
  6
CONTINUOUS
 62
     7
 10
131.8202435300858
 20
132.7579596285333
 30
0.0
 11
130.3333333333333
 21
132.7579596285333
 31
0.0
  0
LINE
  5
EB
  8
1
  6
CONTINUOUS
 62
     7
 10
130.2289700655842
 20
135.6435995828136
 30
0.0
 11
130.3333333333333
 21
135.6445103472534
 31
0.0
  0
LINE
  5
EC
  8
1
  6
CONTINUOUS
 62
     7
 10
130.0333333333333
 20
132.7579596285333
 30
0.0
 11
130.3333333333333
 21
132.7579596285333
 31
0.0
  0
LINE
  5
ED
  8
1
  6
CONTINUOUS
 62
     7
 10
156.6333333333334
 20
132.7579596285333
 30
0.0
 11
156.3333333333333
 21
132.7579596285333
 31
0.0
  0
LINE
  5
EE
  8
1
  6
CONTINUOUS
 62
     7
 10
156.4376966010825
 20
135.6435995828136
 30
0.0
 11
156.3333333333333
 21
135.6445103472534
 31
0.0
  0
LINE
  5
EF
  8
1
  6
CONTINUOUS
 62
     7
 10
129.5833333333333
 20
132.7579596285333
 30
0.0
 11
130.0333333333333
 21
132.7579596285333
 31
0.0
  0
LINE
  5
F0
  8
1
  6
CONTINUOUS
 62
     7
 10
130.0789700655842
 20
135.642290552645
 30
0.0
 11
130.2289700655842
 21
135.6435995828136
 31
0.0
  0
LINE
  5
F1
  8
1
  6
CONTINUOUS
 62
     7
 10
156.5876966010825
 20
135.642290552645
 30
0.0
 11
156.4376966010825
 21
135.6435995828136
 31
0.0
  0
LINE
  5
F2
  8
1
  6
CONTINUOUS
 62
     7
 10
157.0833333333333
 20
132.7579596285333
 30
0.0
 11
156.6333333333334
 21
132.7579596285333
 31
0.0
  0
ARC
  5
F3
  8
1
  6
CONTINUOUS
 62
     7
 10
129.3333333333333
 20
157.568063106617
 30
0.0
 40
0.9999999999999939
 50
91.21005422078575
 51
180.0000000000002
  0
LINE
  5
F4
  8
1
  6
CONTINUOUS
 62
     7
 10
157.3544441875512
 20
158.5678399257065
 30
0.0
 11
143.3333371186824
 21
158.8590487090263
 31
0.0
  0
LINE
  5
F5
  8
1
  6
CONTINUOUS
 62
     7
 10
143.3333295479843
 20
158.8590487090262
 30
0.0
 11
129.3122224791155
 21
158.5678399257065
 31
0.0
  0
ARC
  5
F6
  8
1
  6
CONTINUOUS
 62
     7
 10
157.3333333333333
 20
157.568063106617
 30
0.0
 40
1.000000000000001
 50
0.0
 51
88.78994577921425
  0
ARC
  5
F7
  8
1
  6
CONTINUOUS
 62
     7
 10
129.3333333333333
 20
138.5388774959945
 30
0.0
 40
1.000000000000001
 50
180.0000000000155
 51
269.128430967923
  0
LINE
  5
F8
  8
1
  6
CONTINUOUS
 62
     7
 10
129.3181184947584
 20
137.5389933371813
 30
0.0
 11
130.3333305499439
 21
137.5235604814078
 31
0.0
  0
LINE
  5
F9
  8
1
  6
CONTINUOUS
 62
     7
 10
156.3333361167228
 20
137.5235604814078
 30
0.0
 11
157.3485481719082
 21
137.5389933371813
 31
0.0
  0
ARC
  5
FA
  8
1
  6
CONTINUOUS
 62
     7
 10
157.3333333333333
 20
138.5388774959945
 30
0.0
 40
0.9999999999999757
 50
270.871569032077
 51
359.9999999999844
  0
LINE
  5
FB
  8
1
  6
CONTINUOUS
 62
     7
 10
132.4597537878788
 20
132.7579596285333
 30
0.0
 11
132.4597537878788
 21
132.7204596285333
 31
0.0
  0
LINE
  5
FC
  8
1
  6
CONTINUOUS
 62
     7
 10
129.5833333333333
 20
135.1423095911129
 30
0.0
 11
129.5833333333333
 21
132.7579596285333
 31
0.0
  0
POLYLINE
  5
FD
  8
1
  6
CONTINUOUS
 62
     7
 66
     1
 10
0.0
 20
0.0
 30
0.0
  0
VERTEX
  5
248
  8
1
  6
CONTINUOUS
 62
     7
 10
130.0800368767831
 20
135.6422998625652
 30
0.0
  0
VERTEX
  5
249
  8
1
  6
CONTINUOUS
 62
     7
 10
130.0582085725304
 20
135.6416311542409
 30
0.0
  0
VERTEX
  5
24A
  8
1
  6
CONTINUOUS
 62
     7
 10
130.0364219728844
 20
135.6400072982865
 30
0.0
  0
VERTEX
  5
24B
  8
1
  6
CONTINUOUS
 62
     7
 10
130.0147191051615
 20
135.6374314108782
 30
0.0
  0
VERTEX
  5
24C
  8
1
  6
CONTINUOUS
 62
     7
 10
129.9931418553822
 20
135.633908428907
 30
0.0
  0
VERTEX
  5
24D
  8
1
  6
CONTINUOUS
 62
     7
 10
129.971731886157
 20
135.6294451004922
 30
0.0
  0
VERTEX
  5
24E
  8
1
  6
CONTINUOUS
 62
     7
 10
129.9509070825814
 20
135.6241544274615
 30
0.0
  0
VERTEX
  5
24F
  8
1
  6
CONTINUOUS
 62
     7
 10
129.9303223525798
 20
135.6179747006645
 30
0.0
  0
VERTEX
  5
250
  8
1
  6
CONTINUOUS
 62
     7
 10
129.9100160825223
 20
135.610917329956
 30
0.0
  0
VERTEX
  5
251
  8
1
  6
CONTINUOUS
 62
     7
 10
129.8900261532029
 20
135.6029953440608
 30
0.0
  0
VERTEX
  5
252
  8
1
  6
CONTINUOUS
 62
     7
 10
129.8700363474245
 20
135.5940561067711
 30
0.0
  0
VERTEX
  5
253
  8
1
  6
CONTINUOUS
 62
     7
 10
129.8504518450087
 20
135.5842527984371
 30
0.0
  0
VERTEX
  5
254
  8
1
  6
CONTINUOUS
 62
     7
 10
129.8313105580339
 20
135.5736041766931
 30
0.0
  0
VERTEX
  5
255
  8
1
  6
CONTINUOUS
 62
     7
 10
129.8126495516276
 20
135.5621306154979
 30
0.0
  0
VERTEX
  5
256
  8
1
  6
CONTINUOUS
 62
     7
 10
129.794504971102
 20
135.5498540661529
 30
0.0
  0
VERTEX
  5
257
  8
1
  6
CONTINUOUS
 62
     7
 10
129.7772210955575
 20
135.5370378520656
 30
0.0
  0
VERTEX
  5
258
  8
1
  6
CONTINUOUS
 62
     7
 10
129.7605015897896
 20
135.5234933735606
 30
0.0
  0
VERTEX
  5
259
  8
1
  6
CONTINUOUS
 62
     7
 10
129.7443777160258
 20
135.5092456243453
 30
0.0
  0
VERTEX
  5
25A
  8
1
  6
CONTINUOUS
 62
     7
 10
129.7288796295214
 20
135.4943208951714
 30
0.0
  0
VERTEX
  5
25B
  8
1
  6
CONTINUOUS
 62
     7
 10
129.7120645128455
 20
135.4765742283452
 30
0.0
  0
VERTEX
  5
25C
  8
1
  6
CONTINUOUS
 62
     7
 10
129.6961355127426
 20
135.4580312451049
 30
0.0
  0
VERTEX
  5
25D
  8
1
  6
CONTINUOUS
 62
     7
 10
129.6811311216186
 20
135.4387361250562
 30
0.0
  0
VERTEX
  5
25E
  8
1
  6
CONTINUOUS
 62
     7
 10
129.6670876048998
 20
135.4187348389284
 30
0.0
  0
VERTEX
  5
25F
  8
1
  6
CONTINUOUS
 62
     7
 10
129.6540389120687
 20
135.398075039086
 30
0.0
  0
VERTEX
  5
260
  8
1
  6
CONTINUOUS
 62
     7
 10
129.6420165933637
 20
135.3768059460388
 30
0.0
  0
VERTEX
  5
261
  8
1
  6
CONTINUOUS
 62
     7
 10
129.6310497223525
 20
135.354978231222
 30
0.0
  0
VERTEX
  5
262
  8
1
  6
CONTINUOUS
 62
     7
 10
129.6211648245698
 20
135.3326438963236
 30
0.0
  0
VERTEX
  5
263
  8
1
  6
CONTINUOUS
 62
     7
 10
129.6123858123968
 20
135.3098561494479
 30
0.0
  0
VERTEX
  5
264
  8
1
  6
CONTINUOUS
 62
     7
 10
129.6047339263443
 20
135.2866692784081
 30
0.0
  0
VERTEX
  5
265
  8
1
  6
CONTINUOUS
 62
     7
 10
129.598227682886
 20
135.2631385214515
 30
0.0
  0
VERTEX
  5
266
  8
1
  6
CONTINUOUS
 62
     7
 10
129.5928828289703
 20
135.2393199357221
 30
0.0
  0
VERTEX
  5
267
  8
1
  6
CONTINUOUS
 62
     7
 10
129.5887123033247
 20
135.2152702637765
 30
0.0
  0
VERTEX
  5
268
  8
1
  6
CONTINUOUS
 62
     7
 10
129.5857262046492
 20
135.1910467984684
 30
0.0
  0
VERTEX
  5
269
  8
1
  6
CONTINUOUS
 62
     7
 10
129.5839317667766
 20
135.1667072465244
 30
0.0
  0
VERTEX
  5
26A
  8
1
  6
CONTINUOUS
 62
     7
 10
129.5833333408631
 20
135.1423095911348
 30
0.0
  0
SEQEND
  5
3EE
  8
1
  6
CONTINUOUS
 62
     7
  0
POLYLINE
  5
FE
  8
1
  6
CONTINUOUS
 62
     7
 66
     1
 10
0.0
 20
0.0
 30
0.0
  0
VERTEX
  5
26B
  8
1
  6
CONTINUOUS
 62
     7
 10
157.0833333258036
 20
135.1423095911348
 30
0.0
  0
VERTEX
  5
26C
  8
1
  6
CONTINUOUS
 62
     7
 10
157.0827348998901
 20
135.1667072465244
 30
0.0
  0
VERTEX
  5
26D
  8
1
  6
CONTINUOUS
 62
     7
 10
157.0809404620175
 20
135.1910467984684
 30
0.0
  0
VERTEX
  5
26E
  8
1
  6
CONTINUOUS
 62
     7
 10
157.0779543633419
 20
135.2152702637765
 30
0.0
  0
VERTEX
  5
26F
  8
1
  6
CONTINUOUS
 62
     7
 10
157.0737838376964
 20
135.2393199357221
 30
0.0
  0
VERTEX
  5
270
  8
1
  6
CONTINUOUS
 62
     7
 10
157.0684389837807
 20
135.2631385214515
 30
0.0
  0
VERTEX
  5
271
  8
1
  6
CONTINUOUS
 62
     7
 10
157.0619327403223
 20
135.2866692784081
 30
0.0
  0
VERTEX
  5
272
  8
1
  6
CONTINUOUS
 62
     7
 10
157.0542808542699
 20
135.3098561494479
 30
0.0
  0
VERTEX
  5
273
  8
1
  6
CONTINUOUS
 62
     7
 10
157.0455018420968
 20
135.3326438963236
 30
0.0
  0
VERTEX
  5
274
  8
1
  6
CONTINUOUS
 62
     7
 10
157.0356169443141
 20
135.354978231222
 30
0.0
  0
VERTEX
  5
275
  8
1
  6
CONTINUOUS
 62
     7
 10
157.024650073303
 20
135.3768059460388
 30
0.0
  0
VERTEX
  5
276
  8
1
  6
CONTINUOUS
 62
     7
 10
157.012627754598
 20
135.398075039086
 30
0.0
  0
VERTEX
  5
277
  8
1
  6
CONTINUOUS
 62
     7
 10
156.9995790617669
 20
135.4187348389284
 30
0.0
  0
VERTEX
  5
278
  8
1
  6
CONTINUOUS
 62
     7
 10
156.9855355450481
 20
135.4387361250562
 30
0.0
  0
VERTEX
  5
279
  8
1
  6
CONTINUOUS
 62
     7
 10
156.970531153924
 20
135.4580312451049
 30
0.0
  0
VERTEX
  5
27A
  8
1
  6
CONTINUOUS
 62
     7
 10
156.9546021538212
 20
135.4765742283452
 30
0.0
  0
VERTEX
  5
27B
  8
1
  6
CONTINUOUS
 62
     7
 10
156.9377870371453
 20
135.4943208951714
 30
0.0
  0
VERTEX
  5
27C
  8
1
  6
CONTINUOUS
 62
     7
 10
156.9220012852029
 20
135.5095107983435
 30
0.0
  0
VERTEX
  5
27D
  8
1
  6
CONTINUOUS
 62
     7
 10
156.9055673447167
 20
135.5239983770074
 30
0.0
  0
VERTEX
  5
27E
  8
1
  6
CONTINUOUS
 62
     7
 10
156.8885170782629
 20
135.5377559170445
 30
0.0
  0
VERTEX
  5
27F
  8
1
  6
CONTINUOUS
 62
     7
 10
156.8708835358248
 20
135.5507571001469
 30
0.0
  0
VERTEX
  5
280
  8
1
  6
CONTINUOUS
 62
     7
 10
156.8527008897651
 20
135.5629770541545
 30
0.0
  0
VERTEX
  5
281
  8
1
  6
CONTINUOUS
 62
     7
 10
156.8343425318926
 20
135.5741957397124
 30
0.0
  0
VERTEX
  5
282
  8
1
  6
CONTINUOUS
 62
     7
 10
156.8155227840472
 20
135.5846175886444
 30
0.0
  0
VERTEX
  5
283
  8
1
  6
CONTINUOUS
 62
     7
 10
156.7962767985819
 20
135.594223366511
 30
0.0
  0
VERTEX
  5
284
  8
1
  6
CONTINUOUS
 62
     7
 10
156.7766405134638
 20
135.6029953440608
 30
0.0
  0
VERTEX
  5
285
  8
1
  6
CONTINUOUS
 62
     7
 10
156.7562840888424
 20
135.6110534048906
 30
0.0
  0
VERTEX
  5
286
  8
1
  6
CONTINUOUS
 62
     7
 10
156.7356004263305
 20
135.6182148688008
 30
0.0
  0
VERTEX
  5
287
  8
1
  6
CONTINUOUS
 62
     7
 10
156.7146295259588
 20
135.6244660298063
 30
0.0
  0
VERTEX
  5
288
  8
1
  6
CONTINUOUS
 62
     7
 10
156.6934119282879
 20
135.6297949226388
 30
0.0
  0
VERTEX
  5
289
  8
1
  6
CONTINUOUS
 62
     7
 10
156.6719886348235
 20
135.6341913456636
 30
0.0
  0
VERTEX
  5
28A
  8
1
  6
CONTINUOUS
 62
     7
 10
156.6507877203012
 20
135.637593466238
 30
0.0
  0
VERTEX
  5
28B
  8
1
  6
CONTINUOUS
 62
     7
 10
156.6294677932214
 20
135.6400817103903
 30
0.0
  0
VERTEX
  5
28C
  8
1
  6
CONTINUOUS
 62
     7
 10
156.6080685435233
 20
135.6416514778094
 30
0.0
  0
VERTEX
  5
28D
  8
1
  6
CONTINUOUS
 62
     7
 10
156.5866297898835
 20
135.6422998625652
 30
0.0
  0
SEQEND
  5
3EF
  8
1
  6
CONTINUOUS
 62
     7
  0
LINE
  5
FF
  8
1
  6
CONTINUOUS
 62
     7
 10
157.0833333333333
 20
132.7579596285333
 30
0.0
 11
157.0833333333333
 21
135.1423095911129
 31
0.0
  0
ENDBLK
  8
0
  0
BLOCK
  8
0
  2
D_FRAME_VIEW_1673
 70
     0
 10
0.0
 20
0.0
 30
0.0
  0
LINE
  5
104
  8
1
  6
CONTINUOUS
 62
     7
 10
63.24214770853106
 20
195.1579401311683
 30
0.0
 11
63.36440001292325
 21
209.1666666666667
 31
0.0
  0
LINE
  5
105
  8
1
  6
CONTINUOUS
 62
     7
 10
63.24214770853106
 20
223.175393202165
 30
0.0
 11
63.36440001292325
 21
209.1666666666667
 31
0.0
  0
LINE
  5
106
  8
1
  6
CONTINUOUS
 62
     7
 10
78.4245189581356
 20
195.1579401311683
 30
0.0
 11
78.30226665374342
 21
209.1666666666667
 31
0.0
  0
LINE
  5
107
  8
1
  6
CONTINUOUS
 62
     7
 10
78.4245189581356
 20
223.175393202165
 30
0.0
 11
78.30226665374342
 21
209.1666666666667
 31
0.0
  0
ARC
  5
108
  8
1
  6
CONTINUOUS
 62
     7
 10
62.24218578546689
 20
195.1666666666667
 30
0.0
 40
1.000000000000003
 50
269.9999999999995
 51
359.5000000000001
  0
ARC
  5
109
  8
1
  6
CONTINUOUS
 62
     7
 10
79.42448088119977
 20
195.1666666666667
 30
0.0
 40
1.000000000000003
 50
180.5
 51
270.0000000000004
  0
ARC
  5
10A
  8
1
  6
CONTINUOUS
 62
     7
 10
62.24218578546689
 20
223.1666666666667
 30
0.0
 40
1.000000000000003
 50
0.4999999999999834
 51
90.0000000000004
  0
ARC
  5
10B
  8
1
  6
CONTINUOUS
 62
     7
 10
79.42448088119977
 20
223.1666666666667
 30
0.0
 40
1.000000000000003
 50
89.99999999999966
 51
179.5
  0
LINE
  5
10C
  8
1
  6
CONTINUOUS
 62
     7
 10
61.04219582940554
 20
194.1666666666667
 30
0.0
 11
62.24218578546689
 21
194.1666666666667
 31
0.0
  0
LINE
  5
10D
  8
1
  6
CONTINUOUS
 62
     7
 10
80.62447083726113
 20
194.1666666666667
 30
0.0
 11
79.42448088119977
 21
194.1666666666667
 31
0.0
  0
LINE
  5
10E
  8
1
  6
CONTINUOUS
 62
     7
 10
80.62447083726113
 20
224.1666666666667
 30
0.0
 11
79.42448088119977
 21
224.1666666666667
 31
0.0
  0
LINE
  5
10F
  8
1
  6
CONTINUOUS
 62
     7
 10
61.04219582940554
 20
224.1666666666667
 30
0.0
 11
62.24218578546689
 21
224.1666666666667
 31
0.0
  0
LINE
  5
110
  8
1
  6
CONTINUOUS
 62
     7
 10
83.99203721126624
 20
204.9914642686213
 30
0.0
 11
82.22904145516829
 21
194.9930184889998
 31
0.0
  0
LINE
  5
111
  8
1
  6
CONTINUOUS
 62
     7
 10
57.67462945540043
 20
204.9914642686213
 30
0.0
 11
59.43762521149838
 21
194.9930184889998
 31
0.0
  0
LINE
  5
112
  8
1
  6
CONTINUOUS
 62
     7
 10
83.99203721126624
 20
213.3418690647121
 30
0.0
 11
82.22904145516829
 21
223.3403148443336
 31
0.0
  0
LINE
  5
113
  8
1
  6
CONTINUOUS
 62
     7
 10
57.67462945540043
 20
213.3418690647121
 30
0.0
 11
59.43762521149838
 21
223.3403148443336
 31
0.0
  0
ARC
  5
114
  8
1
  6
CONTINUOUS
 62
     7
 10
81.24423370215607
 20
195.1666666666667
 30
0.0
 40
0.9999999999999913
 50
269.9999999999995
 51
349.9999999999995
  0
LINE
  5
115
  8
1
  6
CONTINUOUS
 62
     7
 10
81.24423370215605
 20
194.1666666666667
 30
0.0
 11
80.62447083726111
 21
194.1666666666667
 31
0.0
  0
ARC
  5
116
  8
1
  6
CONTINUOUS
 62
     7
 10
60.4224329645106
 20
195.1666666666667
 30
0.0
 40
0.9999999999999982
 50
190.0000000000005
 51
270.0000000000005
  0
LINE
  5
117
  8
1
  6
CONTINUOUS
 62
     7
 10
60.4224329645106
 20
194.1666666666667
 30
0.0
 11
60.85550793152203
 21
194.1666666666667
 31
0.0
  0
LINE
  5
118
  8
1
  6
CONTINUOUS
 62
     7
 10
60.85550793152203
 20
194.1666666666667
 30
0.0
 11
61.04219582940556
 21
194.1666666666667
 31
0.0
  0
ARC
  5
119
  8
1
  6
CONTINUOUS
 62
     7
 10
81.24423370215607
 20
223.1666666666667
 30
0.0
 40
0.9999999999999913
 50
10.00000000000049
 51
90.0000000000005
  0
LINE
  5
11A
  8
1
  6
CONTINUOUS
 62
     7
 10
81.24423370215605
 20
224.1666666666667
 30
0.0
 11
80.62447083726111
 21
224.1666666666667
 31
0.0
  0
ARC
  5
11B
  8
1
  6
CONTINUOUS
 62
     7
 10
60.4224329645106
 20
223.1666666666667
 30
0.0
 40
0.9999999999999982
 50
89.99999999999955
 51
169.9999999999995
  0
LINE
  5
11C
  8
1
  6
CONTINUOUS
 62
     7
 10
60.4224329645106
 20
224.1666666666667
 30
0.0
 11
60.85550793152203
 21
224.1666666666667
 31
0.0
  0
LINE
  5
11D
  8
1
  6
CONTINUOUS
 62
     7
 10
60.85550793152203
 20
224.1666666666667
 30
0.0
 11
61.04219582940556
 21
224.1666666666667
 31
0.0
  0
LINE
  5
11E
  8
1
  6
CONTINUOUS
 62
     7
 10
64.71111910587697
 20
194.1666666666667
 30
0.0
 11
62.24218578546689
 21
194.1666666666667
 31
0.0
  0
POLYLINE
  5
11F
  8
1
  6
CONTINUOUS
 62
     7
 66
     1
 10
0.0
 20
0.0
 30
0.0
  0
VERTEX
  5
290
  8
1
  6
CONTINUOUS
 62
     7
 10
65.47669699861135
 20
194.5233234533198
 30
0.0
  0
VERTEX
  5
291
  8
1
  6
CONTINUOUS
 62
     7
 10
65.44633128802224
 20
194.4888304816052
 30
0.0
  0
VERTEX
  5
292
  8
1
  6
CONTINUOUS
 62
     7
 10
65.4147187787989
 20
194.4560700861344
 30
0.0
  0
VERTEX
  5
293
  8
1
  6
CONTINUOUS
 62
     7
 10
65.38167721393471
 20
194.4248103135542
 30
0.0
  0
VERTEX
  5
294
  8
1
  6
CONTINUOUS
 62
     7
 10
65.34758707622449
 20
194.3953635338312
 30
0.0
  0
VERTEX
  5
295
  8
1
  6
CONTINUOUS
 62
     7
 10
65.30694032108526
 20
194.363552804697
 30
0.0
  0
VERTEX
  5
296
  8
1
  6
CONTINUOUS
 62
     7
 10
65.26515873762786
 20
194.3341795496569
 30
0.0
  0
VERTEX
  5
297
  8
1
  6
CONTINUOUS
 62
     7
 10
65.2224406867169
 20
194.3072772084062
 30
0.0
  0
VERTEX
  5
298
  8
1
  6
CONTINUOUS
 62
     7
 10
65.17797247186458
 20
194.2823341011851
 30
0.0
  0
VERTEX
  5
299
  8
1
  6
CONTINUOUS
 62
     7
 10
65.13276186687324
 20
194.259906801584
 30
0.0
  0
VERTEX
  5
29A
  8
1
  6
CONTINUOUS
 62
     7
 10
65.08698664073204
 20
194.2399932634431
 30
0.0
  0
VERTEX
  5
29B
  8
1
  6
CONTINUOUS
 62
     7
 10
65.03378101525837
 20
194.2201547337781
 30
0.0
  0
VERTEX
  5
29C
  8
1
  6
CONTINUOUS
 62
     7
 10
64.98009382913261
 20
194.2035218108005
 30
0.0
  0
VERTEX
  5
29D
  8
1
  6
CONTINUOUS
 62
     7
 10
64.92614369298855
 20
194.1900580311642
 30
0.0
  0
VERTEX
  5
29E
  8
1
  6
CONTINUOUS
 62
     7
 10
64.87092045560135
 20
194.1795190766791
 30
0.0
  0
VERTEX
  5
29F
  8
1
  6
CONTINUOUS
 62
     7
 10
64.81564762954363
 20
194.1721464215157
 30
0.0
  0
VERTEX
  5
2A0
  8
1
  6
CONTINUOUS
 62
     7
 10
64.76050995862252
 20
194.1678871396113
 30
0.0
  0
VERTEX
  5
2A1
  8
1
  6
CONTINUOUS
 62
     7
 10
64.71111910587697
 20
194.1666666666667
 30
0.0
  0
SEQEND
  5
3F0
  8
1
  6
CONTINUOUS
 62
     7
  0
LINE
  5
120
  8
1
  6
CONTINUOUS
 62
     7
 10
76.95554756078968
 20
194.1666666666667
 30
0.0
 11
79.42448088119977
 21
194.1666666666667
 31
0.0
  0
POLYLINE
  5
121
  8
1
  6
CONTINUOUS
 62
     7
 66
     1
 10
0.0
 20
0.0
 30
0.0
  0
VERTEX
  5
2A2
  8
1
  6
CONTINUOUS
 62
     7
 10
76.18996966805531
 20
194.5233234533198
 30
0.0
  0
VERTEX
  5
2A3
  8
1
  6
CONTINUOUS
 62
     7
 10
76.22045498624335
 20
194.4887069017359
 30
0.0
  0
VERTEX
  5
2A4
  8
1
  6
CONTINUOUS
 62
     7
 10
76.25223081231975
 20
194.4558020132206
 30
0.0
  0
VERTEX
  5
2A5
  8
1
  6
CONTINUOUS
 62
     7
 10
76.28515354686066
 20
194.4246678648828
 30
0.0
  0
VERTEX
  5
2A6
  8
1
  6
CONTINUOUS
 62
     7
 10
76.31907959044217
 20
194.3953635338312
 30
0.0
  0
VERTEX
  5
2A7
  8
1
  6
CONTINUOUS
 62
     7
 10
76.36008843001619
 20
194.3632980528277
 30
0.0
  0
VERTEX
  5
2A8
  8
1
  6
CONTINUOUS
 62
     7
 10
76.40231769731534
 20
194.3336808580155
 30
0.0
  0
VERTEX
  5
2A9
  8
1
  6
CONTINUOUS
 62
     7
 10
76.44557944144817
 20
194.3065268655328
 30
0.0
  0
VERTEX
  5
2AA
  8
1
  6
CONTINUOUS
 62
     7
 10
76.48968571152328
 20
194.2818509915177
 30
0.0
  0
VERTEX
  5
2AB
  8
1
  6
CONTINUOUS
 62
     7
 10
76.53444855664922
 20
194.2596681521084
 30
0.0
  0
VERTEX
  5
2AC
  8
1
  6
CONTINUOUS
 62
     7
 10
76.57968002593462
 20
194.2399932634431
 30
0.0
  0
VERTEX
  5
2AD
  8
1
  6
CONTINUOUS
 62
     7
 10
76.63334174152193
 20
194.2200089121376
 30
0.0
  0
VERTEX
  5
2AE
  8
1
  6
CONTINUOUS
 62
     7
 10
76.68757177284832
 20
194.2032720206657
 30
0.0
  0
VERTEX
  5
2AF
  8
1
  6
CONTINUOUS
 62
     7
 10
76.74216920253875
 20
194.1897369933522
 30
0.0
  0
VERTEX
  5
2B0
  8
1
  6
CONTINUOUS
 62
     7
 10
76.7969331132182
 20
194.179358234522
 30
0.0
  0
VERTEX
  5
2B1
  8
1
  6
CONTINUOUS
 62
     7
 10
76.85166258751168
 20
194.1720901485
 30
0.0
  0
VERTEX
  5
2B2
  8
1
  6
CONTINUOUS
 62
     7
 10
76.90615670804414
 20
194.1678871396113
 30
0.0
  0
VERTEX
  5
2B3
  8
1
  6
CONTINUOUS
 62
     7
 10
76.9555475607897
 20
194.1666666666667
 30
0.0
  0
SEQEND
  5
3F1
  8
1
  6
CONTINUOUS
 62
     7
  0
LINE
  5
122
  8
1
  6
CONTINUOUS
 62
     7
 10
76.95554756078968
 20
224.1666666666667
 30
0.0
 11
79.42448088119977
 21
224.1666666666667
 31
0.0
  0
POLYLINE
  5
123
  8
1
  6
CONTINUOUS
 62
     7
 66
     1
 10
0.0
 20
0.0
 30
0.0
  0
VERTEX
  5
2B4
  8
1
  6
CONTINUOUS
 62
     7
 10
76.18996966805531
 20
223.8100098800135
 30
0.0
  0
VERTEX
  5
2B5
  8
1
  6
CONTINUOUS
 62
     7
 10
76.22045498624335
 20
223.8446264315975
 30
0.0
  0
VERTEX
  5
2B6
  8
1
  6
CONTINUOUS
 62
     7
 10
76.25223081231975
 20
223.8775313201127
 30
0.0
  0
VERTEX
  5
2B7
  8
1
  6
CONTINUOUS
 62
     7
 10
76.28515354686066
 20
223.9086654684505
 30
0.0
  0
VERTEX
  5
2B8
  8
1
  6
CONTINUOUS
 62
     7
 10
76.31907959044217
 20
223.9379697995021
 30
0.0
  0
VERTEX
  5
2B9
  8
1
  6
CONTINUOUS
 62
     7
 10
76.36008843001619
 20
223.9700352805056
 30
0.0
  0
VERTEX
  5
2BA
  8
1
  6
CONTINUOUS
 62
     7
 10
76.40231769731534
 20
223.9996524753178
 30
0.0
  0
VERTEX
  5
2BB
  8
1
  6
CONTINUOUS
 62
     7
 10
76.44557944144817
 20
224.0268064678005
 30
0.0
  0
VERTEX
  5
2BC
  8
1
  6
CONTINUOUS
 62
     7
 10
76.48968571152328
 20
224.0514823418156
 30
0.0
  0
VERTEX
  5
2BD
  8
1
  6
CONTINUOUS
 62
     7
 10
76.53444855664922
 20
224.0736651812249
 30
0.0
  0
VERTEX
  5
2BE
  8
1
  6
CONTINUOUS
 62
     7
 10
76.57968002593462
 20
224.0933400698902
 30
0.0
  0
VERTEX
  5
2BF
  8
1
  6
CONTINUOUS
 62
     7
 10
76.63334174152193
 20
224.1133244211957
 30
0.0
  0
VERTEX
  5
2C0
  8
1
  6
CONTINUOUS
 62
     7
 10
76.68757177284832
 20
224.1300613126677
 30
0.0
  0
VERTEX
  5
2C1
  8
1
  6
CONTINUOUS
 62
     7
 10
76.74216920253875
 20
224.1435963399811
 30
0.0
  0
VERTEX
  5
2C2
  8
1
  6
CONTINUOUS
 62
     7
 10
76.7969331132182
 20
224.1539750988113
 30
0.0
  0
VERTEX
  5
2C3
  8
1
  6
CONTINUOUS
 62
     7
 10
76.85166258751168
 20
224.1612431848333
 30
0.0
  0
VERTEX
  5
2C4
  8
1
  6
CONTINUOUS
 62
     7
 10
76.90615670804414
 20
224.1654461937221
 30
0.0
  0
VERTEX
  5
2C5
  8
1
  6
CONTINUOUS
 62
     7
 10
76.9555475607897
 20
224.1666666666667
 30
0.0
  0
SEQEND
  5
3F2
  8
1
  6
CONTINUOUS
 62
     7
  0
LINE
  5
124
  8
1
  6
CONTINUOUS
 62
     7
 10
64.71111910587697
 20
224.1666666666667
 30
0.0
 11
62.24218578546689
 21
224.1666666666667
 31
0.0
  0
POLYLINE
  5
125
  8
1
  6
CONTINUOUS
 62
     7
 66
     1
 10
0.0
 20
0.0
 30
0.0
  0
VERTEX
  5
2C6
  8
1
  6
CONTINUOUS
 62
     7
 10
65.47669699861135
 20
223.8100098800135
 30
0.0
  0
VERTEX
  5
2C7
  8
1
  6
CONTINUOUS
 62
     7
 10
65.44633128802224
 20
223.8445028517281
 30
0.0
  0
VERTEX
  5
2C8
  8
1
  6
CONTINUOUS
 62
     7
 10
65.4147187787989
 20
223.877263247199
 30
0.0
  0
VERTEX
  5
2C9
  8
1
  6
CONTINUOUS
 62
     7
 10
65.38167721393471
 20
223.9085230197792
 30
0.0
  0
VERTEX
  5
2CA
  8
1
  6
CONTINUOUS
 62
     7
 10
65.34758707622449
 20
223.9379697995021
 30
0.0
  0
VERTEX
  5
2CB
  8
1
  6
CONTINUOUS
 62
     7
 10
65.30694032108526
 20
223.9697805286363
 30
0.0
  0
VERTEX
  5
2CC
  8
1
  6
CONTINUOUS
 62
     7
 10
65.26515873762786
 20
223.9991537836764
 30
0.0
  0
VERTEX
  5
2CD
  8
1
  6
CONTINUOUS
 62
     7
 10
65.2224406867169
 20
224.0260561249271
 30
0.0
  0
VERTEX
  5
2CE
  8
1
  6
CONTINUOUS
 62
     7
 10
65.17797247186458
 20
224.0509992321483
 30
0.0
  0
VERTEX
  5
2CF
  8
1
  6
CONTINUOUS
 62
     7
 10
65.13276186687324
 20
224.0734265317493
 30
0.0
  0
VERTEX
  5
2D0
  8
1
  6
CONTINUOUS
 62
     7
 10
65.08698664073204
 20
224.0933400698902
 30
0.0
  0
VERTEX
  5
2D1
  8
1
  6
CONTINUOUS
 62
     7
 10
65.03378101525837
 20
224.1131785995552
 30
0.0
  0
VERTEX
  5
2D2
  8
1
  6
CONTINUOUS
 62
     7
 10
64.98009382913261
 20
224.1298115225329
 30
0.0
  0
VERTEX
  5
2D3
  8
1
  6
CONTINUOUS
 62
     7
 10
64.92614369298855
 20
224.1432753021691
 30
0.0
  0
VERTEX
  5
2D4
  8
1
  6
CONTINUOUS
 62
     7
 10
64.87092045560135
 20
224.1538142566542
 30
0.0
  0
VERTEX
  5
2D5
  8
1
  6
CONTINUOUS
 62
     7
 10
64.81564762954363
 20
224.1611869118176
 30
0.0
  0
VERTEX
  5
2D6
  8
1
  6
CONTINUOUS
 62
     7
 10
64.76050995862252
 20
224.1654461937221
 30
0.0
  0
VERTEX
  5
2D7
  8
1
  6
CONTINUOUS
 62
     7
 10
64.71111910587697
 20
224.1666666666667
 30
0.0
  0
SEQEND
  5
3F3
  8
1
  6
CONTINUOUS
 62
     7
  0
LINE
  5
126
  8
1
  6
CONTINUOUS
 62
     7
 10
65.71108102894114
 20
195.1579401311683
 30
0.0
 11
65.83333333333333
 21
209.1666666666667
 31
0.0
  0
POLYLINE
  5
127
  8
1
  6
CONTINUOUS
 62
     7
 66
     1
 10
0.0
 20
0.0
 30
0.0
  0
VERTEX
  5
2D8
  8
1
  6
CONTINUOUS
 62
     7
 10
65.47669699861135
 20
194.5233234533198
 30
0.0
  0
VERTEX
  5
2D9
  8
1
  6
CONTINUOUS
 62
     7
 10
65.50164538205357
 20
194.5542409174051
 30
0.0
  0
VERTEX
  5
2DA
  8
1
  6
CONTINUOUS
 62
     7
 10
65.52509637457287
 20
194.5857745013919
 30
0.0
  0
VERTEX
  5
2DB
  8
1
  6
CONTINUOUS
 62
     7
 10
65.5470493899883
 20
194.6178338033611
 30
0.0
  0
VERTEX
  5
2DC
  8
1
  6
CONTINUOUS
 62
     7
 10
65.56750384211882
 20
194.6503284213933
 30
0.0
  0
VERTEX
  5
2DD
  8
1
  6
CONTINUOUS
 62
     7
 10
65.59316450235221
 20
194.6955035427117
 30
0.0
  0
VERTEX
  5
2DE
  8
1
  6
CONTINUOUS
 62
     7
 10
65.61617191655543
 20
194.7413690511186
 30
0.0
  0
VERTEX
  5
2DF
  8
1
  6
CONTINUOUS
 62
     7
 10
65.63655732188676
 20
194.7877681204189
 30
0.0
  0
VERTEX
  5
2E0
  8
1
  6
CONTINUOUS
 62
     7
 10
65.65341971841447
 20
194.8318993018133
 30
0.0
  0
VERTEX
  5
2E1
  8
1
  6
CONTINUOUS
 62
     7
 10
65.66807131921253
 20
194.8764226394011
 30
0.0
  0
VERTEX
  5
2E2
  8
1
  6
CONTINUOUS
 62
     7
 10
65.68053534701748
 20
194.9212455006455
 30
0.0
  0
VERTEX
  5
2E3
  8
1
  6
CONTINUOUS
 62
     7
 10
65.69083502456594
 20
194.9662752530097
 30
0.0
  0
VERTEX
  5
2E4
  8
1
  6
CONTINUOUS
 62
     7
 10
65.70148710419926
 20
195.0282069376288
 30
0.0
  0
VERTEX
  5
2E5
  8
1
  6
CONTINUOUS
 62
     7
 10
65.70820902157973
 20
195.0904335594101
 30
0.0
  0
VERTEX
  5
2E6
  8
1
  6
CONTINUOUS
 62
     7
 10
65.71102247117022
 20
195.1527648655159
 30
0.0
  0
VERTEX
  5
2E7
  8
1
  6
CONTINUOUS
 62
     7
 10
65.71108102894114
 20
195.1579401311683
 30
0.0
  0
SEQEND
  5
3F4
  8
1
  6
CONTINUOUS
 62
     7
  0
LINE
  5
128
  8
1
  6
CONTINUOUS
 62
     7
 10
75.95558563772552
 20
195.1579401311683
 30
0.0
 11
75.83333333333333
 21
209.1666666666667
 31
0.0
  0
POLYLINE
  5
129
  8
1
  6
CONTINUOUS
 62
     7
 66
     1
 10
0.0
 20
0.0
 30
0.0
  0
VERTEX
  5
2E8
  8
1
  6
CONTINUOUS
 62
     7
 10
76.18996966805531
 20
194.5233234533198
 30
0.0
  0
VERTEX
  5
2E9
  8
1
  6
CONTINUOUS
 62
     7
 10
76.16502128461309
 20
194.5542409174051
 30
0.0
  0
VERTEX
  5
2EA
  8
1
  6
CONTINUOUS
 62
     7
 10
76.1415702920938
 20
194.5857745013919
 30
0.0
  0
VERTEX
  5
2EB
  8
1
  6
CONTINUOUS
 62
     7
 10
76.11961727667835
 20
194.6178338033611
 30
0.0
  0
VERTEX
  5
2EC
  8
1
  6
CONTINUOUS
 62
     7
 10
76.09916282454783
 20
194.6503284213933
 30
0.0
  0
VERTEX
  5
2ED
  8
1
  6
CONTINUOUS
 62
     7
 10
76.07350216431445
 20
194.6955035427117
 30
0.0
  0
VERTEX
  5
2EE
  8
1
  6
CONTINUOUS
 62
     7
 10
76.05049475011123
 20
194.7413690511186
 30
0.0
  0
VERTEX
  5
2EF
  8
1
  6
CONTINUOUS
 62
     7
 10
76.03010934477992
 20
194.7877681204189
 30
0.0
  0
VERTEX
  5
2F0
  8
1
  6
CONTINUOUS
 62
     7
 10
76.01324694825219
 20
194.8318993018133
 30
0.0
  0
VERTEX
  5
2F1
  8
1
  6
CONTINUOUS
 62
     7
 10
75.99859534745414
 20
194.8764226394011
 30
0.0
  0
VERTEX
  5
2F2
  8
1
  6
CONTINUOUS
 62
     7
 10
75.98613131964917
 20
194.9212455006455
 30
0.0
  0
VERTEX
  5
2F3
  8
1
  6
CONTINUOUS
 62
     7
 10
75.97583164210072
 20
194.9662752530097
 30
0.0
  0
VERTEX
  5
2F4
  8
1
  6
CONTINUOUS
 62
     7
 10
75.9651795624674
 20
195.0282069376288
 30
0.0
  0
VERTEX
  5
2F5
  8
1
  6
CONTINUOUS
 62
     7
 10
75.95845764508692
 20
195.0904335594101
 30
0.0
  0
VERTEX
  5
2F6
  8
1
  6
CONTINUOUS
 62
     7
 10
75.95564419549643
 20
195.1527648655159
 30
0.0
  0
VERTEX
  5
2F7
  8
1
  6
CONTINUOUS
 62
     7
 10
75.95558563772552
 20
195.1579401311683
 30
0.0
  0
SEQEND
  5
3F5
  8
1
  6
CONTINUOUS
 62
     7
  0
LINE
  5
12A
  8
1
  6
CONTINUOUS
 62
     7
 10
65.71108102894114
 20
223.175393202165
 30
0.0
 11
65.83333333333333
 21
209.1666666666667
 31
0.0
  0
POLYLINE
  5
12B
  8
1
  6
CONTINUOUS
 62
     7
 66
     1
 10
0.0
 20
0.0
 30
0.0
  0
VERTEX
  5
2F8
  8
1
  6
CONTINUOUS
 62
     7
 10
65.47669699861135
 20
223.8100098800135
 30
0.0
  0
VERTEX
  5
2F9
  8
1
  6
CONTINUOUS
 62
     7
 10
65.50164538205357
 20
223.7790924159282
 30
0.0
  0
VERTEX
  5
2FA
  8
1
  6
CONTINUOUS
 62
     7
 10
65.52509637457287
 20
223.7475588319414
 30
0.0
  0
VERTEX
  5
2FB
  8
1
  6
CONTINUOUS
 62
     7
 10
65.5470493899883
 20
223.7154995299722
 30
0.0
  0
VERTEX
  5
2FC
  8
1
  6
CONTINUOUS
 62
     7
 10
65.56750384211882
 20
223.68300491194
 30
0.0
  0
VERTEX
  5
2FD
  8
1
  6
CONTINUOUS
 62
     7
 10
65.59316450235221
 20
223.6378297906216
 30
0.0
  0
VERTEX
  5
2FE
  8
1
  6
CONTINUOUS
 62
     7
 10
65.61617191655543
 20
223.5919642822147
 30
0.0
  0
VERTEX
  5
2FF
  8
1
  6
CONTINUOUS
 62
     7
 10
65.63655732188676
 20
223.5455652129144
 30
0.0
  0
VERTEX
  5
300
  8
1
  6
CONTINUOUS
 62
     7
 10
65.65341971841447
 20
223.50143403152
 30
0.0
  0
VERTEX
  5
301
  8
1
  6
CONTINUOUS
 62
     7
 10
65.66807131921253
 20
223.4569106939322
 30
0.0
  0
VERTEX
  5
302
  8
1
  6
CONTINUOUS
 62
     7
 10
65.68053534701748
 20
223.4120878326878
 30
0.0
  0
VERTEX
  5
303
  8
1
  6
CONTINUOUS
 62
     7
 10
65.69083502456594
 20
223.3670580803236
 30
0.0
  0
VERTEX
  5
304
  8
1
  6
CONTINUOUS
 62
     7
 10
65.70148710419926
 20
223.3051263957045
 30
0.0
  0
VERTEX
  5
305
  8
1
  6
CONTINUOUS
 62
     7
 10
65.70820902157973
 20
223.2428997739233
 30
0.0
  0
VERTEX
  5
306
  8
1
  6
CONTINUOUS
 62
     7
 10
65.71102247117022
 20
223.1805684678174
 30
0.0
  0
VERTEX
  5
307
  8
1
  6
CONTINUOUS
 62
     7
 10
65.71108102894114
 20
223.175393202165
 30
0.0
  0
SEQEND
  5
3F6
  8
1
  6
CONTINUOUS
 62
     7
  0
LINE
  5
12C
  8
1
  6
CONTINUOUS
 62
     7
 10
75.95558563772552
 20
223.175393202165
 30
0.0
 11
75.83333333333333
 21
209.1666666666667
 31
0.0
  0
POLYLINE
  5
12D
  8
1
  6
CONTINUOUS
 62
     7
 66
     1
 10
0.0
 20
0.0
 30
0.0
  0
VERTEX
  5
308
  8
1
  6
CONTINUOUS
 62
     7
 10
76.18996966805531
 20
223.8100098800135
 30
0.0
  0
VERTEX
  5
309
  8
1
  6
CONTINUOUS
 62
     7
 10
76.16502128461309
 20
223.7790924159282
 30
0.0
  0
VERTEX
  5
30A
  8
1
  6
CONTINUOUS
 62
     7
 10
76.1415702920938
 20
223.7475588319414
 30
0.0
  0
VERTEX
  5
30B
  8
1
  6
CONTINUOUS
 62
     7
 10
76.11961727667835
 20
223.7154995299722
 30
0.0
  0
VERTEX
  5
30C
  8
1
  6
CONTINUOUS
 62
     7
 10
76.09916282454783
 20
223.68300491194
 30
0.0
  0
VERTEX
  5
30D
  8
1
  6
CONTINUOUS
 62
     7
 10
76.07350216431445
 20
223.6378297906216
 30
0.0
  0
VERTEX
  5
30E
  8
1
  6
CONTINUOUS
 62
     7
 10
76.05049475011123
 20
223.5919642822147
 30
0.0
  0
VERTEX
  5
30F
  8
1
  6
CONTINUOUS
 62
     7
 10
76.03010934477992
 20
223.5455652129144
 30
0.0
  0
VERTEX
  5
310
  8
1
  6
CONTINUOUS
 62
     7
 10
76.01324694825219
 20
223.50143403152
 30
0.0
  0
VERTEX
  5
311
  8
1
  6
CONTINUOUS
 62
     7
 10
75.99859534745414
 20
223.4569106939322
 30
0.0
  0
VERTEX
  5
312
  8
1
  6
CONTINUOUS
 62
     7
 10
75.98613131964917
 20
223.4120878326878
 30
0.0
  0
VERTEX
  5
313
  8
1
  6
CONTINUOUS
 62
     7
 10
75.97583164210072
 20
223.3670580803236
 30
0.0
  0
VERTEX
  5
314
  8
1
  6
CONTINUOUS
 62
     7
 10
75.9651795624674
 20
223.3051263957045
 30
0.0
  0
VERTEX
  5
315
  8
1
  6
CONTINUOUS
 62
     7
 10
75.95845764508692
 20
223.2428997739233
 30
0.0
  0
VERTEX
  5
316
  8
1
  6
CONTINUOUS
 62
     7
 10
75.95564419549643
 20
223.1805684678174
 30
0.0
  0
VERTEX
  5
317
  8
1
  6
CONTINUOUS
 62
     7
 10
75.95558563772552
 20
223.175393202165
 30
0.0
  0
SEQEND
  5
3F7
  8
1
  6
CONTINUOUS
 62
     7
  0
LINE
  5
12E
  8
1
  6
CONTINUOUS
 62
     7
 10
74.44251437378234
 20
196.1666666666667
 30
0.0
 11
75.94718731255385
 21
196.1666666666667
 31
0.0
  0
LINE
  5
12F
  8
1
  6
CONTINUOUS
 62
     7
 10
65.7194793541128
 20
196.1666666666667
 30
0.0
 11
67.22415229288433
 21
196.1666666666667
 31
0.0
  0
LINE
  5
130
  8
1
  6
CONTINUOUS
 62
     7
 10
65.7194793541128
 20
222.1666666666667
 30
0.0
 11
67.22415229288433
 21
222.1666666666667
 31
0.0
  0
LINE
  5
131
  8
1
  6
CONTINUOUS
 62
     7
 10
74.44251437378234
 20
222.1666666666667
 30
0.0
 11
75.94718731255385
 21
222.1666666666667
 31
0.0
  0
LINE
  5
132
  8
1
  6
CONTINUOUS
 62
     7
 10
70.33333333333333
 20
210.7666666666667
 30
0.0
 11
68.62882524029669
 21
210.7666666666667
 31
0.0
  0
ARC
  5
133
  8
1
  6
CONTINUOUS
 62
     7
 10
70.83333333333333
 20
209.1668741079086
 30
0.0
 40
2.723819412426079
 50
144.0319308045482
 51
180.0043640953953
  0
ARC
  5
134
  8
1
  6
CONTINUOUS
 62
     7
 10
70.83333333333333
 20
209.1668741079086
 30
0.0
 40
2.723819412426079
 50
359.9956364553197
 51
35.96806919545185
  0
LINE
  5
135
  8
1
  6
CONTINUOUS
 62
     7
 10
71.33333333333333
 20
210.7666666666667
 30
0.0
 11
73.03784142636997
 21
210.7666666666667
 31
0.0
  0
LINE
  5
136
  8
1
  6
CONTINUOUS
 62
     7
 10
71.33333333333333
 20
211.8444088303836
 30
0.0
 11
71.33333333333333
 21
210.7666666666667
 31
0.0
  0
ARC
  5
137
  8
1
  6
CONTINUOUS
 62
     7
 10
70.83333333333333
 20
209.1668741079086
 30
0.0
 40
2.723819412426079
 50
79.42247502256868
 51
100.5775249774313
  0
LINE
  5
138
  8
1
  6
CONTINUOUS
 62
     7
 10
70.33333333333333
 20
211.8444088303836
 30
0.0
 11
70.33333333333333
 21
210.7666666666667
 31
0.0
  0
LINE
  5
139
  8
1
  6
CONTINUOUS
 62
     7
 10
70.33333333333333
 20
206.4889245029497
 30
0.0
 11
70.33333333333333
 21
207.5666666666667
 31
0.0
  0
ARC
  5
13A
  8
1
  6
CONTINUOUS
 62
     7
 10
70.83333333333333
 20
209.1664592254247
 30
0.0
 40
2.723819412426079
 50
259.4224750225687
 51
280.5775249774313
  0
LINE
  5
13B
  8
1
  6
CONTINUOUS
 62
     7
 10
71.33333333333333
 20
206.4889245029497
 30
0.0
 11
71.33333333333333
 21
207.5666666666667
 31
0.0
  0
LINE
  5
13C
  8
1
  6
CONTINUOUS
 62
     7
 10
71.33333333333333
 20
207.5666666666667
 30
0.0
 11
73.03784142636997
 21
207.5666666666667
 31
0.0
  0
ARC
  5
13D
  8
1
  6
CONTINUOUS
 62
     7
 10
70.83333333333333
 20
209.1664592254247
 30
0.0
 40
2.723819412426079
 50
324.0319308045482
 51
0.0043635446803592
  0
ARC
  5
13E
  8
1
  6
CONTINUOUS
 62
     7
 10
70.83333333333333
 20
209.1664592254247
 30
0.0
 40
2.723819412426079
 50
179.9956359046047
 51
215.9680691954518
  0
LINE
  5
13F
  8
1
  6
CONTINUOUS
 62
     7
 10
70.33333333333333
 20
207.5666666666667
 30
0.0
 11
68.62882524029669
 21
207.5666666666667
 31
0.0
  0
POLYLINE
  5
140
  8
1
  6
CONTINUOUS
 62
     7
 66
     1
 10
0.0
 20
0.0
 30
0.0
  0
VERTEX
  5
318
  8
1
  6
CONTINUOUS
 62
     7
 10
69.68768940959437
 20
196.1666666666667
 30
0.0
  0
VERTEX
  5
319
  8
1
  6
CONTINUOUS
 62
     7
 10
69.7118316747246
 20
196.1660834775915
 30
0.0
  0
VERTEX
  5
31A
  8
1
  6
CONTINUOUS
 62
     7
 10
69.73591762183376
 20
196.1643352708042
 30
0.0
  0
VERTEX
  5
31B
  8
1
  6
CONTINUOUS
 62
     7
 10
69.75989106427694
 20
196.161426124445
 30
0.0
  0
VERTEX
  5
31C
  8
1
  6
CONTINUOUS
 62
     7
 10
69.78369607785528
 20
196.1573628248434
 30
0.0
  0
VERTEX
  5
31D
  8
1
  6
CONTINUOUS
 62
     7
 10
69.80727713127334
 20
196.1521548506873
 30
0.0
  0
VERTEX
  5
31E
  8
1
  6
CONTINUOUS
 62
     7
 10
69.83057921568019
 20
196.1458143509111
 30
0.0
  0
VERTEX
  5
31F
  8
1
  6
CONTINUOUS
 62
     7
 10
69.8535479729916
 20
196.1383561163555
 30
0.0
  0
VERTEX
  5
320
  8
1
  6
CONTINUOUS
 62
     7
 10
69.8761298226943
 20
196.1297975452644
 30
0.0
  0
VERTEX
  5
321
  8
1
  6
CONTINUOUS
 62
     7
 10
69.89827208683604
 20
196.1201586026983
 30
0.0
  0
VERTEX
  5
322
  8
1
  6
CONTINUOUS
 62
     7
 10
69.91992311291071
 20
196.1094617739612
 30
0.0
  0
VERTEX
  5
323
  8
1
  6
CONTINUOUS
 62
     7
 10
69.94103239435076
 20
196.0977320121478
 30
0.0
  0
VERTEX
  5
324
  8
1
  6
CONTINUOUS
 62
     7
 10
69.96155068834696
 20
196.0849966799337
 30
0.0
  0
VERTEX
  5
325
  8
1
  6
CONTINUOUS
 62
     7
 10
69.98143013071969
 20
196.0712854857455
 30
0.0
  0
VERTEX
  5
326
  8
1
  6
CONTINUOUS
 62
     7
 10
70.0006243475745
 20
196.0566304144579
 30
0.0
  0
VERTEX
  5
327
  8
1
  6
CONTINUOUS
 62
     7
 10
70.01908856348112
 20
196.0410656527806
 30
0.0
  0
VERTEX
  5
328
  8
1
  6
CONTINUOUS
 62
     7
 10
70.03677970592354
 20
196.0246275095096
 30
0.0
  0
VERTEX
  5
329
  8
1
  6
CONTINUOUS
 62
     7
 10
70.05365650577775
 20
196.0073543308271
 30
0.0
  0
VERTEX
  5
32A
  8
1
  6
CONTINUOUS
 62
     7
 10
70.06967959358258
 20
195.9892864108496
 30
0.0
  0
VERTEX
  5
32B
  8
1
  6
CONTINUOUS
 62
     7
 10
70.08481159137901
 20
195.9704658976311
 30
0.0
  0
VERTEX
  5
32C
  8
1
  6
CONTINUOUS
 62
     7
 10
70.09901719990381
 20
195.9509366948426
 30
0.0
  0
VERTEX
  5
32D
  8
1
  6
CONTINUOUS
 62
     7
 10
70.11226328093423
 20
195.9307443593548
 30
0.0
  0
VERTEX
  5
32E
  8
1
  6
CONTINUOUS
 62
     7
 10
70.12451893459126
 20
195.9099359949656
 30
0.0
  0
VERTEX
  5
32F
  8
1
  6
CONTINUOUS
 62
     7
 10
70.13575557142163
 20
195.888560142518
 30
0.0
  0
VERTEX
  5
330
  8
1
  6
CONTINUOUS
 62
     7
 10
70.14594697908996
 20
195.8666666666666
 30
0.0
  0
SEQEND
  5
3F8
  8
1
  6
CONTINUOUS
 62
     7
  0
POLYLINE
  5
141
  8
1
  6
CONTINUOUS
 62
     7
 66
     1
 10
0.0
 20
0.0
 30
0.0
  0
VERTEX
  5
331
  8
1
  6
CONTINUOUS
 62
     7
 10
71.52071968757672
 20
222.4666666666667
 30
0.0
  0
VERTEX
  5
332
  8
1
  6
CONTINUOUS
 62
     7
 10
71.53091109524503
 20
222.4447731908153
 30
0.0
  0
VERTEX
  5
333
  8
1
  6
CONTINUOUS
 62
     7
 10
71.54214773207539
 20
222.4233973383678
 30
0.0
  0
VERTEX
  5
334
  8
1
  6
CONTINUOUS
 62
     7
 10
71.55440338573243
 20
222.4025889739785
 30
0.0
  0
VERTEX
  5
335
  8
1
  6
CONTINUOUS
 62
     7
 10
71.56764946676284
 20
222.3823966384907
 30
0.0
  0
VERTEX
  5
336
  8
1
  6
CONTINUOUS
 62
     7
 10
71.58185507528765
 20
222.3628674357022
 30
0.0
  0
VERTEX
  5
337
  8
1
  6
CONTINUOUS
 62
     7
 10
71.59698707308408
 20
222.3440469224837
 30
0.0
  0
VERTEX
  5
338
  8
1
  6
CONTINUOUS
 62
     7
 10
71.61301016088892
 20
222.3259790025062
 30
0.0
  0
VERTEX
  5
339
  8
1
  6
CONTINUOUS
 62
     7
 10
71.62988696074312
 20
222.3087058238237
 30
0.0
  0
VERTEX
  5
33A
  8
1
  6
CONTINUOUS
 62
     7
 10
71.64757810318555
 20
222.2922676805527
 30
0.0
  0
VERTEX
  5
33B
  8
1
  6
CONTINUOUS
 62
     7
 10
71.66604231909216
 20
222.2767029188754
 30
0.0
  0
VERTEX
  5
33C
  8
1
  6
CONTINUOUS
 62
     7
 10
71.68523653594698
 20
222.2620478475878
 30
0.0
  0
VERTEX
  5
33D
  8
1
  6
CONTINUOUS
 62
     7
 10
71.7051159783197
 20
222.2483366533996
 30
0.0
  0
VERTEX
  5
33E
  8
1
  6
CONTINUOUS
 62
     7
 10
71.7256342723159
 20
222.2356013211856
 30
0.0
  0
VERTEX
  5
33F
  8
1
  6
CONTINUOUS
 62
     7
 10
71.74674355375596
 20
222.2238715593721
 30
0.0
  0
VERTEX
  5
340
  8
1
  6
CONTINUOUS
 62
     7
 10
71.76839457983061
 20
222.213174730635
 30
0.0
  0
VERTEX
  5
341
  8
1
  6
CONTINUOUS
 62
     7
 10
71.79053684397238
 20
222.2035357880689
 30
0.0
  0
VERTEX
  5
342
  8
1
  6
CONTINUOUS
 62
     7
 10
71.81311869367505
 20
222.1949772169778
 30
0.0
  0
VERTEX
  5
343
  8
1
  6
CONTINUOUS
 62
     7
 10
71.83608745098647
 20
222.1875189824223
 30
0.0
  0
VERTEX
  5
344
  8
1
  6
CONTINUOUS
 62
     7
 10
71.85938953539333
 20
222.181178482646
 30
0.0
  0
VERTEX
  5
345
  8
1
  6
CONTINUOUS
 62
     7
 10
71.88297058881138
 20
222.1759705084899
 30
0.0
  0
VERTEX
  5
346
  8
1
  6
CONTINUOUS
 62
     7
 10
71.90677560238971
 20
222.1719072088883
 30
0.0
  0
VERTEX
  5
347
  8
1
  6
CONTINUOUS
 62
     7
 10
71.93074904483291
 20
222.1689980625291
 30
0.0
  0
VERTEX
  5
348
  8
1
  6
CONTINUOUS
 62
     7
 10
71.95483499194205
 20
222.1672498557418
 30
0.0
  0
VERTEX
  5
349
  8
1
  6
CONTINUOUS
 62
     7
 10
71.97897725707229
 20
222.1666666666667
 30
0.0
  0
SEQEND
  5
3F9
  8
1
  6
CONTINUOUS
 62
     7
  0
LINE
  5
142
  8
1
  6
CONTINUOUS
 62
     7
 10
74.44251437378234
 20
196.1666666666667
 30
0.0
 11
71.97897725707229
 21
196.1666666666667
 31
0.0
  0
LINE
  5
143
  8
1
  6
CONTINUOUS
 62
     7
 10
74.44251437378234
 20
222.1666666666667
 30
0.0
 11
71.97897725707229
 21
222.1666666666667
 31
0.0
  0
POLYLINE
  5
144
  8
1
  6
CONTINUOUS
 62
     7
 66
     1
 10
0.0
 20
0.0
 30
0.0
  0
VERTEX
  5
34A
  8
1
  6
CONTINUOUS
 62
     7
 10
69.68768940959437
 20
222.1666666666667
 30
0.0
  0
VERTEX
  5
34B
  8
1
  6
CONTINUOUS
 62
     7
 10
69.7118316747246
 20
222.1672498557418
 30
0.0
  0
VERTEX
  5
34C
  8
1
  6
CONTINUOUS
 62
     7
 10
69.73591762183376
 20
222.1689980625291
 30
0.0
  0
VERTEX
  5
34D
  8
1
  6
CONTINUOUS
 62
     7
 10
69.75989106427694
 20
222.1719072088883
 30
0.0
  0
VERTEX
  5
34E
  8
1
  6
CONTINUOUS
 62
     7
 10
69.78369607785528
 20
222.1759705084899
 30
0.0
  0
VERTEX
  5
34F
  8
1
  6
CONTINUOUS
 62
     7
 10
69.80727713127334
 20
222.181178482646
 30
0.0
  0
VERTEX
  5
350
  8
1
  6
CONTINUOUS
 62
     7
 10
69.83057921568019
 20
222.1875189824223
 30
0.0
  0
VERTEX
  5
351
  8
1
  6
CONTINUOUS
 62
     7
 10
69.8535479729916
 20
222.1949772169778
 30
0.0
  0
VERTEX
  5
352
  8
1
  6
CONTINUOUS
 62
     7
 10
69.8761298226943
 20
222.2035357880689
 30
0.0
  0
VERTEX
  5
353
  8
1
  6
CONTINUOUS
 62
     7
 10
69.89827208683604
 20
222.213174730635
 30
0.0
  0
VERTEX
  5
354
  8
1
  6
CONTINUOUS
 62
     7
 10
69.91992311291071
 20
222.2238715593721
 30
0.0
  0
VERTEX
  5
355
  8
1
  6
CONTINUOUS
 62
     7
 10
69.94103239435076
 20
222.2356013211856
 30
0.0
  0
VERTEX
  5
356
  8
1
  6
CONTINUOUS
 62
     7
 10
69.96155068834696
 20
222.2483366533996
 30
0.0
  0
VERTEX
  5
357
  8
1
  6
CONTINUOUS
 62
     7
 10
69.98143013071969
 20
222.2620478475878
 30
0.0
  0
VERTEX
  5
358
  8
1
  6
CONTINUOUS
 62
     7
 10
70.0006243475745
 20
222.2767029188754
 30
0.0
  0
VERTEX
  5
359
  8
1
  6
CONTINUOUS
 62
     7
 10
70.01908856348112
 20
222.2922676805527
 30
0.0
  0
VERTEX
  5
35A
  8
1
  6
CONTINUOUS
 62
     7
 10
70.03677970592354
 20
222.3087058238237
 30
0.0
  0
VERTEX
  5
35B
  8
1
  6
CONTINUOUS
 62
     7
 10
70.05365650577775
 20
222.3259790025062
 30
0.0
  0
VERTEX
  5
35C
  8
1
  6
CONTINUOUS
 62
     7
 10
70.06967959358258
 20
222.3440469224837
 30
0.0
  0
VERTEX
  5
35D
  8
1
  6
CONTINUOUS
 62
     7
 10
70.08481159137901
 20
222.3628674357022
 30
0.0
  0
VERTEX
  5
35E
  8
1
  6
CONTINUOUS
 62
     7
 10
70.09901719990381
 20
222.3823966384907
 30
0.0
  0
VERTEX
  5
35F
  8
1
  6
CONTINUOUS
 62
     7
 10
70.11226328093423
 20
222.4025889739785
 30
0.0
  0
VERTEX
  5
360
  8
1
  6
CONTINUOUS
 62
     7
 10
70.12451893459126
 20
222.4233973383678
 30
0.0
  0
VERTEX
  5
361
  8
1
  6
CONTINUOUS
 62
     7
 10
70.13575557142163
 20
222.4447731908153
 30
0.0
  0
VERTEX
  5
362
  8
1
  6
CONTINUOUS
 62
     7
 10
70.14594697908996
 20
222.4666666666667
 30
0.0
  0
SEQEND
  5
3FA
  8
1
  6
CONTINUOUS
 62
     7
  0
LINE
  5
145
  8
1
  6
CONTINUOUS
 62
     7
 10
69.68768940959437
 20
196.1666666666667
 30
0.0
 11
67.22415229288433
 21
196.1666666666667
 31
0.0
  0
POLYLINE
  5
146
  8
1
  6
CONTINUOUS
 62
     7
 66
     1
 10
0.0
 20
0.0
 30
0.0
  0
VERTEX
  5
363
  8
1
  6
CONTINUOUS
 62
     7
 10
71.52071968757672
 20
195.8666666666666
 30
0.0
  0
VERTEX
  5
364
  8
1
  6
CONTINUOUS
 62
     7
 10
71.53091109524503
 20
195.888560142518
 30
0.0
  0
VERTEX
  5
365
  8
1
  6
CONTINUOUS
 62
     7
 10
71.54214773207539
 20
195.9099359949656
 30
0.0
  0
VERTEX
  5
366
  8
1
  6
CONTINUOUS
 62
     7
 10
71.55440338573243
 20
195.9307443593548
 30
0.0
  0
VERTEX
  5
367
  8
1
  6
CONTINUOUS
 62
     7
 10
71.56764946676284
 20
195.9509366948426
 30
0.0
  0
VERTEX
  5
368
  8
1
  6
CONTINUOUS
 62
     7
 10
71.58185507528765
 20
195.9704658976311
 30
0.0
  0
VERTEX
  5
369
  8
1
  6
CONTINUOUS
 62
     7
 10
71.59698707308408
 20
195.9892864108496
 30
0.0
  0
VERTEX
  5
36A
  8
1
  6
CONTINUOUS
 62
     7
 10
71.61301016088892
 20
196.0073543308271
 30
0.0
  0
VERTEX
  5
36B
  8
1
  6
CONTINUOUS
 62
     7
 10
71.62988696074312
 20
196.0246275095096
 30
0.0
  0
VERTEX
  5
36C
  8
1
  6
CONTINUOUS
 62
     7
 10
71.64757810318555
 20
196.0410656527806
 30
0.0
  0
VERTEX
  5
36D
  8
1
  6
CONTINUOUS
 62
     7
 10
71.66604231909216
 20
196.0566304144579
 30
0.0
  0
VERTEX
  5
36E
  8
1
  6
CONTINUOUS
 62
     7
 10
71.68523653594698
 20
196.0712854857455
 30
0.0
  0
VERTEX
  5
36F
  8
1
  6
CONTINUOUS
 62
     7
 10
71.7051159783197
 20
196.0849966799337
 30
0.0
  0
VERTEX
  5
370
  8
1
  6
CONTINUOUS
 62
     7
 10
71.7256342723159
 20
196.0977320121478
 30
0.0
  0
VERTEX
  5
371
  8
1
  6
CONTINUOUS
 62
     7
 10
71.74674355375596
 20
196.1094617739612
 30
0.0
  0
VERTEX
  5
372
  8
1
  6
CONTINUOUS
 62
     7
 10
71.76839457983061
 20
196.1201586026983
 30
0.0
  0
VERTEX
  5
373
  8
1
  6
CONTINUOUS
 62
     7
 10
71.79053684397238
 20
196.1297975452644
 30
0.0
  0
VERTEX
  5
374
  8
1
  6
CONTINUOUS
 62
     7
 10
71.81311869367505
 20
196.1383561163555
 30
0.0
  0
VERTEX
  5
375
  8
1
  6
CONTINUOUS
 62
     7
 10
71.83608745098647
 20
196.1458143509111
 30
0.0
  0
VERTEX
  5
376
  8
1
  6
CONTINUOUS
 62
     7
 10
71.85938953539333
 20
196.1521548506873
 30
0.0
  0
VERTEX
  5
377
  8
1
  6
CONTINUOUS
 62
     7
 10
71.88297058881138
 20
196.1573628248434
 30
0.0
  0
VERTEX
  5
378
  8
1
  6
CONTINUOUS
 62
     7
 10
71.90677560238971
 20
196.161426124445
 30
0.0
  0
VERTEX
  5
379
  8
1
  6
CONTINUOUS
 62
     7
 10
71.93074904483291
 20
196.1643352708042
 30
0.0
  0
VERTEX
  5
37A
  8
1
  6
CONTINUOUS
 62
     7
 10
71.95483499194205
 20
196.1660834775915
 30
0.0
  0
VERTEX
  5
37B
  8
1
  6
CONTINUOUS
 62
     7
 10
71.97897725707229
 20
196.1666666666667
 30
0.0
  0
SEQEND
  5
3FB
  8
1
  6
CONTINUOUS
 62
     7
  0
LINE
  5
147
  8
1
  6
CONTINUOUS
 62
     7
 10
69.68768940959437
 20
222.1666666666667
 30
0.0
 11
67.22415229288433
 21
222.1666666666667
 31
0.0
  0
POLYLINE
  5
148
  8
1
  6
CONTINUOUS
 62
     7
 66
     1
 10
0.0
 20
0.0
 30
0.0
  0
VERTEX
  5
37C
  8
1
  6
CONTINUOUS
 62
     7
 10
71.52071968757672
 20
222.4666666666667
 30
0.0
  0
VERTEX
  5
37D
  8
1
  6
CONTINUOUS
 62
     7
 10
71.50543257607421
 20
222.4995068804437
 30
0.0
  0
VERTEX
  5
37E
  8
1
  6
CONTINUOUS
 62
     7
 10
71.48857762082866
 20
222.531570659115
 30
0.0
  0
VERTEX
  5
37F
  8
1
  6
CONTINUOUS
 62
     7
 10
71.47019414034311
 20
222.5627832056988
 30
0.0
  0
VERTEX
  5
380
  8
1
  6
CONTINUOUS
 62
     7
 10
71.4503250187975
 20
222.5930717089306
 30
0.0
  0
VERTEX
  5
381
  8
1
  6
CONTINUOUS
 62
     7
 10
71.4290166060103
 20
222.6223655131134
 30
0.0
  0
VERTEX
  5
382
  8
1
  6
CONTINUOUS
 62
     7
 10
71.40631860931565
 20
222.650596282941
 30
0.0
  0
VERTEX
  5
383
  8
1
  6
CONTINUOUS
 62
     7
 10
71.3822839776084
 20
222.6776981629073
 30
0.0
  0
VERTEX
  5
384
  8
1
  6
CONTINUOUS
 62
     7
 10
71.35696877782708
 20
222.703607930931
 30
0.0
  0
VERTEX
  5
385
  8
1
  6
CONTINUOUS
 62
     7
 10
71.33043206416345
 20
222.7282651458376
 30
0.0
  0
VERTEX
  5
386
  8
1
  6
CONTINUOUS
 62
     7
 10
71.30273574030353
 20
222.7516122883535
 30
0.0
  0
VERTEX
  5
387
  8
1
  6
CONTINUOUS
 62
     7
 10
71.2739444150213
 20
222.773594895285
 30
0.0
  0
VERTEX
  5
388
  8
1
  6
CONTINUOUS
 62
     7
 10
71.24412525146221
 20
222.7941616865672
 30
0.0
  0
VERTEX
  5
389
  8
1
  6
CONTINUOUS
 62
     7
 10
71.21334781046791
 20
222.8132646848883
 30
0.0
  0
VERTEX
  5
38A
  8
1
  6
CONTINUOUS
 62
     7
 10
71.18168388830783
 20
222.8308593276085
 30
0.0
  0
VERTEX
  5
38B
  8
1
  6
CONTINUOUS
 62
     7
 10
71.14920734919585
 20
222.8469045707141
 30
0.0
  0
VERTEX
  5
38C
  8
1
  6
CONTINUOUS
 62
     7
 10
71.1159939529832
 20
222.8613629845633
 30
0.0
  0
VERTEX
  5
38D
  8
1
  6
CONTINUOUS
 62
     7
 10
71.08212117842919
 20
222.8742008412
 30
0.0
  0
VERTEX
  5
38E
  8
1
  6
CONTINUOUS
 62
     7
 10
71.04766804246204
 20
222.8853881930332
 30
0.0
  0
VERTEX
  5
38F
  8
1
  6
CONTINUOUS
 62
     7
 10
71.01271491585177
 20
222.8948989426976
 30
0.0
  0
VERTEX
  5
390
  8
1
  6
CONTINUOUS
 62
     7
 10
70.97734333572468
 20
222.9027109039318
 30
0.0
  0
VERTEX
  5
391
  8
1
  6
CONTINUOUS
 62
     7
 10
70.9416358153572
 20
222.9088058533341
 30
0.0
  0
VERTEX
  5
392
  8
1
  6
CONTINUOUS
 62
     7
 10
70.9056756516924
 20
222.913169572873
 30
0.0
  0
VERTEX
  5
393
  8
1
  6
CONTINUOUS
 62
     7
 10
70.86954673102869
 20
222.915791883054
 30
0.0
  0
VERTEX
  5
394
  8
1
  6
CONTINUOUS
 62
     7
 10
70.83333333333331
 20
222.9166666666667
 30
0.0
  0
VERTEX
  5
395
  8
1
  6
CONTINUOUS
 62
     7
 10
70.79711993563797
 20
222.915791883054
 30
0.0
  0
VERTEX
  5
396
  8
1
  6
CONTINUOUS
 62
     7
 10
70.76099101497422
 20
222.913169572873
 30
0.0
  0
VERTEX
  5
397
  8
1
  6
CONTINUOUS
 62
     7
 10
70.72503085130944
 20
222.9088058533341
 30
0.0
  0
VERTEX
  5
398
  8
1
  6
CONTINUOUS
 62
     7
 10
70.68932333094195
 20
222.9027109039318
 30
0.0
  0
VERTEX
  5
399
  8
1
  6
CONTINUOUS
 62
     7
 10
70.65395175081487
 20
222.8948989426976
 30
0.0
  0
VERTEX
  5
39A
  8
1
  6
CONTINUOUS
 62
     7
 10
70.61899862420461
 20
222.8853881930332
 30
0.0
  0
VERTEX
  5
39B
  8
1
  6
CONTINUOUS
 62
     7
 10
70.58454548823747
 20
222.8742008412
 30
0.0
  0
VERTEX
  5
39C
  8
1
  6
CONTINUOUS
 62
     7
 10
70.55067271368344
 20
222.8613629845633
 30
0.0
  0
VERTEX
  5
39D
  8
1
  6
CONTINUOUS
 62
     7
 10
70.51745931747081
 20
222.8469045707141
 30
0.0
  0
VERTEX
  5
39E
  8
1
  6
CONTINUOUS
 62
     7
 10
70.48498277835883
 20
222.8308593276085
 30
0.0
  0
VERTEX
  5
39F
  8
1
  6
CONTINUOUS
 62
     7
 10
70.45331885619873
 20
222.8132646848883
 30
0.0
  0
VERTEX
  5
3A0
  8
1
  6
CONTINUOUS
 62
     7
 10
70.42254141520445
 20
222.7941616865672
 30
0.0
  0
VERTEX
  5
3A1
  8
1
  6
CONTINUOUS
 62
     7
 10
70.39272225164535
 20
222.773594895285
 30
0.0
  0
VERTEX
  5
3A2
  8
1
  6
CONTINUOUS
 62
     7
 10
70.36393092636311
 20
222.7516122883535
 30
0.0
  0
VERTEX
  5
3A3
  8
1
  6
CONTINUOUS
 62
     7
 10
70.3362346025032
 20
222.7282651458376
 30
0.0
  0
VERTEX
  5
3A4
  8
1
  6
CONTINUOUS
 62
     7
 10
70.30969788883958
 20
222.703607930931
 30
0.0
  0
VERTEX
  5
3A5
  8
1
  6
CONTINUOUS
 62
     7
 10
70.28438268905825
 20
222.6776981629073
 30
0.0
  0
VERTEX
  5
3A6
  8
1
  6
CONTINUOUS
 62
     7
 10
70.260348057351
 20
222.650596282941
 30
0.0
  0
VERTEX
  5
3A7
  8
1
  6
CONTINUOUS
 62
     7
 10
70.23765006065636
 20
222.6223655131134
 30
0.0
  0
VERTEX
  5
3A8
  8
1
  6
CONTINUOUS
 62
     7
 10
70.21634164786914
 20
222.5930717089306
 30
0.0
  0
VERTEX
  5
3A9
  8
1
  6
CONTINUOUS
 62
     7
 10
70.19647252632353
 20
222.5627832056988
 30
0.0
  0
VERTEX
  5
3AA
  8
1
  6
CONTINUOUS
 62
     7
 10
70.178089045838
 20
222.531570659115
 30
0.0
  0
VERTEX
  5
3AB
  8
1
  6
CONTINUOUS
 62
     7
 10
70.16123409059246
 20
222.4995068804437
 30
0.0
  0
VERTEX
  5
3AC
  8
1
  6
CONTINUOUS
 62
     7
 10
70.14594697908994
 20
222.4666666666666
 30
0.0
  0
SEQEND
  5
3FC
  8
1
  6
CONTINUOUS
 62
     7
  0
POLYLINE
  5
149
  8
1
  6
CONTINUOUS
 62
     7
 66
     1
 10
0.0
 20
0.0
 30
0.0
  0
VERTEX
  5
3AD
  8
1
  6
CONTINUOUS
 62
     7
 10
71.52071968757672
 20
195.8666666666666
 30
0.0
  0
VERTEX
  5
3AE
  8
1
  6
CONTINUOUS
 62
     7
 10
71.50543257607421
 20
195.8338264528896
 30
0.0
  0
VERTEX
  5
3AF
  8
1
  6
CONTINUOUS
 62
     7
 10
71.48857762082866
 20
195.8017626742183
 30
0.0
  0
VERTEX
  5
3B0
  8
1
  6
CONTINUOUS
 62
     7
 10
71.47019414034311
 20
195.7705501276345
 30
0.0
  0
VERTEX
  5
3B1
  8
1
  6
CONTINUOUS
 62
     7
 10
71.4503250187975
 20
195.7402616244028
 30
0.0
  0
VERTEX
  5
3B2
  8
1
  6
CONTINUOUS
 62
     7
 10
71.4290166060103
 20
195.71096782022
 30
0.0
  0
VERTEX
  5
3B3
  8
1
  6
CONTINUOUS
 62
     7
 10
71.40631860931565
 20
195.6827370503923
 30
0.0
  0
VERTEX
  5
3B4
  8
1
  6
CONTINUOUS
 62
     7
 10
71.3822839776084
 20
195.655635170426
 30
0.0
  0
VERTEX
  5
3B5
  8
1
  6
CONTINUOUS
 62
     7
 10
71.35696877782708
 20
195.6297254024023
 30
0.0
  0
VERTEX
  5
3B6
  8
1
  6
CONTINUOUS
 62
     7
 10
71.33043206416345
 20
195.6050681874958
 30
0.0
  0
VERTEX
  5
3B7
  8
1
  6
CONTINUOUS
 62
     7
 10
71.30273574030353
 20
195.5817210449798
 30
0.0
  0
VERTEX
  5
3B8
  8
1
  6
CONTINUOUS
 62
     7
 10
71.2739444150213
 20
195.5597384380484
 30
0.0
  0
VERTEX
  5
3B9
  8
1
  6
CONTINUOUS
 62
     7
 10
71.24412525146221
 20
195.5391716467661
 30
0.0
  0
VERTEX
  5
3BA
  8
1
  6
CONTINUOUS
 62
     7
 10
71.21334781046791
 20
195.520068648445
 30
0.0
  0
VERTEX
  5
3BB
  8
1
  6
CONTINUOUS
 62
     7
 10
71.18168388830783
 20
195.5024740057248
 30
0.0
  0
VERTEX
  5
3BC
  8
1
  6
CONTINUOUS
 62
     7
 10
71.14920734919585
 20
195.4864287626192
 30
0.0
  0
VERTEX
  5
3BD
  8
1
  6
CONTINUOUS
 62
     7
 10
71.1159939529832
 20
195.47197034877
 30
0.0
  0
VERTEX
  5
3BE
  8
1
  6
CONTINUOUS
 62
     7
 10
71.08212117842919
 20
195.4591324921333
 30
0.0
  0
VERTEX
  5
3BF
  8
1
  6
CONTINUOUS
 62
     7
 10
71.04766804246204
 20
195.4479451403001
 30
0.0
  0
VERTEX
  5
3C0
  8
1
  6
CONTINUOUS
 62
     7
 10
71.01271491585177
 20
195.4384343906357
 30
0.0
  0
VERTEX
  5
3C1
  8
1
  6
CONTINUOUS
 62
     7
 10
70.97734333572468
 20
195.4306224294015
 30
0.0
  0
VERTEX
  5
3C2
  8
1
  6
CONTINUOUS
 62
     7
 10
70.9416358153572
 20
195.4245274799992
 30
0.0
  0
VERTEX
  5
3C3
  8
1
  6
CONTINUOUS
 62
     7
 10
70.9056756516924
 20
195.4201637604604
 30
0.0
  0
VERTEX
  5
3C4
  8
1
  6
CONTINUOUS
 62
     7
 10
70.86954673102869
 20
195.4175414502793
 30
0.0
  0
VERTEX
  5
3C5
  8
1
  6
CONTINUOUS
 62
     7
 10
70.83333333333331
 20
195.4166666666667
 30
0.0
  0
VERTEX
  5
3C6
  8
1
  6
CONTINUOUS
 62
     7
 10
70.79711993563797
 20
195.4175414502793
 30
0.0
  0
VERTEX
  5
3C7
  8
1
  6
CONTINUOUS
 62
     7
 10
70.76099101497422
 20
195.4201637604604
 30
0.0
  0
VERTEX
  5
3C8
  8
1
  6
CONTINUOUS
 62
     7
 10
70.72503085130944
 20
195.4245274799992
 30
0.0
  0
VERTEX
  5
3C9
  8
1
  6
CONTINUOUS
 62
     7
 10
70.68932333094195
 20
195.4306224294015
 30
0.0
  0
VERTEX
  5
3CA
  8
1
  6
CONTINUOUS
 62
     7
 10
70.65395175081487
 20
195.4384343906357
 30
0.0
  0
VERTEX
  5
3CB
  8
1
  6
CONTINUOUS
 62
     7
 10
70.61899862420461
 20
195.4479451403001
 30
0.0
  0
VERTEX
  5
3CC
  8
1
  6
CONTINUOUS
 62
     7
 10
70.58454548823747
 20
195.4591324921333
 30
0.0
  0
VERTEX
  5
3CD
  8
1
  6
CONTINUOUS
 62
     7
 10
70.55067271368344
 20
195.47197034877
 30
0.0
  0
VERTEX
  5
3CE
  8
1
  6
CONTINUOUS
 62
     7
 10
70.51745931747081
 20
195.4864287626192
 30
0.0
  0
VERTEX
  5
3CF
  8
1
  6
CONTINUOUS
 62
     7
 10
70.48498277835883
 20
195.5024740057249
 30
0.0
  0
VERTEX
  5
3D0
  8
1
  6
CONTINUOUS
 62
     7
 10
70.45331885619873
 20
195.5200686484451
 30
0.0
  0
VERTEX
  5
3D1
  8
1
  6
CONTINUOUS
 62
     7
 10
70.42254141520445
 20
195.5391716467661
 30
0.0
  0
VERTEX
  5
3D2
  8
1
  6
CONTINUOUS
 62
     7
 10
70.39272225164535
 20
195.5597384380484
 30
0.0
  0
VERTEX
  5
3D3
  8
1
  6
CONTINUOUS
 62
     7
 10
70.36393092636311
 20
195.5817210449798
 30
0.0
  0
VERTEX
  5
3D4
  8
1
  6
CONTINUOUS
 62
     7
 10
70.3362346025032
 20
195.6050681874958
 30
0.0
  0
VERTEX
  5
3D5
  8
1
  6
CONTINUOUS
 62
     7
 10
70.30969788883958
 20
195.6297254024023
 30
0.0
  0
VERTEX
  5
3D6
  8
1
  6
CONTINUOUS
 62
     7
 10
70.28438268905825
 20
195.655635170426
 30
0.0
  0
VERTEX
  5
3D7
  8
1
  6
CONTINUOUS
 62
     7
 10
70.260348057351
 20
195.6827370503923
 30
0.0
  0
VERTEX
  5
3D8
  8
1
  6
CONTINUOUS
 62
     7
 10
70.23765006065636
 20
195.71096782022
 30
0.0
  0
VERTEX
  5
3D9
  8
1
  6
CONTINUOUS
 62
     7
 10
70.21634164786914
 20
195.7402616244028
 30
0.0
  0
VERTEX
  5
3DA
  8
1
  6
CONTINUOUS
 62
     7
 10
70.19647252632353
 20
195.7705501276345
 30
0.0
  0
VERTEX
  5
3DB
  8
1
  6
CONTINUOUS
 62
     7
 10
70.178089045838
 20
195.8017626742183
 30
0.0
  0
VERTEX
  5
3DC
  8
1
  6
CONTINUOUS
 62
     7
 10
70.16123409059246
 20
195.8338264528897
 30
0.0
  0
VERTEX
  5
3DD
  8
1
  6
CONTINUOUS
 62
     7
 10
70.14594697908994
 20
195.8666666666667
 30
0.0
  0
SEQEND
  5
3FD
  8
1
  6
CONTINUOUS
 62
     7
  0
LINE
  5
14A
  8
1
  6
CONTINUOUS
 62
     7
 10
84.05264789604375
 20
205.6504638290255
 30
0.0
 11
84.0526538914741
 21
205.6511508372954
 31
0.0
  0
LINE
  5
14B
  8
1
  6
CONTINUOUS
 62
     7
 10
84.0526538914741
 20
205.6511508372954
 30
0.0
 11
84.08333333333333
 21
209.1666666666667
 31
0.0
  0
LINE
  5
14C
  8
1
  6
CONTINUOUS
 62
     7
 10
57.58333333333334
 20
209.1666666666667
 30
0.0
 11
57.61401277519258
 21
205.6511508372954
 31
0.0
  0
LINE
  5
14D
  8
1
  6
CONTINUOUS
 62
     7
 10
57.61401277519258
 20
205.6511508372954
 30
0.0
 11
57.61401877062291
 21
205.6504638290255
 31
0.0
  0
LINE
  5
14E
  8
1
  6
CONTINUOUS
 62
     7
 10
57.61401877062291
 20
212.6828695043078
 30
0.0
 11
57.61401277519258
 21
212.6821824960379
 31
0.0
  0
LINE
  5
14F
  8
1
  6
CONTINUOUS
 62
     7
 10
57.61401277519258
 20
212.6821824960379
 30
0.0
 11
57.58333333333334
 21
209.1666666666667
 31
0.0
  0
LINE
  5
150
  8
1
  6
CONTINUOUS
 62
     7
 10
84.08333333333333
 20
209.1666666666667
 30
0.0
 11
84.0526538914741
 21
212.6821824960379
 31
0.0
  0
LINE
  5
151
  8
1
  6
CONTINUOUS
 62
     7
 10
84.0526538914741
 20
212.6821824960379
 30
0.0
 11
84.05264789604375
 21
212.6828695043078
 31
0.0
  0
ARC
  5
152
  8
1
  6
CONTINUOUS
 62
     7
 10
80.0528061992174
 20
205.6860569792889
 30
0.0
 40
3.999999999999988
 50
349.9999999999999
 51
359.5000000000001
  0
ARC
  5
153
  8
1
  6
CONTINUOUS
 62
     7
 10
61.61386046744927
 20
205.6860569792889
 30
0.0
 40
3.999999999999998
 50
180.5
 51
190.0
  0
ARC
  5
154
  8
1
  6
CONTINUOUS
 62
     7
 10
80.0528061992174
 20
212.6472763540444
 30
0.0
 40
3.999999999999998
 50
0.4999999999999832
 51
10.00000000000001
  0
ARC
  5
155
  8
1
  6
CONTINUOUS
 62
     7
 10
61.61386046744927
 20
212.6472763540444
 30
0.0
 40
3.999999999999995
 50
170.0000000000001
 51
179.5000000000001
  0
ENDBLK
  8
0
  0
ENDSEC
  0
SECTION
  2
ENTITIES
  0
TEXT
  5
71
  8
3
  6
CONTINUOUS
 62
     7
 10
100.8848213913551
 20
110.5185715476637
 30
0.0
 40
3.0
  1
GSFY-15
  0
LINE
  5
72
  8
3
  6
CENTER
 62
     1
 10
70.83333333333333
 20
192.1666666666667
 30
0.0
 11
70.83333333333333
 21
226.1666666666667
 31
0.0
  0
LINE
  5
74
  8
3
  6
CENTER
 62
     1
 10
55.58325536624957
 20
209.1664592254247
 30
0.0
 11
86.08341130041711
 21
209.1664592254247
 31
0.0
  0
LINE
  5
75
  8
3
  6
CENTER
 62
     1
 10
126.3333333333333
 20
148.0924941608986
 30
0.0
 11
160.3333333333333
 21
148.0924941608986
 31
0.0
  0
LINE
  5
76
  8
3
  6
CENTER
 62
     1
 10
143.3333333333333
 20
130.7579596285333
 30
0.0
 11
143.3333333333333
 21
160.8594801055643
 31
0.0
  0
LINE
  5
77
  8
3
  6
CENTER
 62
     1
 10
70.83333333333333
 20
130.7579596285333
 30
0.0
 11
70.83333333333333
 21
164.2579596285333
 31
0.0
  0
INSERT
  5
B9
  8
1
  6
DOT
 62
     7
  2
D_FRAME_VIEW_1472
 10
0.0
 20
0.0
 30
0.0
  0
LINE
  5
BB
  8
3
  6
CENTER
 62
     1
 10
55.58333333333331
 20
149.0079596285333
 30
0.0
 11
86.08333333333334
 21
149.0079596285333
 31
0.0
  0
INSERT
  5
100
  8
1
  6
DOT
 62
     7
  2
D_FRAME_VIEW_1587
 10
0.0
 20
0.0
 30
0.0
  0
INSERT
  5
156
  8
1
  6
DOT
 62
     7
  2
D_FRAME_VIEW_1673
 10
0.0
 20
0.0
 30
0.0
  0
ENDSEC
  0
EOF
