  0
SECTION
  2
HEADER
  9
$ACADVER
  1
AC1006
  9
$DWGCODEPAGE
  3
ansi_932
  9
$INSBASE
 10
0.0
 20
0.0
 30
0.0
  9
$EXTMIN
 10
52.3332553691496
 20
110.8606060606061
  9
$EXTMAX
 10
160.3333333333333
 20
226.1666666666667
  9
$LIMMIN
 10
0.0
 20
0.0
  9
$LIMMAX
 10
12.0
 20
9.0
  9
$ORTHOMODE
 70
     0
  9
$REGENMODE
 70
     1
  9
$FILLMODE
 70
     1
  9
$QTEXTMODE
 70
     0
  9
$MIRRTEXT
 70
     1
  9
$DRAGMODE
 70
     2
  9
$LTSCALE
 40
1.0
  9
$OSMODE
 70
    37
  9
$ATTMODE
 70
     1
  9
$TEXTSIZE
 40
0.2
  9
$TRACEWID
 40
0.05
  9
$TEXTSTYLE
  7
STANDARD
  9
$CLAYER
  8
0
  9
$CELTYPE
  6
BYLAYER
  9
$CECOLOR
 62
   256
  9
$DIMSCALE
 40
1.0
  9
$DIMASZ
 40
3.0
  9
$DIMEXO
 40
0.0625
  9
$DIMDLI
 40
0.38
  9
$DIMRND
 40
0.0
  9
$DIMDLE
 40
0.0
  9
$DIMEXE
 40
1.5
  9
$DIMTP
 40
0.0
  9
$DIMTM
 40
0.0
  9
$DIMTXT
 40
3.0
  9
$DIMCEN
 40
0.09
  9
$DIMTSZ
 40
0.0
  9
$DIMTOL
 70
     0
  9
$DIMLIM
 70
     0
  9
$DIMTIH
 70
     1
  9
$DIMTOH
 70
     1
  9
$DIMSE1
 70
     0
  9
$DIMSE2
 70
     0
  9
$DIMTAD
 70
     1
  9
$DIMZIN
 70
     0
  9
$DIMBLK
  1

  9
$DIMASO
 70
     1
  9
$DIMSHO
 70
     1
  9
$DIMPOST
  1

  9
$DIMAPOST
  1

  9
$DIMALT
 70
     0
  9
$DIMALTD
 70
     2
  9
$DIMALTF
 40
25.4
  9
$DIMLFAC
 40
1.0
  9
$DIMTOFL
 70
     0
  9
$DIMTVP
 40
0.0
  9
$DIMTIX
 70
     0
  9
$DIMSOXD
 70
     0
  9
$DIMSAH
 70
     0
  9
$DIMBLK1
  1

  9
$DIMBLK2
  1

  9
$LUNITS
 70
     2
  9
$LUPREC
 70
     4
  9
$SKETCHINC
 40
0.1
  9
$FILLETRAD
 40
0.5
  9
$AUNITS
 70
     0
  9
$AUPREC
 70
     0
  9
$MENU
  1
.
  9
$ELEVATION
 40
0.0
  9
$THICKNESS
 40
0.0
  9
$LIMCHECK
 70
     0
  9
$CHAMFERA
 40
0.0
  9
$CHAMFERB
 40
0.0
  9
$SKPOLY
 70
     0
  9
$TDCREATE
 40
2460112.655697211
  9
$TDUPDATE
 40
2460112.655697268
  9
$TDINDWG
 40
0.0000000116
  9
$TDUSRTIMER
 40
0.0000000116
  9
$USRTIMER
 70
     1
  9
$ANGBASE
 50
0.0
  9
$ANGDIR
 70
     0
  9
$PDMODE
 70
     0
  9
$PDSIZE
 40
0.0
  9
$PLINEWID
 40
0.0
  9
$COORDS
 70
     1
  9
$SPLFRAME
 70
     0
  9
$SPLINETYPE
 70
     6
  9
$SPLINESEGS
 70
     8
  9
$ATTDIA
 70
     0
  9
$ATTREQ
 70
     1
  9
$HANDLING
 70
     1
  9
$HANDSEED
  5
394
  9
$SURFTAB1
 70
     6
  9
$SURFTAB2
 70
     6
  9
$SURFTYPE
 70
     6
  9
$SURFU
 70
     6
  9
$SURFV
 70
     6
  9
$UCSNAME
  2

  9
$UCSORG
 10
0.0
 20
0.0
 30
0.0
  9
$UCSXDIR
 10
1.0
 20
0.0
 30
0.0
  9
$UCSYDIR
 10
0.0
 20
1.0
 30
0.0
  9
$USERI1
 70
     0
  9
$USERI2
 70
     0
  9
$USERI3
 70
     0
  9
$USERI4
 70
     0
  9
$USERI5
 70
     0
  9
$USERR1
 40
0.0
  9
$USERR2
 40
0.0
  9
$USERR3
 40
0.0
  9
$USERR4
 40
0.0
  9
$USERR5
 40
0.0
  9
$WORLDVIEW
 70
     1
  0
ENDSEC
  0
SECTION
  2
TABLES
  0
TABLE
  2
VPORT
 70
     1
  0
VPORT
  2
*ACTIVE
 70
     0
 10
0.0
 20
0.0
 11
1.0
 21
1.0
 12
106.3332943512414
 22
168.5136363636364
 13
0.0
 23
0.0
 14
0.5
 24
0.5
 15
0.5
 25
0.5
 16
0.0
 26
0.0
 36
1.0
 17
0.0
 27
0.0
 37
0.0
 40
115.3060606060606
 41
1.6
 42
50.0
 43
0.0
 44
0.0
 50
0.0
 51
0.0
 71
     0
 72
   100
 73
     1
 74
     3
 75
     0
 76
     0
 77
     0
 78
     0
  0
ENDTAB
  0
TABLE
  2
LTYPE
 70
     3
  0
LTYPE
  2
CONTINUOUS
 70
     0
  3
Solid line
 72
    65
 73
     0
 40
0.0
  0
LTYPE
  2
DOT
 70
     0
  3

 72
    65
 73
     0
 40
0.0
  0
LTYPE
  2
CENTER
 70
     0
  3

 72
    65
 73
     0
 40
0.0
  0
ENDTAB
  0
TABLE
  2
LAYER
 70
     3
  0
LAYER
  2
0
 70
     0
 62
     7
  6
CONTINUOUS
  0
LAYER
  2
1
 70
     0
 62
     7
  6
CONTINUOUS
  0
LAYER
  2
3
 70
     0
 62
     7
  6
CONTINUOUS
  0
ENDTAB
  0
TABLE
  2
STYLE
 70
     2
  0
STYLE
  2
STANDARD
 70
     0
 40
0.0
 41
1.0
 50
0.0
 71
     0
 42
0.2
  3
txt
  4

  0
STYLE
  2
ＭＳ_ゴシック
 70
     0
 40
0.0
 41
1.0
 50
0.0
 71
     0
 42
0.2
  3
ＭＳ ゴシック.shx
  4

  0
ENDTAB
  0
TABLE
  2
VIEW
 70
     0
  0
ENDTAB
  0
TABLE
  2
UCS
 70
     0
  0
ENDTAB
  0
ENDSEC
  0
SECTION
  2
BLOCKS
  0
BLOCK
  8
0
  2
D_FRAME_VIEW_1472
 70
     0
 10
0.0
 20
0.0
 30
0.0
  0
ARC
  5
73
  8
1
  6
CONTINUOUS
 62
     7
 10
81.29331371919761
 20
143.4747203878769
 30
0.0
 40
4.185949669458792
 50
329.0729707656122
 51
0.5900026570722047
  0
ARC
  5
74
  8
1
  6
CONTINUOUS
 62
     7
 10
81.29115927308955
 20
156.0007083632499
 30
0.0
 40
4.18809803077802
 50
359.4182909851731
 51
30.91873559214292
  0
ARC
  5
75
  8
1
  6
CONTINUOUS
 62
     7
 10
60.3755073935772
 20
156.0007083632498
 30
0.0
 40
4.188098030778118
 50
149.0812644078575
 51
180.5817090148265
  0
ARC
  5
76
  8
1
  6
CONTINUOUS
 62
     7
 10
60.37335294746896
 20
143.4747203878769
 30
0.0
 40
4.185949669458696
 50
179.4099973429274
 51
210.9270292343882
  0
ARC
  5
77
  8
1
  6
CONTINUOUS
 62
     7
 10
70.83333333333333
 20
149.738006415001
 30
0.0
 40
16.5
 50
314.4081408182838
 51
42.40778190898396
  0
LINE
  5
78
  8
1
  6
CONTINUOUS
 62
     7
 10
80.86214869074065
 20
136.7756957238782
 30
0.0
 11
82.27625344682667
 21
137.990493566417
 31
0.0
  0
LINE
  5
79
  8
1
  6
CONTINUOUS
 62
     7
 10
60.80451797592601
 20
136.7756957238782
 30
0.0
 11
59.39041321983998
 21
137.990493566417
 31
0.0
  0
ARC
  5
7A
  8
1
  6
CONTINUOUS
 62
     7
 10
70.83333333333333
 20
149.738006415001
 30
0.0
 40
16.5
 50
137.592218091016
 51
225.5918591817162
  0
LINE
  5
7B
  8
1
  6
CONTINUOUS
 62
     7
 10
56.18762521149841
 20
155.9581884333993
 30
0.0
 11
56.18762521149841
 21
143.5178243966027
 31
0.0
  0
LINE
  5
7C
  8
1
  6
CONTINUOUS
 62
     7
 10
85.47904145516826
 20
155.9581884333993
 30
0.0
 11
85.47904145516826
 21
143.5178243966027
 31
0.0
  0
ARC
  5
7D
  8
1
  6
CONTINUOUS
 62
     7
 10
70.83333333333333
 20
149.738006415001
 30
0.0
 40
12.49999999999999
 50
139.9999999999999
 51
151.6423634236721
  0
LINE
  5
7E
  8
1
  6
CONTINUOUS
 62
     7
 10
59.83333333333332
 20
155.6797694263961
 30
0.0
 11
59.33333333333332
 21
154.6536621810282
 31
0.0
  0
ARC
  5
7F
  8
1
  6
CONTINUOUS
 62
     7
 10
70.83333333333333
 20
149.738006415001
 30
0.0
 40
12.50654515084307
 50
156.8557953556871
 51
203.144204644313
  0
LINE
  5
80
  8
1
  6
CONTINUOUS
 62
     7
 10
59.33333333333332
 20
144.8223506489739
 30
0.0
 11
59.83333333333354
 21
143.7962434036057
 31
0.0
  0
ARC
  5
81
  8
1
  6
CONTINUOUS
 62
     7
 10
70.83333333333333
 20
149.738006415001
 30
0.0
 40
12.49999999999999
 50
208.3576365763279
 51
232.0201684988536
  0
LINE
  5
82
  8
1
  6
CONTINUOUS
 62
     7
 10
82.33333333333334
 20
144.8223506489739
 30
0.0
 11
81.83333333333312
 21
143.7962434036057
 31
0.0
  0
ARC
  5
83
  8
1
  6
CONTINUOUS
 62
     7
 10
70.83333333333333
 20
149.738006415001
 30
0.0
 40
12.50654515084307
 50
336.8557953556871
 51
23.14420464431288
  0
LINE
  5
84
  8
1
  6
CONTINUOUS
 62
     7
 10
81.83333333333334
 20
155.6797694263961
 30
0.0
 11
82.33333333333334
 21
154.6536621810282
 31
0.0
  0
ARC
  5
85
  8
1
  6
CONTINUOUS
 62
     7
 10
70.83333333333333
 20
149.738006415001
 30
0.0
 40
12.49999999999999
 50
28.35763657632788
 51
40.00000000000006
  0
ARC
  5
86
  8
1
  6
CONTINUOUS
 62
     7
 10
70.83333333333333
 20
149.738006415001
 30
0.0
 40
12.49999999999999
 50
307.9798315011464
 51
331.6423634236721
  0
POLYLINE
  5
87
  8
1
  6
CONTINUOUS
 62
     7
 66
     1
 10
0.0
 20
0.0
 30
0.0
  0
VERTEX
  5
16A
  8
1
  6
CONTINUOUS
 62
     7
 10
78.33333333333333
 20
139.4910649388668
 30
0.0
  0
VERTEX
  5
16B
  8
1
  6
CONTINUOUS
 62
     7
 10
78.33376650136411
 20
139.511832570883
 30
0.0
  0
VERTEX
  5
16C
  8
1
  6
CONTINUOUS
 62
     7
 10
78.33506303117636
 20
139.5325822183303
 30
0.0
  0
VERTEX
  5
16D
  8
1
  6
CONTINUOUS
 62
     7
 10
78.33721846134993
 20
139.5532602977553
 30
0.0
  0
VERTEX
  5
16E
  8
1
  6
CONTINUOUS
 62
     7
 10
78.34022833046465
 20
139.5738132257045
 30
0.0
  0
VERTEX
  5
16F
  8
1
  6
CONTINUOUS
 62
     7
 10
78.34421763730619
 20
139.5948130070904
 30
0.0
  0
VERTEX
  5
170
  8
1
  6
CONTINUOUS
 62
     7
 10
78.34910536044183
 20
139.6156421445669
 30
0.0
  0
VERTEX
  5
171
  8
1
  6
CONTINUOUS
 62
     7
 10
78.35487690315168
 20
139.6362438943216
 30
0.0
  0
VERTEX
  5
172
  8
1
  6
CONTINUOUS
 62
     7
 10
78.36151766871589
 20
139.6565615125422
 30
0.0
  0
VERTEX
  5
173
  8
1
  6
CONTINUOUS
 62
     7
 10
78.36880061225081
 20
139.676015073819
 30
0.0
  0
VERTEX
  5
174
  8
1
  6
CONTINUOUS
 62
     7
 10
78.3768923139466
 20
139.6951658803531
 30
0.0
  0
VERTEX
  5
175
  8
1
  6
CONTINUOUS
 62
     7
 10
78.38577082380286
 20
139.7139648454549
 30
0.0
  0
VERTEX
  5
176
  8
1
  6
CONTINUOUS
 62
     7
 10
78.39541419181919
 20
139.7323628824352
 30
0.0
  0
VERTEX
  5
177
  8
1
  6
CONTINUOUS
 62
     7
 10
78.40612971412948
 20
139.7508583906667
 30
0.0
  0
VERTEX
  5
178
  8
1
  6
CONTINUOUS
 62
     7
 10
78.41763652984227
 20
139.7688954875511
 30
0.0
  0
VERTEX
  5
179
  8
1
  6
CONTINUOUS
 62
     7
 10
78.42990207911251
 20
139.7864254612504
 30
0.0
  0
VERTEX
  5
17A
  8
1
  6
CONTINUOUS
 62
     7
 10
78.4428938020952
 20
139.8033995999262
 30
0.0
  0
VERTEX
  5
17B
  8
1
  6
CONTINUOUS
 62
     7
 10
78.45523632722167
 20
139.8182309000364
 30
0.0
  0
VERTEX
  5
17C
  8
1
  6
CONTINUOUS
 62
     7
 10
78.46814642591893
 20
139.8325805489856
 30
0.0
  0
VERTEX
  5
17D
  8
1
  6
CONTINUOUS
 62
     7
 10
78.4815952742341
 20
139.8464165119872
 30
0.0
  0
VERTEX
  5
17E
  8
1
  6
CONTINUOUS
 62
     7
 10
78.49576414142676
 20
139.8599013437979
 30
0.0
  0
VERTEX
  5
17F
  8
1
  6
CONTINUOUS
 62
     7
 10
78.5104549466826
 20
139.8728269379336
 30
0.0
  0
VERTEX
  5
180
  8
1
  6
CONTINUOUS
 62
     7
 10
78.52563398477719
 20
139.8851636431003
 30
0.0
  0
SEQEND
  5
37C
  8
1
  6
CONTINUOUS
 62
     7
  0
POLYLINE
  5
88
  8
1
  6
CONTINUOUS
 62
     7
 66
     1
 10
0.0
 20
0.0
 30
0.0
  0
VERTEX
  5
181
  8
1
  6
CONTINUOUS
 62
     7
 10
63.33333333333334
 20
139.4910649388668
 30
0.0
  0
VERTEX
  5
182
  8
1
  6
CONTINUOUS
 62
     7
 10
63.33290016530255
 20
139.511832570883
 30
0.0
  0
VERTEX
  5
183
  8
1
  6
CONTINUOUS
 62
     7
 10
63.3316036354903
 20
139.5325822183303
 30
0.0
  0
VERTEX
  5
184
  8
1
  6
CONTINUOUS
 62
     7
 10
63.32944820531673
 20
139.5532602977553
 30
0.0
  0
VERTEX
  5
185
  8
1
  6
CONTINUOUS
 62
     7
 10
63.32643833620201
 20
139.5738132257045
 30
0.0
  0
VERTEX
  5
186
  8
1
  6
CONTINUOUS
 62
     7
 10
63.32244902936048
 20
139.5948130070904
 30
0.0
  0
VERTEX
  5
187
  8
1
  6
CONTINUOUS
 62
     7
 10
63.31756130622483
 20
139.6156421445669
 30
0.0
  0
VERTEX
  5
188
  8
1
  6
CONTINUOUS
 62
     7
 10
63.31178976351498
 20
139.6362438943216
 30
0.0
  0
VERTEX
  5
189
  8
1
  6
CONTINUOUS
 62
     7
 10
63.30514899795077
 20
139.6565615125422
 30
0.0
  0
VERTEX
  5
18A
  8
1
  6
CONTINUOUS
 62
     7
 10
63.29786605441586
 20
139.676015073819
 30
0.0
  0
VERTEX
  5
18B
  8
1
  6
CONTINUOUS
 62
     7
 10
63.28977435272007
 20
139.6951658803531
 30
0.0
  0
VERTEX
  5
18C
  8
1
  6
CONTINUOUS
 62
     7
 10
63.28089584286381
 20
139.7139648454549
 30
0.0
  0
VERTEX
  5
18D
  8
1
  6
CONTINUOUS
 62
     7
 10
63.27125247484748
 20
139.7323628824352
 30
0.0
  0
VERTEX
  5
18E
  8
1
  6
CONTINUOUS
 62
     7
 10
63.26053695253718
 20
139.7508583906667
 30
0.0
  0
VERTEX
  5
18F
  8
1
  6
CONTINUOUS
 62
     7
 10
63.24903013682439
 20
139.7688954875511
 30
0.0
  0
VERTEX
  5
190
  8
1
  6
CONTINUOUS
 62
     7
 10
63.23676458755416
 20
139.7864254612504
 30
0.0
  0
VERTEX
  5
191
  8
1
  6
CONTINUOUS
 62
     7
 10
63.22377286457147
 20
139.8033995999262
 30
0.0
  0
VERTEX
  5
192
  8
1
  6
CONTINUOUS
 62
     7
 10
63.21143033944498
 20
139.8182309000364
 30
0.0
  0
VERTEX
  5
193
  8
1
  6
CONTINUOUS
 62
     7
 10
63.19852024074773
 20
139.8325805489856
 30
0.0
  0
VERTEX
  5
194
  8
1
  6
CONTINUOUS
 62
     7
 10
63.18507139243257
 20
139.8464165119872
 30
0.0
  0
VERTEX
  5
195
  8
1
  6
CONTINUOUS
 62
     7
 10
63.1709025252399
 20
139.8599013437979
 30
0.0
  0
VERTEX
  5
196
  8
1
  6
CONTINUOUS
 62
     7
 10
63.15621171998406
 20
139.8728269379336
 30
0.0
  0
VERTEX
  5
197
  8
1
  6
CONTINUOUS
 62
     7
 10
63.14103268188948
 20
139.8851636431003
 30
0.0
  0
SEQEND
  5
37D
  8
1
  6
CONTINUOUS
 62
     7
  0
ARC
  5
89
  8
1
  6
CONTINUOUS
 62
     7
 10
59.7578531953147
 20
159.8541322420812
 30
0.0
 40
1.499924599771974
 50
359.998199542163
 51
137.5940185488536
  0
ARC
  5
8A
  8
1
  6
CONTINUOUS
 62
     7
 10
81.90881347135195
 20
159.8541322420812
 30
0.0
 40
1.499924599771967
 50
42.40598145114632
 51
180.001800457837
  0
ARC
  5
8B
  8
1
  6
CONTINUOUS
 62
     7
 10
61.72405262519616
 20
137.9709197163268
 30
0.0
 40
1.500211050738079
 50
311.8121145138132
 51
359.5126586614539
  0
ARC
  5
8C
  8
1
  6
CONTINUOUS
 62
     7
 10
61.72007504171618
 20
137.9666994969712
 30
0.0
 40
1.499728520056539
 50
271.2703524573916
 51
312.0328664061843
  0
ARC
  5
8D
  8
1
  6
CONTINUOUS
 62
     7
 10
61.71755987314323
 20
137.9712012396251
 30
0.0
 40
1.504286855707744
 50
232.6299882493659
 51
271.3623261736166
  0
ARC
  5
8E
  8
1
  6
CONTINUOUS
 62
     7
 10
79.94910679352343
 20
137.9712012396251
 30
0.0
 40
1.504286855707744
 50
268.6376738263834
 51
307.3700117506341
  0
ARC
  5
8F
  8
1
  6
CONTINUOUS
 62
     7
 10
79.9465916249505
 20
137.9666994969712
 30
0.0
 40
1.499728520056596
 50
227.967133593818
 51
268.7296475426077
  0
ARC
  5
90
  8
1
  6
CONTINUOUS
 62
     7
 10
79.94400697145282
 20
137.9715497495065
 30
0.0
 40
1.501609416387472
 50
180.5109281067109
 51
228.164298718024
  0
LINE
  5
91
  8
1
  6
CONTINUOUS
 62
     7
 10
63.33333333333334
 20
139.4910649388668
 30
0.0
 11
63.33333333333334
 21
135.7379302611294
 31
0.0
  0
LINE
  5
92
  8
1
  6
CONTINUOUS
 62
     7
 10
78.33333333333333
 20
139.4910649388668
 30
0.0
 11
78.33333333333333
 21
135.7379302611294
 31
0.0
  0
LINE
  5
93
  8
1
  6
CONTINUOUS
 62
     7
 10
80.40888887232055
 20
159.8540851085747
 30
0.0
 11
80.40888887232055
 21
157.7728515360828
 31
0.0
  0
LINE
  5
94
  8
1
  6
CONTINUOUS
 62
     7
 10
61.25777779434611
 20
159.8540851085747
 30
0.0
 11
61.25777779434611
 21
157.7728515360828
 31
0.0
  0
LINE
  5
95
  8
1
  6
CONTINUOUS
 62
     7
 10
70.14594697908996
 20
130.2380064150011
 30
0.0
 11
71.5207196875767
 21
130.2380064150011
 31
0.0
  0
LINE
  5
96
  8
1
  6
CONTINUOUS
 62
     7
 10
69.68768940959437
 20
130.2380064150011
 30
0.0
 11
70.14594697908996
 21
130.2380064150011
 31
0.0
  0
LINE
  5
97
  8
1
  6
CONTINUOUS
 62
     7
 10
71.52071968757672
 20
130.2380064150011
 30
0.0
 11
71.97897725707229
 21
130.2380064150011
 31
0.0
  0
LINE
  5
98
  8
1
  6
CONTINUOUS
 62
     7
 10
73.55278929606568
 20
133.7380064150011
 30
0.0
 11
73.03244758608663
 21
133.7240434265358
 31
0.0
  0
LINE
  5
99
  8
1
  6
CONTINUOUS
 62
     7
 10
76.33340948720499
 20
133.7380064150011
 30
0.0
 11
73.55278929606568
 21
133.7380064150011
 31
0.0
  0
LINE
  5
9A
  8
1
  6
CONTINUOUS
 62
     7
 10
68.11387740114428
 20
133.7380099149146
 30
0.0
 11
65.33325717946167
 21
133.7380064150011
 31
0.0
  0
LINE
  5
9B
  8
1
  6
CONTINUOUS
 62
     7
 10
68.63421908058002
 20
133.7240434265358
 30
0.0
 11
68.11387737060332
 21
133.7380064152676
 31
0.0
  0
LINE
  5
9C
  8
1
  6
CONTINUOUS
 62
     7
 10
68.63421908058002
 20
133.7240434265358
 30
0.0
 11
73.03244758608663
 21
133.7240434265358
 31
0.0
  0
LINE
  5
9D
  8
1
  6
CONTINUOUS
 62
     7
 10
82.43087035902958
 20
130.2380064150011
 30
0.0
 11
80.9012227514634
 21
130.2380064150011
 31
0.0
  0
LINE
  5
9E
  8
1
  6
CONTINUOUS
 62
     7
 10
71.97897725707229
 20
130.2380064150011
 30
0.0
 11
80.9012227514634
 21
130.2380064150011
 31
0.0
  0
LINE
  5
9F
  8
1
  6
CONTINUOUS
 62
     7
 10
59.23579630763707
 20
130.2380064150011
 30
0.0
 11
60.76544391520327
 21
130.2380064150011
 31
0.0
  0
LINE
  5
A0
  8
1
  6
CONTINUOUS
 62
     7
 10
60.76544391520327
 20
130.2380064150011
 30
0.0
 11
69.68768940959437
 21
130.2380064150011
 31
0.0
  0
POLYLINE
  5
A1
  8
1
  6
CONTINUOUS
 62
     7
 66
     1
 10
0.0
 20
0.0
 30
0.0
  0
VERTEX
  5
198
  8
1
  6
CONTINUOUS
 62
     7
 10
76.33340948720497
 20
133.7380064150011
 30
0.0
  0
VERTEX
  5
199
  8
1
  6
CONTINUOUS
 62
     7
 10
76.72358338820919
 20
133.7764336033229
 30
0.0
  0
VERTEX
  5
19A
  8
1
  6
CONTINUOUS
 62
     7
 10
77.09875872149273
 20
133.8902385757125
 30
0.0
  0
VERTEX
  5
19B
  8
1
  6
CONTINUOUS
 62
     7
 10
77.44451910282241
 20
134.0750482935819
 30
0.0
  0
VERTEX
  5
19C
  8
1
  6
CONTINUOUS
 62
     7
 10
77.74757843882362
 20
134.3237613095108
 30
0.0
  0
VERTEX
  5
19D
  8
1
  6
CONTINUOUS
 62
     7
 10
77.99629145475244
 20
134.626820645512
 30
0.0
  0
VERTEX
  5
19E
  8
1
  6
CONTINUOUS
 62
     7
 10
78.18110117262192
 20
134.9725810268417
 30
0.0
  0
VERTEX
  5
19F
  8
1
  6
CONTINUOUS
 62
     7
 10
78.29490614501147
 20
135.3477563601252
 30
0.0
  0
VERTEX
  5
1A0
  8
1
  6
CONTINUOUS
 62
     7
 10
78.33333333333333
 20
135.7379302611294
 30
0.0
  0
SEQEND
  5
37E
  8
1
  6
CONTINUOUS
 62
     7
  0
POLYLINE
  5
A2
  8
1
  6
CONTINUOUS
 62
     7
 66
     1
 10
0.0
 20
0.0
 30
0.0
  0
VERTEX
  5
1A1
  8
1
  6
CONTINUOUS
 62
     7
 10
63.33333333333332
 20
135.7379302611294
 30
0.0
  0
VERTEX
  5
1A2
  8
1
  6
CONTINUOUS
 62
     7
 10
63.3717605216552
 20
135.3477563601252
 30
0.0
  0
VERTEX
  5
1A3
  8
1
  6
CONTINUOUS
 62
     7
 10
63.48556549404474
 20
134.9725810268417
 30
0.0
  0
VERTEX
  5
1A4
  8
1
  6
CONTINUOUS
 62
     7
 10
63.67037521191422
 20
134.626820645512
 30
0.0
  0
VERTEX
  5
1A5
  8
1
  6
CONTINUOUS
 62
     7
 10
63.91908822784303
 20
134.3237613095108
 30
0.0
  0
VERTEX
  5
1A6
  8
1
  6
CONTINUOUS
 62
     7
 10
64.22214756384426
 20
134.0750482935819
 30
0.0
  0
VERTEX
  5
1A7
  8
1
  6
CONTINUOUS
 62
     7
 10
64.56790794517393
 20
133.8902385757125
 30
0.0
  0
VERTEX
  5
1A8
  8
1
  6
CONTINUOUS
 62
     7
 10
64.94308327845748
 20
133.7764336033229
 30
0.0
  0
VERTEX
  5
1A9
  8
1
  6
CONTINUOUS
 62
     7
 10
65.33325717946168
 20
133.7380064150011
 30
0.0
  0
SEQEND
  5
37F
  8
1
  6
CONTINUOUS
 62
     7
  0
ARC
  5
A3
  8
1
  6
CONTINUOUS
 62
     7
 10
84.47865089802825
 20
135.8078146795538
 30
0.0
 40
2.999870082338795
 50
134.4079784756211
 51
191.3100948166829
  0
ARC
  5
A4
  8
1
  6
CONTINUOUS
 62
     7
 10
57.18801576863844
 20
135.8078146795538
 30
0.0
 40
2.999870082338775
 50
348.6899051833171
 51
45.59202152437927
  0
LINE
  5
A5
  8
1
  6
CONTINUOUS
 62
     7
 10
82.53333333333333
 20
130.2380064150011
 30
0.0
 11
81.5370379326777
 21
135.2194834182792
 31
0.0
  0
LINE
  5
A6
  8
1
  6
CONTINUOUS
 62
     7
 10
82.43087035902958
 20
130.2380064150011
 30
0.0
 11
82.53333333333333
 21
130.2380064150011
 31
0.0
  0
LINE
  5
A7
  8
1
  6
CONTINUOUS
 62
     7
 10
59.13333333333332
 20
130.2380064150011
 30
0.0
 11
60.12962873398895
 21
135.2194834182792
 31
0.0
  0
LINE
  5
A8
  8
1
  6
CONTINUOUS
 62
     7
 10
59.23579630763707
 20
130.2380064150011
 30
0.0
 11
59.13333333333332
 21
130.2380064150011
 31
0.0
  0
LINE
  5
A9
  8
1
  6
CONTINUOUS
 62
     7
 10
81.83333333333312
 20
143.7962434036057
 30
0.0
 11
81.83333333333334
 21
155.6797694263961
 31
0.0
  0
LINE
  5
AA
  8
1
  6
CONTINUOUS
 62
     7
 10
59.83333333333354
 20
143.7962434036057
 30
0.0
 11
59.83333333333332
 21
155.6797694263961
 31
0.0
  0
LINE
  5
AB
  8
1
  6
CONTINUOUS
 62
     7
 10
72.9478040905581
 20
130.200506415001
 30
0.0
 11
72.9478040905581
 21
130.2380064150011
 31
0.0
  0
LINE
  5
AC
  8
1
  6
CONTINUOUS
 62
     7
 10
73.04242424242425
 20
130.200506415001
 30
0.0
 11
73.04242424242425
 21
130.2380064150011
 31
0.0
  0
LINE
  5
AD
  8
1
  6
CONTINUOUS
 62
     7
 10
70.94378787878789
 20
130.2380064150011
 30
0.0
 11
70.94378787878789
 21
130.200506415001
 31
0.0
  0
ENDBLK
  8
0
  0
BLOCK
  8
0
  2
D_FRAME_VIEW_1587
 70
     0
 10
0.0
 20
0.0
 30
0.0
  0
POLYLINE
  5
BA
  8
1
  6
CONTINUOUS
 62
     7
 66
     1
 10
0.0
 20
0.0
 30
0.0
  0
VERTEX
  5
1AA
  8
1
  6
CONTINUOUS
 62
     7
 10
157.5069815110004
 20
155.9581884333994
 30
0.0
  0
VERTEX
  5
1AB
  8
1
  6
CONTINUOUS
 62
     7
 10
152.0155926746574
 20
154.0051408020194
 30
0.0
  0
VERTEX
  5
1AC
  8
1
  6
CONTINUOUS
 62
     7
 10
148.6448816355146
 20
151.9081712672518
 30
0.0
  0
VERTEX
  5
1AD
  8
1
  6
CONTINUOUS
 62
     7
 10
147.5085357313786
 20
149.7380064150011
 30
0.0
  0
VERTEX
  5
1AE
  8
1
  6
CONTINUOUS
 62
     7
 10
148.6448816355146
 20
147.5678415627503
 30
0.0
  0
VERTEX
  5
1AF
  8
1
  6
CONTINUOUS
 62
     7
 10
152.0155926746573
 20
145.4708720279827
 30
0.0
  0
VERTEX
  5
1B0
  8
1
  6
CONTINUOUS
 62
     7
 10
157.5069815110003
 20
143.5178243966027
 30
0.0
  0
SEQEND
  5
380
  8
1
  6
CONTINUOUS
 62
     7
  0
ARC
  5
BB
  8
1
  6
CONTINUOUS
 62
     7
 10
163.2916585918124
 20
137.2232952064541
 30
0.0
 40
21.75857039665901
 50
105.8688925979126
 51
133.0502464881966
  0
ARC
  5
BC
  8
1
  6
CONTINUOUS
 62
     7
 10
151.2696238014618
 20
149.7284652707507
 30
0.0
 40
4.420633394296498
 50
129.8258813718604
 51
231.5068936198377
  0
ARC
  5
BD
  8
1
  6
CONTINUOUS
 62
     7
 10
163.9735856539319
 20
163.5015351585028
 30
0.0
 40
23.14839555856268
 50
228.1126273358075
 51
253.3527330285017
  0
LINE
  5
BE
  8
1
  6
CONTINUOUS
 62
     7
 10
156.0550684496678
 20
136.7756957238782
 30
0.0
 11
154.8464231365809
 21
137.990493566417
 31
0.0
  0
LINE
  5
BF
  8
1
  6
CONTINUOUS
 62
     7
 10
154.8464231365809
 20
137.990493566417
 30
0.0
 11
143.3333333333333
 21
137.9508476019465
 31
0.0
  0
ARC
  5
C0
  8
1
  6
CONTINUOUS
 62
     7
 10
123.3750080748543
 20
137.2232952064541
 30
0.0
 40
21.75857039665901
 50
46.94975351180341
 51
74.13110740208742
  0
ARC
  5
C1
  8
1
  6
CONTINUOUS
 62
     7
 10
135.3970428652049
 20
149.7284652707507
 30
0.0
 40
4.420633394296498
 50
308.4931063801623
 51
50.17411862813964
  0
ARC
  5
C2
  8
1
  6
CONTINUOUS
 62
     7
 10
122.6930810127351
 20
163.5015351585022
 30
0.0
 40
23.14839555856204
 50
286.6472669714981
 51
311.8873726641928
  0
LINE
  5
C3
  8
1
  6
CONTINUOUS
 62
     7
 10
131.8202435300858
 20
137.990493566417
 30
0.0
 11
143.3333333333333
 21
137.9508476019465
 31
0.0
  0
LINE
  5
C4
  8
1
  6
CONTINUOUS
 62
     7
 10
130.6115982169989
 20
136.7756957238782
 30
0.0
 11
131.8202435300858
 21
137.990493566417
 31
0.0
  0
POLYLINE
  5
C5
  8
1
  6
CONTINUOUS
 62
     7
 66
     1
 10
0.0
 20
0.0
 30
0.0
  0
VERTEX
  5
1B1
  8
1
  6
CONTINUOUS
 62
     7
 10
129.1596851556663
 20
143.5178243966027
 30
0.0
  0
VERTEX
  5
1B2
  8
1
  6
CONTINUOUS
 62
     7
 10
134.6510739920093
 20
145.4708720279826
 30
0.0
  0
VERTEX
  5
1B3
  8
1
  6
CONTINUOUS
 62
     7
 10
138.0217850311521
 20
147.5678415627503
 30
0.0
  0
VERTEX
  5
1B4
  8
1
  6
CONTINUOUS
 62
     7
 10
139.1581309352881
 20
149.738006415001
 30
0.0
  0
VERTEX
  5
1B5
  8
1
  6
CONTINUOUS
 62
     7
 10
138.0217850311521
 20
151.9081712672518
 30
0.0
  0
VERTEX
  5
1B6
  8
1
  6
CONTINUOUS
 62
     7
 10
134.6510739920093
 20
154.0051408020194
 30
0.0
  0
VERTEX
  5
1B7
  8
1
  6
CONTINUOUS
 62
     7
 10
129.1596851556664
 20
155.9581884333993
 30
0.0
  0
SEQEND
  5
381
  8
1
  6
CONTINUOUS
 62
     7
  0
LINE
  5
C6
  8
1
  6
CONTINUOUS
 62
     7
 10
129.1596851556664
 20
155.9581884333993
 30
0.0
 11
128.3333333333333
 21
155.9581884333993
 31
0.0
  0
LINE
  5
C7
  8
1
  6
CONTINUOUS
 62
     7
 10
128.3333333333333
 20
155.9581884333993
 30
0.0
 11
128.3333333333333
 21
157.6388792225451
 31
0.0
  0
POLYLINE
  5
C8
  8
1
  6
CONTINUOUS
 62
     7
 66
     1
 10
0.0
 20
0.0
 30
0.0
  0
VERTEX
  5
1B8
  8
1
  6
CONTINUOUS
 62
     7
 10
129.3246067978349
 20
158.1526444734971
 30
0.0
  0
VERTEX
  5
1B9
  8
1
  6
CONTINUOUS
 62
     7
 10
129.130759676078
 20
158.1420117510096
 30
0.0
  0
VERTEX
  5
1BA
  8
1
  6
CONTINUOUS
 62
     7
 10
128.9446113631809
 20
158.1122574841897
 30
0.0
  0
VERTEX
  5
1BB
  8
1
  6
CONTINUOUS
 62
     7
 10
128.773236423033
 20
158.0645124835095
 30
0.0
  0
VERTEX
  5
1BC
  8
1
  6
CONTINUOUS
 62
     7
 10
128.62314795771
 20
158.0005912970166
 30
0.0
  0
VERTEX
  5
1BD
  8
1
  6
CONTINUOUS
 62
     7
 10
128.5000500771256
 20
157.9229232484619
 30
0.0
  0
VERTEX
  5
1BE
  8
1
  6
CONTINUOUS
 62
     7
 10
128.4086211144179
 20
157.8344601108866
 30
0.0
  0
VERTEX
  5
1BF
  8
1
  6
CONTINUOUS
 62
     7
 10
128.3523358259677
 20
157.7385639245311
 30
0.0
  0
VERTEX
  5
1C0
  8
1
  6
CONTINUOUS
 62
     7
 10
128.3333333333334
 20
157.6388792225451
 30
0.0
  0
SEQEND
  5
382
  8
1
  6
CONTINUOUS
 62
     7
  0
LINE
  5
C9
  8
1
  6
CONTINUOUS
 62
     7
 10
158.3333333333333
 20
155.9581884333993
 30
0.0
 11
158.3333333333333
 21
157.6388792225451
 31
0.0
  0
LINE
  5
CA
  8
1
  6
CONTINUOUS
 62
     7
 10
157.5069815110003
 20
155.9581884333993
 30
0.0
 11
158.3333333333333
 21
155.9581884333993
 31
0.0
  0
POLYLINE
  5
CB
  8
1
  6
CONTINUOUS
 62
     7
 66
     1
 10
0.0
 20
0.0
 30
0.0
  0
VERTEX
  5
1C1
  8
1
  6
CONTINUOUS
 62
     7
 10
158.3333333333333
 20
157.6388792225451
 30
0.0
  0
VERTEX
  5
1C2
  8
1
  6
CONTINUOUS
 62
     7
 10
158.314330840699
 20
157.7385639245311
 30
0.0
  0
VERTEX
  5
1C3
  8
1
  6
CONTINUOUS
 62
     7
 10
158.2580455522488
 20
157.8344601108866
 30
0.0
  0
VERTEX
  5
1C4
  8
1
  6
CONTINUOUS
 62
     7
 10
158.1666165895411
 20
157.9229232484619
 30
0.0
  0
VERTEX
  5
1C5
  8
1
  6
CONTINUOUS
 62
     7
 10
158.0435187089566
 20
158.0005912970166
 30
0.0
  0
VERTEX
  5
1C6
  8
1
  6
CONTINUOUS
 62
     7
 10
157.8934302436336
 20
158.0645124835095
 30
0.0
  0
VERTEX
  5
1C7
  8
1
  6
CONTINUOUS
 62
     7
 10
157.7220553034858
 20
158.1122574841897
 30
0.0
  0
VERTEX
  5
1C8
  8
1
  6
CONTINUOUS
 62
     7
 10
157.5359069905887
 20
158.1420117510096
 30
0.0
  0
VERTEX
  5
1C9
  8
1
  6
CONTINUOUS
 62
     7
 10
157.3420598688318
 20
158.1526444734971
 30
0.0
  0
SEQEND
  5
383
  8
1
  6
CONTINUOUS
 62
     7
  0
POLYLINE
  5
CC
  8
1
  6
CONTINUOUS
 62
     7
 66
     1
 10
0.0
 20
0.0
 30
0.0
  0
VERTEX
  5
1CA
  8
1
  6
CONTINUOUS
 62
     7
 10
128.3333333333333
 20
141.837133607457
 30
0.0
  0
VERTEX
  5
1CB
  8
1
  6
CONTINUOUS
 62
     7
 10
128.3523358259676
 20
141.737448905471
 30
0.0
  0
VERTEX
  5
1CC
  8
1
  6
CONTINUOUS
 62
     7
 10
128.4086211144178
 20
141.6415527191155
 30
0.0
  0
VERTEX
  5
1CD
  8
1
  6
CONTINUOUS
 62
     7
 10
128.5000500771255
 20
141.5530895815402
 30
0.0
  0
VERTEX
  5
1CE
  8
1
  6
CONTINUOUS
 62
     7
 10
128.62314795771
 20
141.4754215329855
 30
0.0
  0
VERTEX
  5
1CF
  8
1
  6
CONTINUOUS
 62
     7
 10
128.773236423033
 20
141.4115003464926
 30
0.0
  0
VERTEX
  5
1D0
  8
1
  6
CONTINUOUS
 62
     7
 10
128.9446113631809
 20
141.3637553458124
 30
0.0
  0
VERTEX
  5
1D1
  8
1
  6
CONTINUOUS
 62
     7
 10
129.130759676078
 20
141.3340010789925
 30
0.0
  0
VERTEX
  5
1D2
  8
1
  6
CONTINUOUS
 62
     7
 10
129.3246067978349
 20
141.323368356505
 30
0.0
  0
SEQEND
  5
384
  8
1
  6
CONTINUOUS
 62
     7
  0
LINE
  5
CD
  8
1
  6
CONTINUOUS
 62
     7
 10
128.3333333333333
 20
141.837133607457
 30
0.0
 11
128.3333333333333
 21
143.5178243966027
 31
0.0
  0
LINE
  5
CE
  8
1
  6
CONTINUOUS
 62
     7
 10
129.1596851556664
 20
143.5178243966027
 30
0.0
 11
128.3333333333333
 21
143.5178243966027
 31
0.0
  0
LINE
  5
CF
  8
1
  6
CONTINUOUS
 62
     7
 10
158.3333333333333
 20
141.837133607457
 30
0.0
 11
158.3333333333333
 21
143.5178243966027
 31
0.0
  0
POLYLINE
  5
D0
  8
1
  6
CONTINUOUS
 62
     7
 66
     1
 10
0.0
 20
0.0
 30
0.0
  0
VERTEX
  5
1D3
  8
1
  6
CONTINUOUS
 62
     7
 10
157.3420598688317
 20
141.323368356505
 30
0.0
  0
VERTEX
  5
1D4
  8
1
  6
CONTINUOUS
 62
     7
 10
157.5359069905886
 20
141.3340010789925
 30
0.0
  0
VERTEX
  5
1D5
  8
1
  6
CONTINUOUS
 62
     7
 10
157.7220553034857
 20
141.3637553458124
 30
0.0
  0
VERTEX
  5
1D6
  8
1
  6
CONTINUOUS
 62
     7
 10
157.8934302436336
 20
141.4115003464926
 30
0.0
  0
VERTEX
  5
1D7
  8
1
  6
CONTINUOUS
 62
     7
 10
158.0435187089566
 20
141.4754215329855
 30
0.0
  0
VERTEX
  5
1D8
  8
1
  6
CONTINUOUS
 62
     7
 10
158.1666165895411
 20
141.5530895815402
 30
0.0
  0
VERTEX
  5
1D9
  8
1
  6
CONTINUOUS
 62
     7
 10
158.2580455522489
 20
141.6415527191155
 30
0.0
  0
VERTEX
  5
1DA
  8
1
  6
CONTINUOUS
 62
     7
 10
158.3143308406991
 20
141.737448905471
 30
0.0
  0
VERTEX
  5
1DB
  8
1
  6
CONTINUOUS
 62
     7
 10
158.3333333333333
 20
141.837133607457
 30
0.0
  0
SEQEND
  5
385
  8
1
  6
CONTINUOUS
 62
     7
  0
LINE
  5
D1
  8
1
  6
CONTINUOUS
 62
     7
 10
157.5069815110002
 20
143.5178243966027
 30
0.0
 11
158.3333333333333
 21
143.5178243966027
 31
0.0
  0
LINE
  5
D2
  8
1
  6
CONTINUOUS
 62
     7
 10
128.3333333333333
 20
143.5178243966027
 30
0.0
 11
128.3333333333333
 21
155.9581884333993
 31
0.0
  0
LINE
  5
D3
  8
1
  6
CONTINUOUS
 62
     7
 10
158.3333333333333
 20
143.5178243966027
 30
0.0
 11
158.3333333333333
 21
155.9581884333993
 31
0.0
  0
LINE
  5
D4
  8
1
  6
CONTINUOUS
 62
     7
 10
128.3333333333333
 20
137.5899657897764
 30
0.0
 11
128.3333333333333
 21
141.837133607457
 31
0.0
  0
LINE
  5
D5
  8
1
  6
CONTINUOUS
 62
     7
 10
158.3333333333333
 20
137.5899657897764
 30
0.0
 11
158.3333333333333
 21
141.837133607457
 31
0.0
  0
LINE
  5
D6
  8
1
  6
CONTINUOUS
 62
     7
 10
128.3333333333333
 20
157.6388792225451
 30
0.0
 11
128.3333333333333
 21
159.8630950869325
 31
0.0
  0
LINE
  5
D7
  8
1
  6
CONTINUOUS
 62
     7
 10
158.3333333333333
 20
157.6388792225451
 30
0.0
 11
158.3333333333333
 21
159.8630950869325
 31
0.0
  0
LINE
  5
D8
  8
1
  6
CONTINUOUS
 62
     7
 10
128.3333333333333
 20
160.033656080886
 30
0.0
 11
128.3333333333333
 21
160.0333038174732
 31
0.0
  0
LINE
  5
D9
  8
1
  6
CONTINUOUS
 62
     7
 10
128.3333333333333
 20
159.8630950869325
 30
0.0
 11
128.3333333333333
 21
159.945687405696
 31
0.0
  0
LINE
  5
DA
  8
1
  6
CONTINUOUS
 62
     7
 10
128.3333333333333
 20
159.945687405696
 30
0.0
 11
128.3333333333333
 21
160.033653101342
 31
0.0
  0
LINE
  5
DB
  8
1
  6
CONTINUOUS
 62
     7
 10
158.3333333333333
 20
160.033656080886
 30
0.0
 11
158.3333333333333
 21
160.0333038174732
 31
0.0
  0
LINE
  5
DC
  8
1
  6
CONTINUOUS
 62
     7
 10
158.3333333333333
 20
159.8630950869325
 30
0.0
 11
158.3333333333333
 21
159.945687405696
 31
0.0
  0
LINE
  5
DD
  8
1
  6
CONTINUOUS
 62
     7
 10
158.3333333333333
 20
159.945687405696
 30
0.0
 11
158.3333333333333
 21
160.033653101342
 31
0.0
  0
LINE
  5
DE
  8
1
  6
CONTINUOUS
 62
     7
 10
143.3333333333333
 20
161.3541695318678
 30
0.0
 11
143.3333333333333
 21
160.8656506072726
 31
0.0
  0
LINE
  5
DF
  8
1
  6
CONTINUOUS
 62
     7
 10
154.8464231365809
 20
130.2380064150011
 30
0.0
 11
143.3333333333333
 21
130.2380064150011
 31
0.0
  0
LINE
  5
E0
  8
1
  6
CONTINUOUS
 62
     7
 10
131.8202435300858
 20
130.2380064150011
 30
0.0
 11
143.3333333333333
 21
130.2380064150011
 31
0.0
  0
LINE
  5
E1
  8
1
  6
CONTINUOUS
 62
     7
 10
156.3333333333333
 20
134.9590891040219
 30
0.0
 11
156.3333333333333
 21
136.4673395877207
 31
0.0
  0
LINE
  5
E2
  8
1
  6
CONTINUOUS
 62
     7
 10
156.3333333333333
 20
136.4673395877207
 30
0.0
 11
156.0550684496678
 21
136.7756957238782
 31
0.0
  0
LINE
  5
E3
  8
1
  6
CONTINUOUS
 62
     7
 10
130.3333333333333
 20
134.9590891040219
 30
0.0
 11
130.3333333333333
 21
136.4673395877207
 31
0.0
  0
LINE
  5
E4
  8
1
  6
CONTINUOUS
 62
     7
 10
130.3333333333333
 20
136.4673395877207
 30
0.0
 11
130.6115982169989
 21
136.7756957238782
 31
0.0
  0
LINE
  5
E5
  8
1
  6
CONTINUOUS
 62
     7
 10
156.3333333333333
 20
130.2380064150011
 30
0.0
 11
156.3333333333333
 21
134.9590891040219
 31
0.0
  0
LINE
  5
E6
  8
1
  6
CONTINUOUS
 62
     7
 10
154.8464231365809
 20
130.2380064150011
 30
0.0
 11
156.3333333333333
 21
130.2380064150011
 31
0.0
  0
LINE
  5
E7
  8
1
  6
CONTINUOUS
 62
     7
 10
130.3333333333333
 20
130.2380064150011
 30
0.0
 11
130.3333333333333
 21
134.9590891040219
 31
0.0
  0
LINE
  5
E8
  8
1
  6
CONTINUOUS
 62
     7
 10
131.8202435300858
 20
130.2380064150011
 30
0.0
 11
130.3333333333333
 21
130.2380064150011
 31
0.0
  0
LINE
  5
E9
  8
1
  6
CONTINUOUS
 62
     7
 10
128.3333333333333
 20
137.4857620112477
 30
0.0
 11
128.3333333333333
 21
137.4851172556018
 31
0.0
  0
LINE
  5
EA
  8
1
  6
CONTINUOUS
 62
     7
 10
128.3333333333333
 20
137.4851155780997
 30
0.0
 11
128.3333333333333
 21
137.5486490636454
 31
0.0
  0
LINE
  5
EB
  8
1
  6
CONTINUOUS
 62
     7
 10
128.3333333333333
 20
137.5486490636454
 30
0.0
 11
128.3333333333333
 21
137.5899657897764
 31
0.0
  0
LINE
  5
EC
  8
1
  6
CONTINUOUS
 62
     7
 10
158.3333333333333
 20
137.4851155780997
 30
0.0
 11
158.3333333333333
 21
137.5486490636454
 31
0.0
  0
LINE
  5
ED
  8
1
  6
CONTINUOUS
 62
     7
 10
158.3333333333333
 20
137.5486490636454
 30
0.0
 11
158.3333333333333
 21
137.5899657897764
 31
0.0
  0
LINE
  5
EE
  8
1
  6
CONTINUOUS
 62
     7
 10
158.3333333333333
 20
137.4857620112477
 30
0.0
 11
158.3333333333333
 21
137.4851172556018
 31
0.0
  0
LINE
  5
EF
  8
1
  6
CONTINUOUS
 62
     7
 10
130.2289700655842
 20
133.6236463692813
 30
0.0
 11
130.3333333333333
 21
133.6245571337212
 31
0.0
  0
LINE
  5
F0
  8
1
  6
CONTINUOUS
 62
     7
 10
130.0333333333333
 20
130.2380064150011
 30
0.0
 11
130.3333333333333
 21
130.2380064150011
 31
0.0
  0
LINE
  5
F1
  8
1
  6
CONTINUOUS
 62
     7
 10
156.6333333333334
 20
130.2380064150011
 30
0.0
 11
156.3333333333333
 21
130.2380064150011
 31
0.0
  0
LINE
  5
F2
  8
1
  6
CONTINUOUS
 62
     7
 10
156.4376966010825
 20
133.6236463692813
 30
0.0
 11
156.3333333333333
 21
133.6245571337212
 31
0.0
  0
LINE
  5
F3
  8
1
  6
CONTINUOUS
 62
     7
 10
130.0789700655842
 20
133.6223373391127
 30
0.0
 11
130.2289700655842
 21
133.6236463692813
 31
0.0
  0
LINE
  5
F4
  8
1
  6
CONTINUOUS
 62
     7
 10
129.5833333333333
 20
130.2380064150011
 30
0.0
 11
130.0333333333333
 21
130.2380064150011
 31
0.0
  0
LINE
  5
F5
  8
1
  6
CONTINUOUS
 62
     7
 10
156.5876966010825
 20
133.6223373391127
 30
0.0
 11
156.4376966010825
 21
133.6236463692813
 31
0.0
  0
LINE
  5
F6
  8
1
  6
CONTINUOUS
 62
     7
 10
157.0833333333333
 20
130.2380064150011
 30
0.0
 11
156.6333333333334
 21
130.2380064150011
 31
0.0
  0
LINE
  5
F7
  8
1
  6
CONTINUOUS
 62
     7
 10
128.3333333333333
 20
137.4857670912398
 30
0.0
 11
128.3333333333333
 21
137.4851140778064
 31
0.0
  0
LINE
  5
F8
  8
1
  6
CONTINUOUS
 62
     7
 10
158.3333333333333
 20
137.4857670912398
 30
0.0
 11
158.3333333333333
 21
137.4851140778064
 31
0.0
  0
LINE
  5
F9
  8
1
  6
CONTINUOUS
 62
     7
 10
128.3333333333333
 20
160.0333038174732
 30
0.0
 11
128.3333333333333
 21
159.9413956176238
 31
0.0
  0
LINE
  5
FA
  8
1
  6
CONTINUOUS
 62
     7
 10
128.3333333333333
 20
160.033656080886
 30
0.0
 11
128.3333333333333
 21
160.0333038174732
 31
0.0
  0
LINE
  5
FB
  8
1
  6
CONTINUOUS
 62
     7
 10
158.3333333333333
 20
160.033656080886
 30
0.0
 11
158.3333333333333
 21
160.0333038174732
 31
0.0
  0
LINE
  5
FC
  8
1
  6
CONTINUOUS
 62
     7
 10
158.3333333333333
 20
160.0333038174732
 30
0.0
 11
158.3333333333333
 21
159.9413956176238
 31
0.0
  0
ARC
  5
FD
  8
1
  6
CONTINUOUS
 62
     7
 10
129.3333333333333
 20
160.0339296247397
 30
0.0
 40
0.9999999999999764
 50
91.33071530144151
 51
180.0
  0
ARC
  5
FE
  8
1
  6
CONTINUOUS
 62
     7
 10
157.3333333333333
 20
160.0339296247397
 30
0.0
 40
1.000000000000001
 50
0.0
 51
88.66928469855849
  0
LINE
  5
FF
  8
1
  6
CONTINUOUS
 62
     7
 10
157.3565507832696
 20
161.0336594919597
 30
0.0
 11
143.3333396377711
 21
161.3541693895434
 31
0.0
  0
LINE
  5
100
  8
1
  6
CONTINUOUS
 62
     7
 10
143.3333270288956
 20
161.3541693895434
 30
0.0
 11
129.3101158833971
 21
161.0336594919597
 31
0.0
  0
POLYLINE
  5
101
  8
1
  6
CONTINUOUS
 62
     7
 66
     1
 10
0.0
 20
0.0
 30
0.0
  0
VERTEX
  5
1DC
  8
1
  6
CONTINUOUS
 62
     7
 10
128.3333333333333
 20
137.4849900870962
 30
0.0
  0
VERTEX
  5
1DD
  8
1
  6
CONTINUOUS
 62
     7
 10
128.3345105237752
 20
137.4364839947672
 30
0.0
  0
VERTEX
  5
1DE
  8
1
  6
CONTINUOUS
 62
     7
 10
128.3380393472783
 20
137.3880913304047
 30
0.0
  0
VERTEX
  5
1DF
  8
1
  6
CONTINUOUS
 62
     7
 10
128.3439115311403
 20
137.3399260578297
 30
0.0
  0
VERTEX
  5
1E0
  8
1
  6
CONTINUOUS
 62
     7
 10
128.3521132851973
 20
137.2921016098166
 30
0.0
  0
VERTEX
  5
1E1
  8
1
  6
CONTINUOUS
 62
     7
 10
128.3626253340966
 20
137.244730620824
 30
0.0
  0
VERTEX
  5
1E2
  8
1
  6
CONTINUOUS
 62
     7
 10
128.3754229624818
 20
137.1979246616123
 30
0.0
  0
VERTEX
  5
1E3
  8
1
  6
CONTINUOUS
 62
     7
 10
128.3904760729951
 20
137.1517939763159
 30
0.0
  0
VERTEX
  5
1E4
  8
1
  6
CONTINUOUS
 62
     7
 10
128.4077492569473
 20
137.1064472226585
 30
0.0
  0
VERTEX
  5
1E5
  8
1
  6
CONTINUOUS
 62
     7
 10
128.4272018774992
 20
137.0619912158784
 30
0.0
  0
VERTEX
  5
1E6
  8
1
  6
CONTINUOUS
 62
     7
 10
128.4487881651558
 20
137.018530676983
 30
0.0
  0
VERTEX
  5
1E7
  8
1
  6
CONTINUOUS
 62
     7
 10
128.4724573253507
 20
136.976167985923
 30
0.0
  0
VERTEX
  5
1E8
  8
1
  6
CONTINUOUS
 62
     7
 10
128.4981536578652
 20
136.935002940273
 30
0.0
  0
VERTEX
  5
1E9
  8
1
  6
CONTINUOUS
 62
     7
 10
128.5258166878054
 20
136.8951325199809
 30
0.0
  0
VERTEX
  5
1EA
  8
1
  6
CONTINUOUS
 62
     7
 10
128.5553813078265
 20
136.8566506587457
 30
0.0
  0
VERTEX
  5
1EB
  8
1
  6
CONTINUOUS
 62
     7
 10
128.5867779312717
 20
136.8196480225614
 30
0.0
  0
VERTEX
  5
1EC
  8
1
  6
CONTINUOUS
 62
     7
 10
128.6199326558659
 20
136.7842117959484
 30
0.0
  0
VERTEX
  5
1ED
  8
1
  6
CONTINUOUS
 62
     7
 10
128.654767437576
 20
136.7504254763816
 30
0.0
  0
VERTEX
  5
1EE
  8
1
  6
CONTINUOUS
 62
     7
 10
128.6912002742374
 20
136.7183686773888
 30
0.0
  0
VERTEX
  5
1EF
  8
1
  6
CONTINUOUS
 62
     7
 10
128.7291453985021
 20
136.6881169408016
 30
0.0
  0
VERTEX
  5
1F0
  8
1
  6
CONTINUOUS
 62
     7
 10
128.7685134796669
 20
136.659741558584
 30
0.0
  0
VERTEX
  5
1F1
  8
1
  6
CONTINUOUS
 62
     7
 10
128.8092118339003
 20
136.6333094046716
 30
0.0
  0
VERTEX
  5
1F2
  8
1
  6
CONTINUOUS
 62
     7
 10
128.851144642374
 20
136.6088827772124
 30
0.0
  0
VERTEX
  5
1F3
  8
1
  6
CONTINUOUS
 62
     7
 10
128.8942131767888
 20
136.5865192515835
 30
0.0
  0
VERTEX
  5
1F4
  8
1
  6
CONTINUOUS
 62
     7
 10
128.9383160317608
 20
136.5662715445314
 30
0.0
  0
VERTEX
  5
1F5
  8
1
  6
CONTINUOUS
 62
     7
 10
128.9833493635181
 20
136.5481873897574
 30
0.0
  0
VERTEX
  5
1F6
  8
1
  6
CONTINUOUS
 62
     7
 10
129.0292071343738
 20
136.5323094252318
 30
0.0
  0
VERTEX
  5
1F7
  8
1
  6
CONTINUOUS
 62
     7
 10
129.0757813623287
 20
136.5186750925315
 30
0.0
  0
VERTEX
  5
1F8
  8
1
  6
CONTINUOUS
 62
     7
 10
129.1229623753209
 20
136.5073165483966
 30
0.0
  0
VERTEX
  5
1F9
  8
1
  6
CONTINUOUS
 62
     7
 10
129.170639069429
 20
136.4982605887546
 30
0.0
  0
VERTEX
  5
1FA
  8
1
  6
CONTINUOUS
 62
     7
 10
129.2186991704734
 20
136.4915285853694
 30
0.0
  0
VERTEX
  5
1FB
  8
1
  6
CONTINUOUS
 62
     7
 10
129.2670294983848
 20
136.4871364352722
 30
0.0
  0
VERTEX
  5
1FC
  8
1
  6
CONTINUOUS
 62
     7
 10
129.3155162337135
 20
136.4850945230945
 30
0.0
  0
SEQEND
  5
386
  8
1
  6
CONTINUOUS
 62
     7
  0
POLYLINE
  5
102
  8
1
  6
CONTINUOUS
 62
     7
 66
     1
 10
0.0
 20
0.0
 30
0.0
  0
VERTEX
  5
1FD
  8
1
  6
CONTINUOUS
 62
     7
 10
157.3511504329532
 20
136.4850945230945
 30
0.0
  0
VERTEX
  5
1FE
  8
1
  6
CONTINUOUS
 62
     7
 10
157.3996371682819
 20
136.4871364352722
 30
0.0
  0
VERTEX
  5
1FF
  8
1
  6
CONTINUOUS
 62
     7
 10
157.4479674961933
 20
136.4915285853694
 30
0.0
  0
VERTEX
  5
200
  8
1
  6
CONTINUOUS
 62
     7
 10
157.4960275972377
 20
136.4982605887546
 30
0.0
  0
VERTEX
  5
201
  8
1
  6
CONTINUOUS
 62
     7
 10
157.5437042913458
 20
136.5073165483966
 30
0.0
  0
VERTEX
  5
202
  8
1
  6
CONTINUOUS
 62
     7
 10
157.590885304338
 20
136.5186750925315
 30
0.0
  0
VERTEX
  5
203
  8
1
  6
CONTINUOUS
 62
     7
 10
157.6374595322928
 20
136.5323094252318
 30
0.0
  0
VERTEX
  5
204
  8
1
  6
CONTINUOUS
 62
     7
 10
157.6833173031462
 20
136.5481873897565
 30
0.0
  0
VERTEX
  5
205
  8
1
  6
CONTINUOUS
 62
     7
 10
157.7283506349175
 20
136.5662715445364
 30
0.0
  0
VERTEX
  5
206
  8
1
  6
CONTINUOUS
 62
     7
 10
157.77245348988
 20
136.5865192515845
 30
0.0
  0
VERTEX
  5
207
  8
1
  6
CONTINUOUS
 62
     7
 10
157.8155220242926
 20
136.6088827772124
 30
0.0
  0
VERTEX
  5
208
  8
1
  6
CONTINUOUS
 62
     7
 10
157.8574548327664
 20
136.6333094046716
 30
0.0
  0
VERTEX
  5
209
  8
1
  6
CONTINUOUS
 62
     7
 10
157.8981531869997
 20
136.659741558584
 30
0.0
  0
VERTEX
  5
20A
  8
1
  6
CONTINUOUS
 62
     7
 10
157.9375212681646
 20
136.6881169408016
 30
0.0
  0
VERTEX
  5
20B
  8
1
  6
CONTINUOUS
 62
     7
 10
157.9754663924293
 20
136.7183686773888
 30
0.0
  0
VERTEX
  5
20C
  8
1
  6
CONTINUOUS
 62
     7
 10
158.0118992290906
 20
136.7504254763816
 30
0.0
  0
VERTEX
  5
20D
  8
1
  6
CONTINUOUS
 62
     7
 10
158.0467340108009
 20
136.7842117959486
 30
0.0
  0
VERTEX
  5
20E
  8
1
  6
CONTINUOUS
 62
     7
 10
158.079888735395
 20
136.8196480225614
 30
0.0
  0
VERTEX
  5
20F
  8
1
  6
CONTINUOUS
 62
     7
 10
158.1112853588402
 20
136.8566506587457
 30
0.0
  0
VERTEX
  5
210
  8
1
  6
CONTINUOUS
 62
     7
 10
158.1408499788613
 20
136.8951325199809
 30
0.0
  0
VERTEX
  5
211
  8
1
  6
CONTINUOUS
 62
     7
 10
158.1685130088014
 20
136.935002940273
 30
0.0
  0
VERTEX
  5
212
  8
1
  6
CONTINUOUS
 62
     7
 10
158.194209341316
 20
136.976167985923
 30
0.0
  0
VERTEX
  5
213
  8
1
  6
CONTINUOUS
 62
     7
 10
158.2178785015109
 20
137.018530676983
 30
0.0
  0
VERTEX
  5
214
  8
1
  6
CONTINUOUS
 62
     7
 10
158.2394647891676
 20
137.0619912158787
 30
0.0
  0
VERTEX
  5
215
  8
1
  6
CONTINUOUS
 62
     7
 10
158.2589174097193
 20
137.1064472226584
 30
0.0
  0
VERTEX
  5
216
  8
1
  6
CONTINUOUS
 62
     7
 10
158.2761905936714
 20
137.1517939763156
 30
0.0
  0
VERTEX
  5
217
  8
1
  6
CONTINUOUS
 62
     7
 10
158.2912437041848
 20
137.1979246616123
 30
0.0
  0
VERTEX
  5
218
  8
1
  6
CONTINUOUS
 62
     7
 10
158.3040413325713
 20
137.2447306208291
 30
0.0
  0
VERTEX
  5
219
  8
1
  6
CONTINUOUS
 62
     7
 10
158.3145533814694
 20
137.2921016098166
 30
0.0
  0
VERTEX
  5
21A
  8
1
  6
CONTINUOUS
 62
     7
 10
158.3227551355263
 20
137.3399260578297
 30
0.0
  0
VERTEX
  5
21B
  8
1
  6
CONTINUOUS
 62
     7
 10
158.3286273193884
 20
137.3880913304047
 30
0.0
  0
VERTEX
  5
21C
  8
1
  6
CONTINUOUS
 62
     7
 10
158.3321561428914
 20
137.4364839947672
 30
0.0
  0
VERTEX
  5
21D
  8
1
  6
CONTINUOUS
 62
     7
 10
158.3333333333333
 20
137.4849900870962
 30
0.0
  0
SEQEND
  5
387
  8
1
  6
CONTINUOUS
 62
     7
  0
LINE
  5
103
  8
1
  6
CONTINUOUS
 62
     7
 10
156.3327776345143
 20
136.466960881015
 30
0.0
 11
157.351167651167
 21
136.4850949635741
 31
0.0
  0
LINE
  5
104
  8
1
  6
CONTINUOUS
 62
     7
 10
157.351167651167
 20
136.4850949635741
 30
0.0
 11
157.3647173279073
 21
136.4853364322436
 31
0.0
  0
LINE
  5
105
  8
1
  6
CONTINUOUS
 62
     7
 10
129.3019493387594
 20
136.4853364322436
 30
0.0
 11
129.3154990154997
 21
136.4850949635741
 31
0.0
  0
LINE
  5
106
  8
1
  6
CONTINUOUS
 62
     7
 10
129.3154990154997
 20
136.4850949635741
 30
0.0
 11
130.3338890321524
 21
136.466960881015
 31
0.0
  0
LINE
  5
107
  8
1
  6
CONTINUOUS
 62
     7
 10
135.2552083333333
 20
130.200506415001
 30
0.0
 11
135.2552083333333
 21
130.2380064150011
 31
0.0
  0
LINE
  5
108
  8
1
  6
CONTINUOUS
 62
     7
 10
134.3286311929662
 20
130.2380064150011
 30
0.0
 11
134.3286311929662
 21
130.200506415001
 31
0.0
  0
LINE
  5
109
  8
1
  6
CONTINUOUS
 62
     7
 10
135.0370265151515
 20
130.200506415001
 30
0.0
 11
135.0370265151515
 21
130.2380064150011
 31
0.0
  0
LINE
  5
10A
  8
1
  6
CONTINUOUS
 62
     7
 10
132.4597537878788
 20
130.2380064150011
 30
0.0
 11
132.4597537878788
 21
130.200506415001
 31
0.0
  0
LINE
  5
10B
  8
1
  6
CONTINUOUS
 62
     7
 10
132.6779356060606
 20
130.200506415001
 30
0.0
 11
132.6779356060606
 21
130.2380064150011
 31
0.0
  0
POLYLINE
  5
10C
  8
1
  6
CONTINUOUS
 62
     7
 66
     1
 10
0.0
 20
0.0
 30
0.0
  0
VERTEX
  5
21E
  8
1
  6
CONTINUOUS
 62
     7
 10
130.0800368767831
 20
133.622346649033
 30
0.0
  0
VERTEX
  5
21F
  8
1
  6
CONTINUOUS
 62
     7
 10
130.0582085725304
 20
133.6216779407087
 30
0.0
  0
VERTEX
  5
220
  8
1
  6
CONTINUOUS
 62
     7
 10
130.0364219728844
 20
133.6200540847543
 30
0.0
  0
VERTEX
  5
221
  8
1
  6
CONTINUOUS
 62
     7
 10
130.0147191051615
 20
133.617478197346
 30
0.0
  0
VERTEX
  5
222
  8
1
  6
CONTINUOUS
 62
     7
 10
129.9931418553822
 20
133.6139552153748
 30
0.0
  0
VERTEX
  5
223
  8
1
  6
CONTINUOUS
 62
     7
 10
129.971731886157
 20
133.60949188696
 30
0.0
  0
VERTEX
  5
224
  8
1
  6
CONTINUOUS
 62
     7
 10
129.9509070825814
 20
133.6042012139292
 30
0.0
  0
VERTEX
  5
225
  8
1
  6
CONTINUOUS
 62
     7
 10
129.9303223525798
 20
133.5980214871323
 30
0.0
  0
VERTEX
  5
226
  8
1
  6
CONTINUOUS
 62
     7
 10
129.9100160825223
 20
133.5909641164238
 30
0.0
  0
VERTEX
  5
227
  8
1
  6
CONTINUOUS
 62
     7
 10
129.8900261532029
 20
133.5830421305286
 30
0.0
  0
VERTEX
  5
228
  8
1
  6
CONTINUOUS
 62
     7
 10
129.8700363474245
 20
133.5741028932388
 30
0.0
  0
VERTEX
  5
229
  8
1
  6
CONTINUOUS
 62
     7
 10
129.8504518450087
 20
133.5642995849048
 30
0.0
  0
VERTEX
  5
22A
  8
1
  6
CONTINUOUS
 62
     7
 10
129.8313105580339
 20
133.5536509631608
 30
0.0
  0
VERTEX
  5
22B
  8
1
  6
CONTINUOUS
 62
     7
 10
129.8126495516276
 20
133.5421774019657
 30
0.0
  0
VERTEX
  5
22C
  8
1
  6
CONTINUOUS
 62
     7
 10
129.794504971102
 20
133.5299008526207
 30
0.0
  0
VERTEX
  5
22D
  8
1
  6
CONTINUOUS
 62
     7
 10
129.7772210955575
 20
133.5170846385334
 30
0.0
  0
VERTEX
  5
22E
  8
1
  6
CONTINUOUS
 62
     7
 10
129.7605015897896
 20
133.5035401600284
 30
0.0
  0
VERTEX
  5
22F
  8
1
  6
CONTINUOUS
 62
     7
 10
129.7443777160258
 20
133.4892924108131
 30
0.0
  0
VERTEX
  5
230
  8
1
  6
CONTINUOUS
 62
     7
 10
129.7288796295214
 20
133.4743676816392
 30
0.0
  0
VERTEX
  5
231
  8
1
  6
CONTINUOUS
 62
     7
 10
129.7120645128455
 20
133.456621014813
 30
0.0
  0
VERTEX
  5
232
  8
1
  6
CONTINUOUS
 62
     7
 10
129.6961355127426
 20
133.4380780315727
 30
0.0
  0
VERTEX
  5
233
  8
1
  6
CONTINUOUS
 62
     7
 10
129.6811311216186
 20
133.418782911524
 30
0.0
  0
VERTEX
  5
234
  8
1
  6
CONTINUOUS
 62
     7
 10
129.6670876048998
 20
133.3987816253961
 30
0.0
  0
VERTEX
  5
235
  8
1
  6
CONTINUOUS
 62
     7
 10
129.6540389120687
 20
133.3781218255537
 30
0.0
  0
VERTEX
  5
236
  8
1
  6
CONTINUOUS
 62
     7
 10
129.6420165933637
 20
133.3568527325066
 30
0.0
  0
VERTEX
  5
237
  8
1
  6
CONTINUOUS
 62
     7
 10
129.6310497223525
 20
133.3350250176898
 30
0.0
  0
VERTEX
  5
238
  8
1
  6
CONTINUOUS
 62
     7
 10
129.6211648245698
 20
133.3126906827914
 30
0.0
  0
VERTEX
  5
239
  8
1
  6
CONTINUOUS
 62
     7
 10
129.6123858123968
 20
133.2899029359156
 30
0.0
  0
VERTEX
  5
23A
  8
1
  6
CONTINUOUS
 62
     7
 10
129.6047339263443
 20
133.2667160648759
 30
0.0
  0
VERTEX
  5
23B
  8
1
  6
CONTINUOUS
 62
     7
 10
129.598227682886
 20
133.2431853079192
 30
0.0
  0
VERTEX
  5
23C
  8
1
  6
CONTINUOUS
 62
     7
 10
129.5928828289703
 20
133.2193667221898
 30
0.0
  0
VERTEX
  5
23D
  8
1
  6
CONTINUOUS
 62
     7
 10
129.5887123033247
 20
133.1953170502442
 30
0.0
  0
VERTEX
  5
23E
  8
1
  6
CONTINUOUS
 62
     7
 10
129.5857262046492
 20
133.1710935849362
 30
0.0
  0
VERTEX
  5
23F
  8
1
  6
CONTINUOUS
 62
     7
 10
129.5839317667766
 20
133.1467540329921
 30
0.0
  0
VERTEX
  5
240
  8
1
  6
CONTINUOUS
 62
     7
 10
129.5833333408631
 20
133.1223563776025
 30
0.0
  0
SEQEND
  5
388
  8
1
  6
CONTINUOUS
 62
     7
  0
LINE
  5
10D
  8
1
  6
CONTINUOUS
 62
     7
 10
129.5833333333333
 20
133.1223563775806
 30
0.0
 11
129.5833333333333
 21
130.2380064150011
 31
0.0
  0
POLYLINE
  5
10E
  8
1
  6
CONTINUOUS
 62
     7
 66
     1
 10
0.0
 20
0.0
 30
0.0
  0
VERTEX
  5
241
  8
1
  6
CONTINUOUS
 62
     7
 10
157.0833333258036
 20
133.1223563776025
 30
0.0
  0
VERTEX
  5
242
  8
1
  6
CONTINUOUS
 62
     7
 10
157.0827348998901
 20
133.1467540329921
 30
0.0
  0
VERTEX
  5
243
  8
1
  6
CONTINUOUS
 62
     7
 10
157.0809404620175
 20
133.1710935849362
 30
0.0
  0
VERTEX
  5
244
  8
1
  6
CONTINUOUS
 62
     7
 10
157.0779543633419
 20
133.1953170502442
 30
0.0
  0
VERTEX
  5
245
  8
1
  6
CONTINUOUS
 62
     7
 10
157.0737838376964
 20
133.2193667221898
 30
0.0
  0
VERTEX
  5
246
  8
1
  6
CONTINUOUS
 62
     7
 10
157.0684389837807
 20
133.2431853079192
 30
0.0
  0
VERTEX
  5
247
  8
1
  6
CONTINUOUS
 62
     7
 10
157.0619327403223
 20
133.2667160648759
 30
0.0
  0
VERTEX
  5
248
  8
1
  6
CONTINUOUS
 62
     7
 10
157.0542808542699
 20
133.2899029359156
 30
0.0
  0
VERTEX
  5
249
  8
1
  6
CONTINUOUS
 62
     7
 10
157.0455018420968
 20
133.3126906827914
 30
0.0
  0
VERTEX
  5
24A
  8
1
  6
CONTINUOUS
 62
     7
 10
157.0356169443141
 20
133.3350250176898
 30
0.0
  0
VERTEX
  5
24B
  8
1
  6
CONTINUOUS
 62
     7
 10
157.024650073303
 20
133.3568527325066
 30
0.0
  0
VERTEX
  5
24C
  8
1
  6
CONTINUOUS
 62
     7
 10
157.012627754598
 20
133.3781218255537
 30
0.0
  0
VERTEX
  5
24D
  8
1
  6
CONTINUOUS
 62
     7
 10
156.9995790617669
 20
133.3987816253961
 30
0.0
  0
VERTEX
  5
24E
  8
1
  6
CONTINUOUS
 62
     7
 10
156.9855355450481
 20
133.418782911524
 30
0.0
  0
VERTEX
  5
24F
  8
1
  6
CONTINUOUS
 62
     7
 10
156.970531153924
 20
133.4380780315727
 30
0.0
  0
VERTEX
  5
250
  8
1
  6
CONTINUOUS
 62
     7
 10
156.9546021538212
 20
133.456621014813
 30
0.0
  0
VERTEX
  5
251
  8
1
  6
CONTINUOUS
 62
     7
 10
156.9377870371453
 20
133.4743676816392
 30
0.0
  0
VERTEX
  5
252
  8
1
  6
CONTINUOUS
 62
     7
 10
156.9220012852029
 20
133.4895575848112
 30
0.0
  0
VERTEX
  5
253
  8
1
  6
CONTINUOUS
 62
     7
 10
156.9055673447167
 20
133.5040451634751
 30
0.0
  0
VERTEX
  5
254
  8
1
  6
CONTINUOUS
 62
     7
 10
156.8885170782629
 20
133.5178027035123
 30
0.0
  0
VERTEX
  5
255
  8
1
  6
CONTINUOUS
 62
     7
 10
156.8708835358248
 20
133.5308038866146
 30
0.0
  0
VERTEX
  5
256
  8
1
  6
CONTINUOUS
 62
     7
 10
156.8527008897651
 20
133.5430238406222
 30
0.0
  0
VERTEX
  5
257
  8
1
  6
CONTINUOUS
 62
     7
 10
156.8343425318926
 20
133.5542425261801
 30
0.0
  0
VERTEX
  5
258
  8
1
  6
CONTINUOUS
 62
     7
 10
156.8155227840472
 20
133.5646643751122
 30
0.0
  0
VERTEX
  5
259
  8
1
  6
CONTINUOUS
 62
     7
 10
156.7962767985819
 20
133.5742701529788
 30
0.0
  0
VERTEX
  5
25A
  8
1
  6
CONTINUOUS
 62
     7
 10
156.7766405134638
 20
133.5830421305286
 30
0.0
  0
VERTEX
  5
25B
  8
1
  6
CONTINUOUS
 62
     7
 10
156.7562840888424
 20
133.5911001913583
 30
0.0
  0
VERTEX
  5
25C
  8
1
  6
CONTINUOUS
 62
     7
 10
156.7356004263305
 20
133.5982616552685
 30
0.0
  0
VERTEX
  5
25D
  8
1
  6
CONTINUOUS
 62
     7
 10
156.7146295259588
 20
133.6045128162741
 30
0.0
  0
VERTEX
  5
25E
  8
1
  6
CONTINUOUS
 62
     7
 10
156.6934119282879
 20
133.6098417091065
 30
0.0
  0
VERTEX
  5
25F
  8
1
  6
CONTINUOUS
 62
     7
 10
156.6719886348235
 20
133.6142381321313
 30
0.0
  0
VERTEX
  5
260
  8
1
  6
CONTINUOUS
 62
     7
 10
156.6507877203012
 20
133.6176402527058
 30
0.0
  0
VERTEX
  5
261
  8
1
  6
CONTINUOUS
 62
     7
 10
156.6294677932214
 20
133.620128496858
 30
0.0
  0
VERTEX
  5
262
  8
1
  6
CONTINUOUS
 62
     7
 10
156.6080685435233
 20
133.6216982642772
 30
0.0
  0
VERTEX
  5
263
  8
1
  6
CONTINUOUS
 62
     7
 10
156.5866297898835
 20
133.622346649033
 30
0.0
  0
SEQEND
  5
389
  8
1
  6
CONTINUOUS
 62
     7
  0
LINE
  5
10F
  8
1
  6
CONTINUOUS
 62
     7
 10
157.0833333333333
 20
130.2380064150011
 30
0.0
 11
157.0833333333333
 21
133.1223563775806
 31
0.0
  0
ENDBLK
  8
0
  0
BLOCK
  8
0
  2
D_FRAME_VIEW_1673
 70
     0
 10
0.0
 20
0.0
 30
0.0
  0
LINE
  5
114
  8
1
  6
CONTINUOUS
 62
     7
 10
61.13552548995392
 20
195.1579401311683
 30
0.0
 11
61.25777779434611
 21
209.1666666666667
 31
0.0
  0
LINE
  5
115
  8
1
  6
CONTINUOUS
 62
     7
 10
80.53114117671274
 20
223.175393202165
 30
0.0
 11
80.40888887232055
 21
209.1666666666667
 31
0.0
  0
LINE
  5
116
  8
1
  6
CONTINUOUS
 62
     7
 10
80.53114117671274
 20
195.1579401311683
 30
0.0
 11
80.40888887232055
 21
209.1666666666667
 31
0.0
  0
LINE
  5
117
  8
1
  6
CONTINUOUS
 62
     7
 10
61.13552548995392
 20
223.175393202165
 30
0.0
 11
61.25777779434611
 21
209.1666666666667
 31
0.0
  0
LINE
  5
118
  8
1
  6
CONTINUOUS
 62
     7
 10
59.25927291134782
 20
194.1666666666667
 30
0.0
 11
60.13556356688975
 21
194.1666666666667
 31
0.0
  0
ARC
  5
119
  8
1
  6
CONTINUOUS
 62
     7
 10
60.13556356688975
 20
195.1666666666667
 30
0.0
 40
0.9999999999999959
 50
270.0
 51
359.5000000000001
  0
LINE
  5
11A
  8
1
  6
CONTINUOUS
 62
     7
 10
82.40739375531884
 20
194.1666666666667
 30
0.0
 11
81.5311030997769
 21
194.1666666666667
 31
0.0
  0
ARC
  5
11B
  8
1
  6
CONTINUOUS
 62
     7
 10
81.5311030997769
 20
195.1666666666667
 30
0.0
 40
0.9999999999999889
 50
180.5
 51
270.0
  0
LINE
  5
11C
  8
1
  6
CONTINUOUS
 62
     7
 10
82.40739375531884
 20
224.1666666666667
 30
0.0
 11
81.5311030997769
 21
224.1666666666667
 31
0.0
  0
ARC
  5
11D
  8
1
  6
CONTINUOUS
 62
     7
 10
81.5311030997769
 20
223.1666666666667
 30
0.0
 40
0.9999999999999889
 50
90.0
 51
179.5
  0
LINE
  5
11E
  8
1
  6
CONTINUOUS
 62
     7
 10
59.25927291134782
 20
224.1666666666667
 30
0.0
 11
60.13556356688975
 21
224.1666666666667
 31
0.0
  0
ARC
  5
11F
  8
1
  6
CONTINUOUS
 62
     7
 10
60.13556356688975
 20
223.1666666666667
 30
0.0
 40
0.9999999999999959
 50
0.4999999999999834
 51
90.0
  0
LINE
  5
120
  8
1
  6
CONTINUOUS
 62
     7
 10
84.02622930598685
 20
194.1666666666667
 30
0.0
 11
82.40739375531884
 21
194.1666666666667
 31
0.0
  0
LINE
  5
121
  8
1
  6
CONTINUOUS
 62
     7
 10
57.64043736067981
 20
194.1666666666667
 30
0.0
 11
59.25927291134781
 21
194.1666666666667
 31
0.0
  0
LINE
  5
122
  8
1
  6
CONTINUOUS
 62
     7
 10
57.64043736067981
 20
224.1666666666667
 30
0.0
 11
59.25927291134781
 21
224.1666666666667
 31
0.0
  0
LINE
  5
123
  8
1
  6
CONTINUOUS
 62
     7
 10
84.02622930598685
 20
224.1666666666667
 30
0.0
 11
82.40739375531884
 21
224.1666666666667
 31
0.0
  0
LINE
  5
124
  8
1
  6
CONTINUOUS
 62
     7
 10
87.24203721126625
 20
204.9914642686215
 30
0.0
 11
85.47904145516827
 21
194.9930184889998
 31
0.0
  0
LINE
  5
125
  8
1
  6
CONTINUOUS
 62
     7
 10
54.42462945540041
 20
204.9914642686215
 30
0.0
 11
56.1876252114984
 21
194.9930184889998
 31
0.0
  0
LINE
  5
126
  8
1
  6
CONTINUOUS
 62
     7
 10
87.24203721126625
 20
213.3418690647118
 30
0.0
 11
85.47904145516827
 21
223.3403148443335
 31
0.0
  0
LINE
  5
127
  8
1
  6
CONTINUOUS
 62
     7
 10
54.42462945540041
 20
213.3418690647118
 30
0.0
 11
56.18762521149839
 21
223.3403148443335
 31
0.0
  0
ARC
  5
128
  8
1
  6
CONTINUOUS
 62
     7
 10
57.17243296451062
 20
195.1666666666667
 30
0.0
 40
0.9999999999999982
 50
190.0000000000007
 51
270.0
  0
LINE
  5
129
  8
1
  6
CONTINUOUS
 62
     7
 10
57.17243296451062
 20
194.1666666666667
 30
0.0
 11
57.45320510914688
 21
194.1666666666667
 31
0.0
  0
LINE
  5
12A
  8
1
  6
CONTINUOUS
 62
     7
 10
57.45320510914688
 20
194.1666666666667
 30
0.0
 11
57.64043736067991
 21
194.1666666666667
 31
0.0
  0
ARC
  5
12B
  8
1
  6
CONTINUOUS
 62
     7
 10
84.49423370215604
 20
195.1666666666667
 30
0.0
 40
0.9999999999999913
 50
270.0
 51
349.9999999999993
  0
LINE
  5
12C
  8
1
  6
CONTINUOUS
 62
     7
 10
84.49423370215604
 20
194.1666666666667
 30
0.0
 11
84.02622930598683
 21
194.1666666666667
 31
0.0
  0
ARC
  5
12D
  8
1
  6
CONTINUOUS
 62
     7
 10
84.49423370215604
 20
223.1666666666667
 30
0.0
 40
0.9999999999999913
 50
10.00000000000064
 51
89.99999999999999
  0
LINE
  5
12E
  8
1
  6
CONTINUOUS
 62
     7
 10
84.49423370215604
 20
224.1666666666667
 30
0.0
 11
84.02622930598683
 21
224.1666666666667
 31
0.0
  0
ARC
  5
12F
  8
1
  6
CONTINUOUS
 62
     7
 10
57.17243296451062
 20
223.1666666666667
 30
0.0
 40
0.9999999999999982
 50
90.00000000000006
 51
169.9999999999993
  0
LINE
  5
130
  8
1
  6
CONTINUOUS
 62
     7
 10
57.17243296451062
 20
224.1666666666667
 30
0.0
 11
57.45320510914688
 21
224.1666666666667
 31
0.0
  0
LINE
  5
131
  8
1
  6
CONTINUOUS
 62
     7
 10
57.45320510914688
 20
224.1666666666667
 30
0.0
 11
57.64043736067991
 21
224.1666666666667
 31
0.0
  0
LINE
  5
132
  8
1
  6
CONTINUOUS
 62
     7
 10
62.21111910587697
 20
194.1666666666667
 30
0.0
 11
60.21034634297602
 21
194.1666666666667
 31
0.0
  0
POLYLINE
  5
133
  8
1
  6
CONTINUOUS
 62
     7
 66
     1
 10
0.0
 20
0.0
 30
0.0
  0
VERTEX
  5
266
  8
1
  6
CONTINUOUS
 62
     7
 10
63.01553791307922
 20
194.5726040583316
 30
0.0
  0
VERTEX
  5
267
  8
1
  6
CONTINUOUS
 62
     7
 10
63.00038425711582
 20
194.5526142094286
 30
0.0
  0
VERTEX
  5
268
  8
1
  6
CONTINUOUS
 62
     7
 10
62.98484043946606
 20
194.5331405835816
 30
0.0
  0
VERTEX
  5
269
  8
1
  6
CONTINUOUS
 62
     7
 10
62.95256853184613
 20
194.4956579120813
 30
0.0
  0
VERTEX
  5
26A
  8
1
  6
CONTINUOUS
 62
     7
 10
62.91868413415205
 20
194.4600184297326
 30
0.0
  0
VERTEX
  5
26B
  8
1
  6
CONTINUOUS
 62
     7
 10
62.88349788646438
 20
194.4264594150028
 30
0.0
  0
VERTEX
  5
26C
  8
1
  6
CONTINUOUS
 62
     7
 10
62.84826087682413
 20
194.3959205017606
 30
0.0
  0
VERTEX
  5
26D
  8
1
  6
CONTINUOUS
 62
     7
 10
62.81212186510731
 20
194.367419718973
 30
0.0
  0
VERTEX
  5
26E
  8
1
  6
CONTINUOUS
 62
     7
 10
62.77490736671206
 20
194.3407476184763
 30
0.0
  0
VERTEX
  5
26F
  8
1
  6
CONTINUOUS
 62
     7
 10
62.73699631634233
 20
194.3161061693984
 30
0.0
  0
VERTEX
  5
270
  8
1
  6
CONTINUOUS
 62
     7
 10
62.69765531553915
 20
194.2930064853071
 30
0.0
  0
VERTEX
  5
271
  8
1
  6
CONTINUOUS
 62
     7
 10
62.65778658445148
 20
194.2719666255445
 30
0.0
  0
VERTEX
  5
272
  8
1
  6
CONTINUOUS
 62
     7
 10
62.61722835541595
 20
194.2528422951133
 30
0.0
  0
VERTEX
  5
273
  8
1
  6
CONTINUOUS
 62
     7
 10
62.5763093328576
 20
194.2357337485045
 30
0.0
  0
VERTEX
  5
274
  8
1
  6
CONTINUOUS
 62
     7
 10
62.53162408169785
 20
194.2194199880747
 30
0.0
  0
VERTEX
  5
275
  8
1
  6
CONTINUOUS
 62
     7
 10
62.48669426280893
 20
194.2053871376628
 30
0.0
  0
VERTEX
  5
276
  8
1
  6
CONTINUOUS
 62
     7
 10
62.44133993870501
 20
194.1935283633304
 30
0.0
  0
VERTEX
  5
277
  8
1
  6
CONTINUOUS
 62
     7
 10
62.39589739607694
 20
194.1838864351442
 30
0.0
  0
VERTEX
  5
278
  8
1
  6
CONTINUOUS
 62
     7
 10
62.34968254600481
 20
194.1763131875326
 30
0.0
  0
VERTEX
  5
279
  8
1
  6
CONTINUOUS
 62
     7
 10
62.30351655592523
 20
194.1709444608157
 30
0.0
  0
VERTEX
  5
27A
  8
1
  6
CONTINUOUS
 62
     7
 10
62.25723217648919
 20
194.1677304961927
 30
0.0
  0
VERTEX
  5
27B
  8
1
  6
CONTINUOUS
 62
     7
 10
62.21111910587697
 20
194.1666666666667
 30
0.0
  0
SEQEND
  5
38A
  8
1
  6
CONTINUOUS
 62
     7
  0
LINE
  5
134
  8
1
  6
CONTINUOUS
 62
     7
 10
79.45554756078968
 20
194.1666666666667
 30
0.0
 11
81.45632032369065
 21
194.1666666666667
 31
0.0
  0
POLYLINE
  5
135
  8
1
  6
CONTINUOUS
 62
     7
 66
     1
 10
0.0
 20
0.0
 30
0.0
  0
VERTEX
  5
27C
  8
1
  6
CONTINUOUS
 62
     7
 10
78.65112875358744
 20
194.5726040583316
 30
0.0
  0
VERTEX
  5
27D
  8
1
  6
CONTINUOUS
 62
     7
 10
78.68186987872805
 20
194.5330884579016
 30
0.0
  0
VERTEX
  5
27E
  8
1
  6
CONTINUOUS
 62
     7
 10
78.71409813482052
 20
194.4956579120813
 30
0.0
  0
VERTEX
  5
27F
  8
1
  6
CONTINUOUS
 62
     7
 10
78.74802469115566
 20
194.4599770104342
 30
0.0
  0
VERTEX
  5
280
  8
1
  6
CONTINUOUS
 62
     7
 10
78.78316878020227
 20
194.4264594150028
 30
0.0
  0
VERTEX
  5
281
  8
1
  6
CONTINUOUS
 62
     7
 10
78.81852425394764
 20
194.3958256122762
 30
0.0
  0
VERTEX
  5
282
  8
1
  6
CONTINUOUS
 62
     7
 10
78.85482169635605
 20
194.3672177305218
 30
0.0
  0
VERTEX
  5
283
  8
1
  6
CONTINUOUS
 62
     7
 10
78.89191807321811
 20
194.3406423796067
 30
0.0
  0
VERTEX
  5
284
  8
1
  6
CONTINUOUS
 62
     7
 10
78.92967035032433
 20
194.3161061693984
 30
0.0
  0
VERTEX
  5
285
  8
1
  6
CONTINUOUS
 62
     7
 10
78.98239688422092
 20
194.2856875714215
 30
0.0
  0
VERTEX
  5
286
  8
1
  6
CONTINUOUS
 62
     7
 10
79.03605146549158
 20
194.2589120198191
 30
0.0
  0
VERTEX
  5
287
  8
1
  6
CONTINUOUS
 62
     7
 10
79.09035733380907
 20
194.2357337485045
 30
0.0
  0
VERTEX
  5
288
  8
1
  6
CONTINUOUS
 62
     7
 10
79.15015464807888
 20
194.2144418242094
 30
0.0
  0
VERTEX
  5
289
  8
1
  6
CONTINUOUS
 62
     7
 10
79.21037994411941
 20
194.197187660475
 30
0.0
  0
VERTEX
  5
28A
  8
1
  6
CONTINUOUS
 62
     7
 10
79.27076927058972
 20
194.1838864351442
 30
0.0
  0
VERTEX
  5
28B
  8
1
  6
CONTINUOUS
 62
     7
 10
79.33252209956163
 20
194.1742639713448
 30
0.0
  0
VERTEX
  5
28C
  8
1
  6
CONTINUOUS
 62
     7
 10
79.39418535814401
 20
194.1685520113971
 30
0.0
  0
VERTEX
  5
28D
  8
1
  6
CONTINUOUS
 62
     7
 10
79.45554756078968
 20
194.1666666666667
 30
0.0
  0
SEQEND
  5
38B
  8
1
  6
CONTINUOUS
 62
     7
  0
LINE
  5
136
  8
1
  6
CONTINUOUS
 62
     7
 10
79.45554756078968
 20
224.1666666666667
 30
0.0
 11
81.45632032369065
 21
224.1666666666667
 31
0.0
  0
POLYLINE
  5
137
  8
1
  6
CONTINUOUS
 62
     7
 66
     1
 10
0.0
 20
0.0
 30
0.0
  0
VERTEX
  5
28E
  8
1
  6
CONTINUOUS
 62
     7
 10
78.65112875358744
 20
223.7607292750017
 30
0.0
  0
VERTEX
  5
28F
  8
1
  6
CONTINUOUS
 62
     7
 10
78.68186987872805
 20
223.8002448754318
 30
0.0
  0
VERTEX
  5
290
  8
1
  6
CONTINUOUS
 62
     7
 10
78.71409813482052
 20
223.837675421252
 30
0.0
  0
VERTEX
  5
291
  8
1
  6
CONTINUOUS
 62
     7
 10
78.74802469115566
 20
223.8733563228991
 30
0.0
  0
VERTEX
  5
292
  8
1
  6
CONTINUOUS
 62
     7
 10
78.78316878020227
 20
223.9068739183305
 30
0.0
  0
VERTEX
  5
293
  8
1
  6
CONTINUOUS
 62
     7
 10
78.81852425394764
 20
223.9375077210571
 30
0.0
  0
VERTEX
  5
294
  8
1
  6
CONTINUOUS
 62
     7
 10
78.85482169635605
 20
223.9661156028116
 30
0.0
  0
VERTEX
  5
295
  8
1
  6
CONTINUOUS
 62
     7
 10
78.89191807321811
 20
223.9926909537266
 30
0.0
  0
VERTEX
  5
296
  8
1
  6
CONTINUOUS
 62
     7
 10
78.92967035032433
 20
224.0172271639349
 30
0.0
  0
VERTEX
  5
297
  8
1
  6
CONTINUOUS
 62
     7
 10
78.98239688422092
 20
224.0476457619118
 30
0.0
  0
VERTEX
  5
298
  8
1
  6
CONTINUOUS
 62
     7
 10
79.03605146549158
 20
224.0744213135142
 30
0.0
  0
VERTEX
  5
299
  8
1
  6
CONTINUOUS
 62
     7
 10
79.09035733380907
 20
224.0975995848288
 30
0.0
  0
VERTEX
  5
29A
  8
1
  6
CONTINUOUS
 62
     7
 10
79.15015464807888
 20
224.1188915091239
 30
0.0
  0
VERTEX
  5
29B
  8
1
  6
CONTINUOUS
 62
     7
 10
79.21037994411941
 20
224.1361456728583
 30
0.0
  0
VERTEX
  5
29C
  8
1
  6
CONTINUOUS
 62
     7
 10
79.27076927058972
 20
224.1494468981891
 30
0.0
  0
VERTEX
  5
29D
  8
1
  6
CONTINUOUS
 62
     7
 10
79.33252209956163
 20
224.1590693619885
 30
0.0
  0
VERTEX
  5
29E
  8
1
  6
CONTINUOUS
 62
     7
 10
79.39418535814401
 20
224.1647813219362
 30
0.0
  0
VERTEX
  5
29F
  8
1
  6
CONTINUOUS
 62
     7
 10
79.45554756078968
 20
224.1666666666667
 30
0.0
  0
SEQEND
  5
38C
  8
1
  6
CONTINUOUS
 62
     7
  0
LINE
  5
138
  8
1
  6
CONTINUOUS
 62
     7
 10
62.21111910587697
 20
224.1666666666667
 30
0.0
 11
60.21034634297602
 21
224.1666666666667
 31
0.0
  0
POLYLINE
  5
139
  8
1
  6
CONTINUOUS
 62
     7
 66
     1
 10
0.0
 20
0.0
 30
0.0
  0
VERTEX
  5
2A0
  8
1
  6
CONTINUOUS
 62
     7
 10
63.01553791307922
 20
223.7607292750017
 30
0.0
  0
VERTEX
  5
2A1
  8
1
  6
CONTINUOUS
 62
     7
 10
63.00038425711582
 20
223.7807191239047
 30
0.0
  0
VERTEX
  5
2A2
  8
1
  6
CONTINUOUS
 62
     7
 10
62.98484043946606
 20
223.8001927497518
 30
0.0
  0
VERTEX
  5
2A3
  8
1
  6
CONTINUOUS
 62
     7
 10
62.95256853184613
 20
223.837675421252
 30
0.0
  0
VERTEX
  5
2A4
  8
1
  6
CONTINUOUS
 62
     7
 10
62.91868413415205
 20
223.8733149036008
 30
0.0
  0
VERTEX
  5
2A5
  8
1
  6
CONTINUOUS
 62
     7
 10
62.88349788646438
 20
223.9068739183305
 30
0.0
  0
VERTEX
  5
2A6
  8
1
  6
CONTINUOUS
 62
     7
 10
62.84826087682413
 20
223.9374128315727
 30
0.0
  0
VERTEX
  5
2A7
  8
1
  6
CONTINUOUS
 62
     7
 10
62.81212186510731
 20
223.9659136143603
 30
0.0
  0
VERTEX
  5
2A8
  8
1
  6
CONTINUOUS
 62
     7
 10
62.77490736671206
 20
223.992585714857
 30
0.0
  0
VERTEX
  5
2A9
  8
1
  6
CONTINUOUS
 62
     7
 10
62.73699631634233
 20
224.0172271639349
 30
0.0
  0
VERTEX
  5
2AA
  8
1
  6
CONTINUOUS
 62
     7
 10
62.69765531553915
 20
224.0403268480262
 30
0.0
  0
VERTEX
  5
2AB
  8
1
  6
CONTINUOUS
 62
     7
 10
62.65778658445148
 20
224.0613667077888
 30
0.0
  0
VERTEX
  5
2AC
  8
1
  6
CONTINUOUS
 62
     7
 10
62.61722835541595
 20
224.08049103822
 30
0.0
  0
VERTEX
  5
2AD
  8
1
  6
CONTINUOUS
 62
     7
 10
62.5763093328576
 20
224.0975995848288
 30
0.0
  0
VERTEX
  5
2AE
  8
1
  6
CONTINUOUS
 62
     7
 10
62.53162408169785
 20
224.1139133452586
 30
0.0
  0
VERTEX
  5
2AF
  8
1
  6
CONTINUOUS
 62
     7
 10
62.48669426280893
 20
224.1279461956705
 30
0.0
  0
VERTEX
  5
2B0
  8
1
  6
CONTINUOUS
 62
     7
 10
62.44133993870501
 20
224.139804970003
 30
0.0
  0
VERTEX
  5
2B1
  8
1
  6
CONTINUOUS
 62
     7
 10
62.39589739607694
 20
224.1494468981891
 30
0.0
  0
VERTEX
  5
2B2
  8
1
  6
CONTINUOUS
 62
     7
 10
62.34968254600481
 20
224.1570201458007
 30
0.0
  0
VERTEX
  5
2B3
  8
1
  6
CONTINUOUS
 62
     7
 10
62.30351655592523
 20
224.1623888725176
 30
0.0
  0
VERTEX
  5
2B4
  8
1
  6
CONTINUOUS
 62
     7
 10
62.25723217648919
 20
224.1656028371406
 30
0.0
  0
VERTEX
  5
2B5
  8
1
  6
CONTINUOUS
 62
     7
 10
62.21111910587697
 20
224.1666666666667
 30
0.0
  0
SEQEND
  5
38D
  8
1
  6
CONTINUOUS
 62
     7
  0
LINE
  5
13A
  8
1
  6
CONTINUOUS
 62
     7
 10
78.45558563772552
 20
195.1579401311683
 30
0.0
 11
78.33333333333333
 21
209.1666666666667
 31
0.0
  0
LINE
  5
13B
  8
1
  6
CONTINUOUS
 62
     7
 10
78.65112875358744
 20
194.5726040583316
 30
0.0
 11
78.45558563772552
 21
195.1579401311683
 31
0.0
  0
LINE
  5
13C
  8
1
  6
CONTINUOUS
 62
     7
 10
63.21108102894114
 20
195.1579401311683
 30
0.0
 11
63.33333333333334
 21
209.1666666666667
 31
0.0
  0
LINE
  5
13D
  8
1
  6
CONTINUOUS
 62
     7
 10
63.01553791307922
 20
194.5726040583316
 30
0.0
 11
63.21108102894114
 21
195.1579401311683
 31
0.0
  0
LINE
  5
13E
  8
1
  6
CONTINUOUS
 62
     7
 10
63.21108102894114
 20
223.175393202165
 30
0.0
 11
63.33333333333334
 21
209.1666666666667
 31
0.0
  0
LINE
  5
13F
  8
1
  6
CONTINUOUS
 62
     7
 10
63.01553791307922
 20
223.7607292750017
 30
0.0
 11
63.21108102894114
 21
223.175393202165
 31
0.0
  0
LINE
  5
140
  8
1
  6
CONTINUOUS
 62
     7
 10
78.45558563772552
 20
223.175393202165
 30
0.0
 11
78.33333333333333
 21
209.1666666666667
 31
0.0
  0
LINE
  5
141
  8
1
  6
CONTINUOUS
 62
     7
 10
78.65112875358744
 20
223.7607292750017
 30
0.0
 11
78.45558563772552
 21
223.175393202165
 31
0.0
  0
LINE
  5
142
  8
1
  6
CONTINUOUS
 62
     7
 10
63.21940284866026
 20
196.1666666666667
 30
0.0
 11
65.2241332544164
 21
196.1666666666667
 31
0.0
  0
LINE
  5
143
  8
1
  6
CONTINUOUS
 62
     7
 10
76.44253341225026
 20
222.1666666666667
 30
0.0
 11
78.4472638180064
 21
222.1666666666667
 31
0.0
  0
LINE
  5
144
  8
1
  6
CONTINUOUS
 62
     7
 10
63.21940284866026
 20
222.1666666666667
 30
0.0
 11
65.2241332544164
 21
222.1666666666667
 31
0.0
  0
LINE
  5
145
  8
1
  6
CONTINUOUS
 62
     7
 10
76.44253341225026
 20
196.1666666666667
 30
0.0
 11
78.4472638180064
 21
196.1666666666667
 31
0.0
  0
ARC
  5
146
  8
1
  6
CONTINUOUS
 62
     7
 10
70.83333333333333
 20
209.1668737755973
 30
0.0
 40
2.719455978505391
 50
359.9956364553198
 51
36.03482069283837
  0
LINE
  5
147
  8
1
  6
CONTINUOUS
 62
     7
 10
68.63421908058002
 20
210.7666666666667
 30
0.0
 11
73.03244758608665
 21
210.7666666666667
 31
0.0
  0
ARC
  5
148
  8
1
  6
CONTINUOUS
 62
     7
 10
70.83333333333333
 20
209.1668737755973
 30
0.0
 40
2.719455978505391
 50
143.9651793071615
 51
180.0043641881918
  0
ARC
  5
149
  8
1
  6
CONTINUOUS
 62
     7
 10
70.83333333333333
 20
209.1664595577361
 30
0.0
 40
2.719455978505391
 50
323.965179307161
 51
0.0043635446802455
  0
ARC
  5
14A
  8
1
  6
CONTINUOUS
 62
     7
 10
70.83333333333333
 20
209.1664595577361
 30
0.0
 40
2.719455978505391
 50
179.9956358118081
 51
216.034820692839
  0
LINE
  5
14B
  8
1
  6
CONTINUOUS
 62
     7
 10
68.63421908058002
 20
207.5666666666666
 30
0.0
 11
73.03244758608663
 21
207.5666666666666
 31
0.0
  0
POLYLINE
  5
14C
  8
1
  6
CONTINUOUS
 62
     7
 66
     1
 10
0.0
 20
0.0
 30
0.0
  0
VERTEX
  5
2B6
  8
1
  6
CONTINUOUS
 62
     7
 10
69.68768940959437
 20
222.1666666666667
 30
0.0
  0
VERTEX
  5
2B7
  8
1
  6
CONTINUOUS
 62
     7
 10
69.7118316747246
 20
222.1672498557418
 30
0.0
  0
VERTEX
  5
2B8
  8
1
  6
CONTINUOUS
 62
     7
 10
69.73591762183376
 20
222.1689980625291
 30
0.0
  0
VERTEX
  5
2B9
  8
1
  6
CONTINUOUS
 62
     7
 10
69.75989106427694
 20
222.1719072088883
 30
0.0
  0
VERTEX
  5
2BA
  8
1
  6
CONTINUOUS
 62
     7
 10
69.78369607785528
 20
222.1759705084899
 30
0.0
  0
VERTEX
  5
2BB
  8
1
  6
CONTINUOUS
 62
     7
 10
69.80727713127334
 20
222.181178482646
 30
0.0
  0
VERTEX
  5
2BC
  8
1
  6
CONTINUOUS
 62
     7
 10
69.83057921568019
 20
222.1875189824223
 30
0.0
  0
VERTEX
  5
2BD
  8
1
  6
CONTINUOUS
 62
     7
 10
69.8535479729916
 20
222.1949772169778
 30
0.0
  0
VERTEX
  5
2BE
  8
1
  6
CONTINUOUS
 62
     7
 10
69.8761298226943
 20
222.2035357880689
 30
0.0
  0
VERTEX
  5
2BF
  8
1
  6
CONTINUOUS
 62
     7
 10
69.89827208683604
 20
222.213174730635
 30
0.0
  0
VERTEX
  5
2C0
  8
1
  6
CONTINUOUS
 62
     7
 10
69.91992311291071
 20
222.2238715593721
 30
0.0
  0
VERTEX
  5
2C1
  8
1
  6
CONTINUOUS
 62
     7
 10
69.94103239435076
 20
222.2356013211856
 30
0.0
  0
VERTEX
  5
2C2
  8
1
  6
CONTINUOUS
 62
     7
 10
69.96155068834696
 20
222.2483366533996
 30
0.0
  0
VERTEX
  5
2C3
  8
1
  6
CONTINUOUS
 62
     7
 10
69.98143013071969
 20
222.2620478475878
 30
0.0
  0
VERTEX
  5
2C4
  8
1
  6
CONTINUOUS
 62
     7
 10
70.0006243475745
 20
222.2767029188754
 30
0.0
  0
VERTEX
  5
2C5
  8
1
  6
CONTINUOUS
 62
     7
 10
70.01908856348112
 20
222.2922676805527
 30
0.0
  0
VERTEX
  5
2C6
  8
1
  6
CONTINUOUS
 62
     7
 10
70.03677970592354
 20
222.3087058238237
 30
0.0
  0
VERTEX
  5
2C7
  8
1
  6
CONTINUOUS
 62
     7
 10
70.05365650577774
 20
222.3259790025062
 30
0.0
  0
VERTEX
  5
2C8
  8
1
  6
CONTINUOUS
 62
     7
 10
70.06967959358258
 20
222.3440469224837
 30
0.0
  0
VERTEX
  5
2C9
  8
1
  6
CONTINUOUS
 62
     7
 10
70.08481159137901
 20
222.3628674357022
 30
0.0
  0
VERTEX
  5
2CA
  8
1
  6
CONTINUOUS
 62
     7
 10
70.09901719990381
 20
222.3823966384907
 30
0.0
  0
VERTEX
  5
2CB
  8
1
  6
CONTINUOUS
 62
     7
 10
70.11226328093423
 20
222.4025889739785
 30
0.0
  0
VERTEX
  5
2CC
  8
1
  6
CONTINUOUS
 62
     7
 10
70.12451893459126
 20
222.4233973383678
 30
0.0
  0
VERTEX
  5
2CD
  8
1
  6
CONTINUOUS
 62
     7
 10
70.13575557142163
 20
222.4447731908153
 30
0.0
  0
VERTEX
  5
2CE
  8
1
  6
CONTINUOUS
 62
     7
 10
70.14594697908994
 20
222.4666666666667
 30
0.0
  0
SEQEND
  5
38E
  8
1
  6
CONTINUOUS
 62
     7
  0
POLYLINE
  5
14D
  8
1
  6
CONTINUOUS
 62
     7
 66
     1
 10
0.0
 20
0.0
 30
0.0
  0
VERTEX
  5
2CF
  8
1
  6
CONTINUOUS
 62
     7
 10
69.68768940959437
 20
196.1666666666667
 30
0.0
  0
VERTEX
  5
2D0
  8
1
  6
CONTINUOUS
 62
     7
 10
69.7118316747246
 20
196.1660834775915
 30
0.0
  0
VERTEX
  5
2D1
  8
1
  6
CONTINUOUS
 62
     7
 10
69.73591762183376
 20
196.1643352708042
 30
0.0
  0
VERTEX
  5
2D2
  8
1
  6
CONTINUOUS
 62
     7
 10
69.75989106427694
 20
196.161426124445
 30
0.0
  0
VERTEX
  5
2D3
  8
1
  6
CONTINUOUS
 62
     7
 10
69.78369607785528
 20
196.1573628248434
 30
0.0
  0
VERTEX
  5
2D4
  8
1
  6
CONTINUOUS
 62
     7
 10
69.80727713127334
 20
196.1521548506873
 30
0.0
  0
VERTEX
  5
2D5
  8
1
  6
CONTINUOUS
 62
     7
 10
69.83057921568019
 20
196.1458143509111
 30
0.0
  0
VERTEX
  5
2D6
  8
1
  6
CONTINUOUS
 62
     7
 10
69.8535479729916
 20
196.1383561163555
 30
0.0
  0
VERTEX
  5
2D7
  8
1
  6
CONTINUOUS
 62
     7
 10
69.8761298226943
 20
196.1297975452644
 30
0.0
  0
VERTEX
  5
2D8
  8
1
  6
CONTINUOUS
 62
     7
 10
69.89827208683604
 20
196.1201586026983
 30
0.0
  0
VERTEX
  5
2D9
  8
1
  6
CONTINUOUS
 62
     7
 10
69.91992311291071
 20
196.1094617739612
 30
0.0
  0
VERTEX
  5
2DA
  8
1
  6
CONTINUOUS
 62
     7
 10
69.94103239435076
 20
196.0977320121478
 30
0.0
  0
VERTEX
  5
2DB
  8
1
  6
CONTINUOUS
 62
     7
 10
69.96155068834696
 20
196.0849966799337
 30
0.0
  0
VERTEX
  5
2DC
  8
1
  6
CONTINUOUS
 62
     7
 10
69.98143013071969
 20
196.0712854857455
 30
0.0
  0
VERTEX
  5
2DD
  8
1
  6
CONTINUOUS
 62
     7
 10
70.0006243475745
 20
196.0566304144579
 30
0.0
  0
VERTEX
  5
2DE
  8
1
  6
CONTINUOUS
 62
     7
 10
70.01908856348112
 20
196.0410656527806
 30
0.0
  0
VERTEX
  5
2DF
  8
1
  6
CONTINUOUS
 62
     7
 10
70.03677970592354
 20
196.0246275095096
 30
0.0
  0
VERTEX
  5
2E0
  8
1
  6
CONTINUOUS
 62
     7
 10
70.05365650577774
 20
196.0073543308271
 30
0.0
  0
VERTEX
  5
2E1
  8
1
  6
CONTINUOUS
 62
     7
 10
70.06967959358258
 20
195.9892864108496
 30
0.0
  0
VERTEX
  5
2E2
  8
1
  6
CONTINUOUS
 62
     7
 10
70.08481159137901
 20
195.9704658976311
 30
0.0
  0
VERTEX
  5
2E3
  8
1
  6
CONTINUOUS
 62
     7
 10
70.09901719990381
 20
195.9509366948426
 30
0.0
  0
VERTEX
  5
2E4
  8
1
  6
CONTINUOUS
 62
     7
 10
70.11226328093423
 20
195.9307443593548
 30
0.0
  0
VERTEX
  5
2E5
  8
1
  6
CONTINUOUS
 62
     7
 10
70.12451893459126
 20
195.9099359949656
 30
0.0
  0
VERTEX
  5
2E6
  8
1
  6
CONTINUOUS
 62
     7
 10
70.13575557142163
 20
195.888560142518
 30
0.0
  0
VERTEX
  5
2E7
  8
1
  6
CONTINUOUS
 62
     7
 10
70.14594697908994
 20
195.8666666666666
 30
0.0
  0
SEQEND
  5
38F
  8
1
  6
CONTINUOUS
 62
     7
  0
POLYLINE
  5
14E
  8
1
  6
CONTINUOUS
 62
     7
 66
     1
 10
0.0
 20
0.0
 30
0.0
  0
VERTEX
  5
2E8
  8
1
  6
CONTINUOUS
 62
     7
 10
71.52071968757672
 20
195.8666666666666
 30
0.0
  0
VERTEX
  5
2E9
  8
1
  6
CONTINUOUS
 62
     7
 10
71.53091109524503
 20
195.888560142518
 30
0.0
  0
VERTEX
  5
2EA
  8
1
  6
CONTINUOUS
 62
     7
 10
71.54214773207539
 20
195.9099359949656
 30
0.0
  0
VERTEX
  5
2EB
  8
1
  6
CONTINUOUS
 62
     7
 10
71.55440338573243
 20
195.9307443593548
 30
0.0
  0
VERTEX
  5
2EC
  8
1
  6
CONTINUOUS
 62
     7
 10
71.56764946676284
 20
195.9509366948426
 30
0.0
  0
VERTEX
  5
2ED
  8
1
  6
CONTINUOUS
 62
     7
 10
71.58185507528765
 20
195.9704658976311
 30
0.0
  0
VERTEX
  5
2EE
  8
1
  6
CONTINUOUS
 62
     7
 10
71.59698707308408
 20
195.9892864108496
 30
0.0
  0
VERTEX
  5
2EF
  8
1
  6
CONTINUOUS
 62
     7
 10
71.61301016088892
 20
196.0073543308271
 30
0.0
  0
VERTEX
  5
2F0
  8
1
  6
CONTINUOUS
 62
     7
 10
71.62988696074312
 20
196.0246275095096
 30
0.0
  0
VERTEX
  5
2F1
  8
1
  6
CONTINUOUS
 62
     7
 10
71.64757810318555
 20
196.0410656527806
 30
0.0
  0
VERTEX
  5
2F2
  8
1
  6
CONTINUOUS
 62
     7
 10
71.66604231909216
 20
196.0566304144579
 30
0.0
  0
VERTEX
  5
2F3
  8
1
  6
CONTINUOUS
 62
     7
 10
71.68523653594698
 20
196.0712854857455
 30
0.0
  0
VERTEX
  5
2F4
  8
1
  6
CONTINUOUS
 62
     7
 10
71.7051159783197
 20
196.0849966799337
 30
0.0
  0
VERTEX
  5
2F5
  8
1
  6
CONTINUOUS
 62
     7
 10
71.7256342723159
 20
196.0977320121478
 30
0.0
  0
VERTEX
  5
2F6
  8
1
  6
CONTINUOUS
 62
     7
 10
71.74674355375596
 20
196.1094617739612
 30
0.0
  0
VERTEX
  5
2F7
  8
1
  6
CONTINUOUS
 62
     7
 10
71.76839457983061
 20
196.1201586026983
 30
0.0
  0
VERTEX
  5
2F8
  8
1
  6
CONTINUOUS
 62
     7
 10
71.79053684397238
 20
196.1297975452644
 30
0.0
  0
VERTEX
  5
2F9
  8
1
  6
CONTINUOUS
 62
     7
 10
71.81311869367505
 20
196.1383561163555
 30
0.0
  0
VERTEX
  5
2FA
  8
1
  6
CONTINUOUS
 62
     7
 10
71.83608745098647
 20
196.1458143509111
 30
0.0
  0
VERTEX
  5
2FB
  8
1
  6
CONTINUOUS
 62
     7
 10
71.85938953539333
 20
196.1521548506873
 30
0.0
  0
VERTEX
  5
2FC
  8
1
  6
CONTINUOUS
 62
     7
 10
71.88297058881138
 20
196.1573628248434
 30
0.0
  0
VERTEX
  5
2FD
  8
1
  6
CONTINUOUS
 62
     7
 10
71.90677560238971
 20
196.161426124445
 30
0.0
  0
VERTEX
  5
2FE
  8
1
  6
CONTINUOUS
 62
     7
 10
71.93074904483291
 20
196.1643352708042
 30
0.0
  0
VERTEX
  5
2FF
  8
1
  6
CONTINUOUS
 62
     7
 10
71.95483499194205
 20
196.1660834775915
 30
0.0
  0
VERTEX
  5
300
  8
1
  6
CONTINUOUS
 62
     7
 10
71.97897725707229
 20
196.1666666666667
 30
0.0
  0
SEQEND
  5
390
  8
1
  6
CONTINUOUS
 62
     7
  0
POLYLINE
  5
14F
  8
1
  6
CONTINUOUS
 62
     7
 66
     1
 10
0.0
 20
0.0
 30
0.0
  0
VERTEX
  5
301
  8
1
  6
CONTINUOUS
 62
     7
 10
71.52071968757672
 20
222.4666666666667
 30
0.0
  0
VERTEX
  5
302
  8
1
  6
CONTINUOUS
 62
     7
 10
71.53091109524503
 20
222.4447731908153
 30
0.0
  0
VERTEX
  5
303
  8
1
  6
CONTINUOUS
 62
     7
 10
71.54214773207539
 20
222.4233973383678
 30
0.0
  0
VERTEX
  5
304
  8
1
  6
CONTINUOUS
 62
     7
 10
71.55440338573243
 20
222.4025889739785
 30
0.0
  0
VERTEX
  5
305
  8
1
  6
CONTINUOUS
 62
     7
 10
71.56764946676284
 20
222.3823966384907
 30
0.0
  0
VERTEX
  5
306
  8
1
  6
CONTINUOUS
 62
     7
 10
71.58185507528765
 20
222.3628674357022
 30
0.0
  0
VERTEX
  5
307
  8
1
  6
CONTINUOUS
 62
     7
 10
71.59698707308408
 20
222.3440469224837
 30
0.0
  0
VERTEX
  5
308
  8
1
  6
CONTINUOUS
 62
     7
 10
71.61301016088892
 20
222.3259790025062
 30
0.0
  0
VERTEX
  5
309
  8
1
  6
CONTINUOUS
 62
     7
 10
71.62988696074312
 20
222.3087058238237
 30
0.0
  0
VERTEX
  5
30A
  8
1
  6
CONTINUOUS
 62
     7
 10
71.64757810318555
 20
222.2922676805527
 30
0.0
  0
VERTEX
  5
30B
  8
1
  6
CONTINUOUS
 62
     7
 10
71.66604231909216
 20
222.2767029188754
 30
0.0
  0
VERTEX
  5
30C
  8
1
  6
CONTINUOUS
 62
     7
 10
71.68523653594698
 20
222.2620478475878
 30
0.0
  0
VERTEX
  5
30D
  8
1
  6
CONTINUOUS
 62
     7
 10
71.7051159783197
 20
222.2483366533996
 30
0.0
  0
VERTEX
  5
30E
  8
1
  6
CONTINUOUS
 62
     7
 10
71.7256342723159
 20
222.2356013211856
 30
0.0
  0
VERTEX
  5
30F
  8
1
  6
CONTINUOUS
 62
     7
 10
71.74674355375596
 20
222.2238715593721
 30
0.0
  0
VERTEX
  5
310
  8
1
  6
CONTINUOUS
 62
     7
 10
71.76839457983061
 20
222.213174730635
 30
0.0
  0
VERTEX
  5
311
  8
1
  6
CONTINUOUS
 62
     7
 10
71.79053684397238
 20
222.2035357880689
 30
0.0
  0
VERTEX
  5
312
  8
1
  6
CONTINUOUS
 62
     7
 10
71.81311869367505
 20
222.1949772169778
 30
0.0
  0
VERTEX
  5
313
  8
1
  6
CONTINUOUS
 62
     7
 10
71.83608745098647
 20
222.1875189824223
 30
0.0
  0
VERTEX
  5
314
  8
1
  6
CONTINUOUS
 62
     7
 10
71.85938953539333
 20
222.181178482646
 30
0.0
  0
VERTEX
  5
315
  8
1
  6
CONTINUOUS
 62
     7
 10
71.88297058881138
 20
222.1759705084899
 30
0.0
  0
VERTEX
  5
316
  8
1
  6
CONTINUOUS
 62
     7
 10
71.90677560238971
 20
222.1719072088883
 30
0.0
  0
VERTEX
  5
317
  8
1
  6
CONTINUOUS
 62
     7
 10
71.93074904483291
 20
222.1689980625291
 30
0.0
  0
VERTEX
  5
318
  8
1
  6
CONTINUOUS
 62
     7
 10
71.95483499194205
 20
222.1672498557418
 30
0.0
  0
VERTEX
  5
319
  8
1
  6
CONTINUOUS
 62
     7
 10
71.97897725707229
 20
222.1666666666667
 30
0.0
  0
SEQEND
  5
391
  8
1
  6
CONTINUOUS
 62
     7
  0
LINE
  5
150
  8
1
  6
CONTINUOUS
 62
     7
 10
76.44253341225026
 20
196.1666666666667
 30
0.0
 11
71.97897725707229
 21
196.1666666666667
 31
0.0
  0
LINE
  5
151
  8
1
  6
CONTINUOUS
 62
     7
 10
76.44253341225026
 20
222.1666666666667
 30
0.0
 11
71.97897725707229
 21
222.1666666666667
 31
0.0
  0
LINE
  5
152
  8
1
  6
CONTINUOUS
 62
     7
 10
69.68768940959437
 20
222.1666666666667
 30
0.0
 11
65.2241332544164
 21
222.1666666666667
 31
0.0
  0
LINE
  5
153
  8
1
  6
CONTINUOUS
 62
     7
 10
69.68768940959437
 20
196.1666666666667
 30
0.0
 11
65.2241332544164
 21
196.1666666666667
 31
0.0
  0
POLYLINE
  5
154
  8
1
  6
CONTINUOUS
 62
     7
 66
     1
 10
0.0
 20
0.0
 30
0.0
  0
VERTEX
  5
31A
  8
1
  6
CONTINUOUS
 62
     7
 10
71.52071968757672
 20
222.4666666666667
 30
0.0
  0
VERTEX
  5
31B
  8
1
  6
CONTINUOUS
 62
     7
 10
71.50543257607421
 20
222.4995068804437
 30
0.0
  0
VERTEX
  5
31C
  8
1
  6
CONTINUOUS
 62
     7
 10
71.48857762082866
 20
222.531570659115
 30
0.0
  0
VERTEX
  5
31D
  8
1
  6
CONTINUOUS
 62
     7
 10
71.47019414034311
 20
222.5627832056988
 30
0.0
  0
VERTEX
  5
31E
  8
1
  6
CONTINUOUS
 62
     7
 10
71.4503250187975
 20
222.5930717089306
 30
0.0
  0
VERTEX
  5
31F
  8
1
  6
CONTINUOUS
 62
     7
 10
71.4290166060103
 20
222.6223655131134
 30
0.0
  0
VERTEX
  5
320
  8
1
  6
CONTINUOUS
 62
     7
 10
71.40631860931565
 20
222.650596282941
 30
0.0
  0
VERTEX
  5
321
  8
1
  6
CONTINUOUS
 62
     7
 10
71.3822839776084
 20
222.6776981629073
 30
0.0
  0
VERTEX
  5
322
  8
1
  6
CONTINUOUS
 62
     7
 10
71.35696877782708
 20
222.703607930931
 30
0.0
  0
VERTEX
  5
323
  8
1
  6
CONTINUOUS
 62
     7
 10
71.33043206416345
 20
222.7282651458376
 30
0.0
  0
VERTEX
  5
324
  8
1
  6
CONTINUOUS
 62
     7
 10
71.30273574030353
 20
222.7516122883535
 30
0.0
  0
VERTEX
  5
325
  8
1
  6
CONTINUOUS
 62
     7
 10
71.2739444150213
 20
222.773594895285
 30
0.0
  0
VERTEX
  5
326
  8
1
  6
CONTINUOUS
 62
     7
 10
71.24412525146221
 20
222.7941616865672
 30
0.0
  0
VERTEX
  5
327
  8
1
  6
CONTINUOUS
 62
     7
 10
71.21334781046791
 20
222.8132646848883
 30
0.0
  0
VERTEX
  5
328
  8
1
  6
CONTINUOUS
 62
     7
 10
71.18168388830783
 20
222.8308593276085
 30
0.0
  0
VERTEX
  5
329
  8
1
  6
CONTINUOUS
 62
     7
 10
71.14920734919585
 20
222.8469045707141
 30
0.0
  0
VERTEX
  5
32A
  8
1
  6
CONTINUOUS
 62
     7
 10
71.1159939529832
 20
222.8613629845633
 30
0.0
  0
VERTEX
  5
32B
  8
1
  6
CONTINUOUS
 62
     7
 10
71.08212117842919
 20
222.8742008412
 30
0.0
  0
VERTEX
  5
32C
  8
1
  6
CONTINUOUS
 62
     7
 10
71.04766804246204
 20
222.8853881930332
 30
0.0
  0
VERTEX
  5
32D
  8
1
  6
CONTINUOUS
 62
     7
 10
71.01271491585177
 20
222.8948989426976
 30
0.0
  0
VERTEX
  5
32E
  8
1
  6
CONTINUOUS
 62
     7
 10
70.97734333572468
 20
222.9027109039318
 30
0.0
  0
VERTEX
  5
32F
  8
1
  6
CONTINUOUS
 62
     7
 10
70.9416358153572
 20
222.9088058533341
 30
0.0
  0
VERTEX
  5
330
  8
1
  6
CONTINUOUS
 62
     7
 10
70.9056756516924
 20
222.913169572873
 30
0.0
  0
VERTEX
  5
331
  8
1
  6
CONTINUOUS
 62
     7
 10
70.86954673102869
 20
222.915791883054
 30
0.0
  0
VERTEX
  5
332
  8
1
  6
CONTINUOUS
 62
     7
 10
70.83333333333331
 20
222.9166666666667
 30
0.0
  0
VERTEX
  5
333
  8
1
  6
CONTINUOUS
 62
     7
 10
70.79711993563797
 20
222.915791883054
 30
0.0
  0
VERTEX
  5
334
  8
1
  6
CONTINUOUS
 62
     7
 10
70.76099101497422
 20
222.9131695728729
 30
0.0
  0
VERTEX
  5
335
  8
1
  6
CONTINUOUS
 62
     7
 10
70.72503085130944
 20
222.9088058533341
 30
0.0
  0
VERTEX
  5
336
  8
1
  6
CONTINUOUS
 62
     7
 10
70.68932333094195
 20
222.9027109039318
 30
0.0
  0
VERTEX
  5
337
  8
1
  6
CONTINUOUS
 62
     7
 10
70.65395175081487
 20
222.8948989426976
 30
0.0
  0
VERTEX
  5
338
  8
1
  6
CONTINUOUS
 62
     7
 10
70.61899862420461
 20
222.8853881930332
 30
0.0
  0
VERTEX
  5
339
  8
1
  6
CONTINUOUS
 62
     7
 10
70.58454548823747
 20
222.8742008412
 30
0.0
  0
VERTEX
  5
33A
  8
1
  6
CONTINUOUS
 62
     7
 10
70.55067271368344
 20
222.8613629845633
 30
0.0
  0
VERTEX
  5
33B
  8
1
  6
CONTINUOUS
 62
     7
 10
70.51745931747081
 20
222.8469045707141
 30
0.0
  0
VERTEX
  5
33C
  8
1
  6
CONTINUOUS
 62
     7
 10
70.48498277835883
 20
222.8308593276085
 30
0.0
  0
VERTEX
  5
33D
  8
1
  6
CONTINUOUS
 62
     7
 10
70.45331885619873
 20
222.8132646848883
 30
0.0
  0
VERTEX
  5
33E
  8
1
  6
CONTINUOUS
 62
     7
 10
70.42254141520445
 20
222.7941616865672
 30
0.0
  0
VERTEX
  5
33F
  8
1
  6
CONTINUOUS
 62
     7
 10
70.39272225164535
 20
222.773594895285
 30
0.0
  0
VERTEX
  5
340
  8
1
  6
CONTINUOUS
 62
     7
 10
70.36393092636311
 20
222.7516122883535
 30
0.0
  0
VERTEX
  5
341
  8
1
  6
CONTINUOUS
 62
     7
 10
70.3362346025032
 20
222.7282651458376
 30
0.0
  0
VERTEX
  5
342
  8
1
  6
CONTINUOUS
 62
     7
 10
70.30969788883958
 20
222.703607930931
 30
0.0
  0
VERTEX
  5
343
  8
1
  6
CONTINUOUS
 62
     7
 10
70.28438268905825
 20
222.6776981629073
 30
0.0
  0
VERTEX
  5
344
  8
1
  6
CONTINUOUS
 62
     7
 10
70.260348057351
 20
222.650596282941
 30
0.0
  0
VERTEX
  5
345
  8
1
  6
CONTINUOUS
 62
     7
 10
70.23765006065636
 20
222.6223655131134
 30
0.0
  0
VERTEX
  5
346
  8
1
  6
CONTINUOUS
 62
     7
 10
70.21634164786914
 20
222.5930717089306
 30
0.0
  0
VERTEX
  5
347
  8
1
  6
CONTINUOUS
 62
     7
 10
70.19647252632353
 20
222.5627832056988
 30
0.0
  0
VERTEX
  5
348
  8
1
  6
CONTINUOUS
 62
     7
 10
70.178089045838
 20
222.531570659115
 30
0.0
  0
VERTEX
  5
349
  8
1
  6
CONTINUOUS
 62
     7
 10
70.16123409059246
 20
222.4995068804437
 30
0.0
  0
VERTEX
  5
34A
  8
1
  6
CONTINUOUS
 62
     7
 10
70.14594697908994
 20
222.4666666666666
 30
0.0
  0
SEQEND
  5
392
  8
1
  6
CONTINUOUS
 62
     7
  0
POLYLINE
  5
155
  8
1
  6
CONTINUOUS
 62
     7
 66
     1
 10
0.0
 20
0.0
 30
0.0
  0
VERTEX
  5
34B
  8
1
  6
CONTINUOUS
 62
     7
 10
71.52071968757672
 20
195.8666666666666
 30
0.0
  0
VERTEX
  5
34C
  8
1
  6
CONTINUOUS
 62
     7
 10
71.50543257607421
 20
195.8338264528896
 30
0.0
  0
VERTEX
  5
34D
  8
1
  6
CONTINUOUS
 62
     7
 10
71.48857762082866
 20
195.8017626742183
 30
0.0
  0
VERTEX
  5
34E
  8
1
  6
CONTINUOUS
 62
     7
 10
71.47019414034311
 20
195.7705501276345
 30
0.0
  0
VERTEX
  5
34F
  8
1
  6
CONTINUOUS
 62
     7
 10
71.4503250187975
 20
195.7402616244028
 30
0.0
  0
VERTEX
  5
350
  8
1
  6
CONTINUOUS
 62
     7
 10
71.4290166060103
 20
195.71096782022
 30
0.0
  0
VERTEX
  5
351
  8
1
  6
CONTINUOUS
 62
     7
 10
71.40631860931565
 20
195.6827370503923
 30
0.0
  0
VERTEX
  5
352
  8
1
  6
CONTINUOUS
 62
     7
 10
71.3822839776084
 20
195.655635170426
 30
0.0
  0
VERTEX
  5
353
  8
1
  6
CONTINUOUS
 62
     7
 10
71.35696877782708
 20
195.6297254024023
 30
0.0
  0
VERTEX
  5
354
  8
1
  6
CONTINUOUS
 62
     7
 10
71.33043206416345
 20
195.6050681874957
 30
0.0
  0
VERTEX
  5
355
  8
1
  6
CONTINUOUS
 62
     7
 10
71.30273574030353
 20
195.5817210449798
 30
0.0
  0
VERTEX
  5
356
  8
1
  6
CONTINUOUS
 62
     7
 10
71.2739444150213
 20
195.5597384380484
 30
0.0
  0
VERTEX
  5
357
  8
1
  6
CONTINUOUS
 62
     7
 10
71.24412525146221
 20
195.5391716467661
 30
0.0
  0
VERTEX
  5
358
  8
1
  6
CONTINUOUS
 62
     7
 10
71.21334781046791
 20
195.520068648445
 30
0.0
  0
VERTEX
  5
359
  8
1
  6
CONTINUOUS
 62
     7
 10
71.18168388830783
 20
195.5024740057248
 30
0.0
  0
VERTEX
  5
35A
  8
1
  6
CONTINUOUS
 62
     7
 10
71.14920734919585
 20
195.4864287626192
 30
0.0
  0
VERTEX
  5
35B
  8
1
  6
CONTINUOUS
 62
     7
 10
71.1159939529832
 20
195.47197034877
 30
0.0
  0
VERTEX
  5
35C
  8
1
  6
CONTINUOUS
 62
     7
 10
71.08212117842919
 20
195.4591324921333
 30
0.0
  0
VERTEX
  5
35D
  8
1
  6
CONTINUOUS
 62
     7
 10
71.04766804246204
 20
195.4479451403001
 30
0.0
  0
VERTEX
  5
35E
  8
1
  6
CONTINUOUS
 62
     7
 10
71.01271491585177
 20
195.4384343906357
 30
0.0
  0
VERTEX
  5
35F
  8
1
  6
CONTINUOUS
 62
     7
 10
70.97734333572468
 20
195.4306224294015
 30
0.0
  0
VERTEX
  5
360
  8
1
  6
CONTINUOUS
 62
     7
 10
70.9416358153572
 20
195.4245274799992
 30
0.0
  0
VERTEX
  5
361
  8
1
  6
CONTINUOUS
 62
     7
 10
70.9056756516924
 20
195.4201637604604
 30
0.0
  0
VERTEX
  5
362
  8
1
  6
CONTINUOUS
 62
     7
 10
70.86954673102869
 20
195.4175414502793
 30
0.0
  0
VERTEX
  5
363
  8
1
  6
CONTINUOUS
 62
     7
 10
70.83333333333331
 20
195.4166666666667
 30
0.0
  0
VERTEX
  5
364
  8
1
  6
CONTINUOUS
 62
     7
 10
70.79711993563797
 20
195.4175414502793
 30
0.0
  0
VERTEX
  5
365
  8
1
  6
CONTINUOUS
 62
     7
 10
70.76099101497422
 20
195.4201637604604
 30
0.0
  0
VERTEX
  5
366
  8
1
  6
CONTINUOUS
 62
     7
 10
70.72503085130944
 20
195.4245274799992
 30
0.0
  0
VERTEX
  5
367
  8
1
  6
CONTINUOUS
 62
     7
 10
70.68932333094195
 20
195.4306224294015
 30
0.0
  0
VERTEX
  5
368
  8
1
  6
CONTINUOUS
 62
     7
 10
70.65395175081487
 20
195.4384343906357
 30
0.0
  0
VERTEX
  5
369
  8
1
  6
CONTINUOUS
 62
     7
 10
70.61899862420461
 20
195.4479451403001
 30
0.0
  0
VERTEX
  5
36A
  8
1
  6
CONTINUOUS
 62
     7
 10
70.58454548823747
 20
195.4591324921333
 30
0.0
  0
VERTEX
  5
36B
  8
1
  6
CONTINUOUS
 62
     7
 10
70.55067271368344
 20
195.47197034877
 30
0.0
  0
VERTEX
  5
36C
  8
1
  6
CONTINUOUS
 62
     7
 10
70.51745931747081
 20
195.4864287626192
 30
0.0
  0
VERTEX
  5
36D
  8
1
  6
CONTINUOUS
 62
     7
 10
70.48498277835883
 20
195.5024740057248
 30
0.0
  0
VERTEX
  5
36E
  8
1
  6
CONTINUOUS
 62
     7
 10
70.45331885619873
 20
195.520068648445
 30
0.0
  0
VERTEX
  5
36F
  8
1
  6
CONTINUOUS
 62
     7
 10
70.42254141520445
 20
195.5391716467661
 30
0.0
  0
VERTEX
  5
370
  8
1
  6
CONTINUOUS
 62
     7
 10
70.39272225164535
 20
195.5597384380484
 30
0.0
  0
VERTEX
  5
371
  8
1
  6
CONTINUOUS
 62
     7
 10
70.36393092636311
 20
195.5817210449798
 30
0.0
  0
VERTEX
  5
372
  8
1
  6
CONTINUOUS
 62
     7
 10
70.3362346025032
 20
195.6050681874958
 30
0.0
  0
VERTEX
  5
373
  8
1
  6
CONTINUOUS
 62
     7
 10
70.30969788883958
 20
195.6297254024023
 30
0.0
  0
VERTEX
  5
374
  8
1
  6
CONTINUOUS
 62
     7
 10
70.28438268905825
 20
195.655635170426
 30
0.0
  0
VERTEX
  5
375
  8
1
  6
CONTINUOUS
 62
     7
 10
70.260348057351
 20
195.6827370503923
 30
0.0
  0
VERTEX
  5
376
  8
1
  6
CONTINUOUS
 62
     7
 10
70.23765006065636
 20
195.71096782022
 30
0.0
  0
VERTEX
  5
377
  8
1
  6
CONTINUOUS
 62
     7
 10
70.21634164786914
 20
195.7402616244028
 30
0.0
  0
VERTEX
  5
378
  8
1
  6
CONTINUOUS
 62
     7
 10
70.19647252632353
 20
195.7705501276345
 30
0.0
  0
VERTEX
  5
379
  8
1
  6
CONTINUOUS
 62
     7
 10
70.178089045838
 20
195.8017626742183
 30
0.0
  0
VERTEX
  5
37A
  8
1
  6
CONTINUOUS
 62
     7
 10
70.16123409059246
 20
195.8338264528896
 30
0.0
  0
VERTEX
  5
37B
  8
1
  6
CONTINUOUS
 62
     7
 10
70.14594697908994
 20
195.8666666666667
 30
0.0
  0
SEQEND
  5
393
  8
1
  6
CONTINUOUS
 62
     7
  0
LINE
  5
156
  8
1
  6
CONTINUOUS
 62
     7
 10
87.30264922938328
 20
205.6506166146033
 30
0.0
 11
87.3026538914741
 21
205.6511508372957
 31
0.0
  0
LINE
  5
157
  8
1
  6
CONTINUOUS
 62
     7
 10
87.3026538914741
 20
205.6511508372957
 30
0.0
 11
87.33333333333333
 21
209.1666666666667
 31
0.0
  0
LINE
  5
158
  8
1
  6
CONTINUOUS
 62
     7
 10
54.33333333333333
 20
209.1666666666667
 30
0.0
 11
54.36401277519256
 21
205.6511508372957
 31
0.0
  0
LINE
  5
159
  8
1
  6
CONTINUOUS
 62
     7
 10
54.36401277519256
 20
205.6511508372957
 30
0.0
 11
54.36401743728337
 21
205.6506166146033
 31
0.0
  0
LINE
  5
15A
  8
1
  6
CONTINUOUS
 62
     7
 10
54.36401743728337
 20
212.68271671873
 30
0.0
 11
54.36401277519256
 21
212.6821824960377
 31
0.0
  0
LINE
  5
15B
  8
1
  6
CONTINUOUS
 62
     7
 10
54.36401277519256
 20
212.6821824960377
 30
0.0
 11
54.33333333333333
 21
209.1666666666667
 31
0.0
  0
LINE
  5
15C
  8
1
  6
CONTINUOUS
 62
     7
 10
87.33333333333333
 20
209.1666666666667
 30
0.0
 11
87.3026538914741
 21
212.6821824960377
 31
0.0
  0
LINE
  5
15D
  8
1
  6
CONTINUOUS
 62
     7
 10
87.3026538914741
 20
212.6821824960377
 30
0.0
 11
87.30264922938328
 21
212.68271671873
 31
0.0
  0
ARC
  5
15E
  8
1
  6
CONTINUOUS
 62
     7
 10
83.30280619921741
 20
205.6860569792892
 30
0.0
 40
4.000000000000002
 50
349.9999999999999
 51
359.5000000000001
  0
ARC
  5
15F
  8
1
  6
CONTINUOUS
 62
     7
 10
58.36386046744926
 20
205.6860569792892
 30
0.0
 40
4.000000000000005
 50
180.5
 51
190.0000000000001
  0
ARC
  5
160
  8
1
  6
CONTINUOUS
 62
     7
 10
83.30280619921741
 20
212.6472763540442
 30
0.0
 40
3.999999999999998
 50
0.4999999999999957
 51
10.00000000000002
  0
ARC
  5
161
  8
1
  6
CONTINUOUS
 62
     7
 10
58.36386046744926
 20
212.6472763540442
 30
0.0
 40
4.000000000000002
 50
170.0000000000001
 51
179.5000000000001
  0
ENDBLK
  8
0
  0
ENDSEC
  0
SECTION
  2
ENTITIES
  0
TEXT
  5
71
  8
3
  6
CONTINUOUS
 62
     7
 10
100.8848213913551
 20
110.5185715476637
 30
0.0
 40
3.0
  1
GSFY-20
  0
INSERT
  5
AE
  8
1
  6
DOT
 62
     7
  2
D_FRAME_VIEW_1472
 10
0.0
 20
0.0
 30
0.0
  0
LINE
  5
B0
  8
3
  6
CENTER
 62
     1
 10
52.33333333333333
 20
149.738006415001
 30
0.0
 11
89.33333333333333
 21
149.738006415001
 31
0.0
  0
LINE
  5
B2
  8
3
  6
CENTER
 62
     1
 10
52.3332553691496
 20
209.1664595577361
 30
0.0
 11
89.33341129751706
 21
209.1664595577361
 31
0.0
  0
LINE
  5
B3
  8
3
  6
CENTER
 62
     1
 10
70.83333333333333
 20
192.1666666666667
 30
0.0
 11
70.83333333333333
 21
226.1666666666667
 31
0.0
  0
LINE
  5
B4
  8
3
  6
CENTER
 62
     1
 10
143.3333333333333
 20
128.2380064150011
 30
0.0
 11
143.3333333333333
 21
163.3546918471207
 31
0.0
  0
LINE
  5
B5
  8
3
  6
CENTER
 62
     1
 10
126.3333333333334
 20
149.3400545338937
 30
0.0
 11
160.3333333333333
 21
149.3400545338937
 31
0.0
  0
LINE
  5
B6
  8
3
  6
CENTER
 62
     1
 10
70.83333333333333
 20
128.2380064150011
 30
0.0
 11
70.83333333333333
 21
168.238006415001
 31
0.0
  0
INSERT
  5
110
  8
1
  6
DOT
 62
     7
  2
D_FRAME_VIEW_1587
 10
0.0
 20
0.0
 30
0.0
  0
INSERT
  5
162
  8
1
  6
DOT
 62
     7
  2
D_FRAME_VIEW_1673
 10
0.0
 20
0.0
 30
0.0
  0
ENDSEC
  0
EOF
