  0
SECTION
  2
HEADER
  9
$ACADVER
  1
AC1006
  9
$DWGCODEPAGE
  3
ansi_932
  9
$INSBASE
 10
0.0
 20
0.0
 30
0.0
  9
$EXTMIN
 10
49.0832553691496
 20
110.8606060606061
  9
$EXTMAX
 10
160.3333333333333
 20
226.1666666666667
  9
$LIMMIN
 10
0.0
 20
0.0
  9
$LIMMAX
 10
12.0
 20
9.0
  9
$ORTHOMODE
 70
     0
  9
$REGENMODE
 70
     1
  9
$FILLMODE
 70
     1
  9
$QTEXTMODE
 70
     0
  9
$MIRRTEXT
 70
     1
  9
$DRAGMODE
 70
     2
  9
$LTSCALE
 40
1.0
  9
$OSMODE
 70
    37
  9
$ATTMODE
 70
     1
  9
$TEXTSIZE
 40
0.2
  9
$TRACEWID
 40
0.05
  9
$TEXTSTYLE
  7
STANDARD
  9
$CLAYER
  8
0
  9
$CELTYPE
  6
BYLAYER
  9
$CECOLOR
 62
   256
  9
$DIMSCALE
 40
1.0
  9
$DIMASZ
 40
3.0
  9
$DIMEXO
 40
0.0625
  9
$DIMDLI
 40
0.38
  9
$DIMRND
 40
0.0
  9
$DIMDLE
 40
0.0
  9
$DIMEXE
 40
1.5
  9
$DIMTP
 40
0.0
  9
$DIMTM
 40
0.0
  9
$DIMTXT
 40
3.0
  9
$DIMCEN
 40
0.09
  9
$DIMTSZ
 40
0.0
  9
$DIMTOL
 70
     0
  9
$DIMLIM
 70
     0
  9
$DIMTIH
 70
     1
  9
$DIMTOH
 70
     1
  9
$DIMSE1
 70
     0
  9
$DIMSE2
 70
     0
  9
$DIMTAD
 70
     1
  9
$DIMZIN
 70
     0
  9
$DIMBLK
  1

  9
$DIMASO
 70
     1
  9
$DIMSHO
 70
     1
  9
$DIMPOST
  1

  9
$DIMAPOST
  1

  9
$DIMALT
 70
     0
  9
$DIMALTD
 70
     2
  9
$DIMALTF
 40
25.4
  9
$DIMLFAC
 40
1.0
  9
$DIMTOFL
 70
     0
  9
$DIMTVP
 40
0.0
  9
$DIMTIX
 70
     0
  9
$DIMSOXD
 70
     0
  9
$DIMSAH
 70
     0
  9
$DIMBLK1
  1

  9
$DIMBLK2
  1

  9
$LUNITS
 70
     2
  9
$LUPREC
 70
     4
  9
$SKETCHINC
 40
0.1
  9
$FILLETRAD
 40
0.5
  9
$AUNITS
 70
     0
  9
$AUPREC
 70
     0
  9
$MENU
  1
.
  9
$ELEVATION
 40
0.0
  9
$THICKNESS
 40
0.0
  9
$LIMCHECK
 70
     0
  9
$CHAMFERA
 40
0.0
  9
$CHAMFERB
 40
0.0
  9
$SKPOLY
 70
     0
  9
$TDCREATE
 40
2460112.656191088
  9
$TDUPDATE
 40
2460112.656191146
  9
$TDINDWG
 40
0.0000000116
  9
$TDUSRTIMER
 40
0.0000000116
  9
$USRTIMER
 70
     1
  9
$ANGBASE
 50
0.0
  9
$ANGDIR
 70
     0
  9
$PDMODE
 70
     0
  9
$PDSIZE
 40
0.0
  9
$PLINEWID
 40
0.0
  9
$COORDS
 70
     1
  9
$SPLFRAME
 70
     0
  9
$SPLINETYPE
 70
     6
  9
$SPLINESEGS
 70
     8
  9
$ATTDIA
 70
     0
  9
$ATTREQ
 70
     1
  9
$HANDLING
 70
     1
  9
$HANDSEED
  5
358
  9
$SURFTAB1
 70
     6
  9
$SURFTAB2
 70
     6
  9
$SURFTYPE
 70
     6
  9
$SURFU
 70
     6
  9
$SURFV
 70
     6
  9
$UCSNAME
  2

  9
$UCSORG
 10
0.0
 20
0.0
 30
0.0
  9
$UCSXDIR
 10
1.0
 20
0.0
 30
0.0
  9
$UCSYDIR
 10
0.0
 20
1.0
 30
0.0
  9
$USERI1
 70
     0
  9
$USERI2
 70
     0
  9
$USERI3
 70
     0
  9
$USERI4
 70
     0
  9
$USERI5
 70
     0
  9
$USERR1
 40
0.0
  9
$USERR2
 40
0.0
  9
$USERR3
 40
0.0
  9
$USERR4
 40
0.0
  9
$USERR5
 40
0.0
  9
$WORLDVIEW
 70
     1
  0
ENDSEC
  0
SECTION
  2
TABLES
  0
TABLE
  2
VPORT
 70
     1
  0
VPORT
  2
*ACTIVE
 70
     0
 10
0.0
 20
0.0
 11
1.0
 21
1.0
 12
104.7082943512415
 22
168.5136363636364
 13
0.0
 23
0.0
 14
0.5
 24
0.5
 15
0.5
 25
0.5
 16
0.0
 26
0.0
 36
1.0
 17
0.0
 27
0.0
 37
0.0
 40
115.3060606060606
 41
1.6
 42
50.0
 43
0.0
 44
0.0
 50
0.0
 51
0.0
 71
     0
 72
   100
 73
     1
 74
     3
 75
     0
 76
     0
 77
     0
 78
     0
  0
ENDTAB
  0
TABLE
  2
LTYPE
 70
     3
  0
LTYPE
  2
CONTINUOUS
 70
     0
  3
Solid line
 72
    65
 73
     0
 40
0.0
  0
LTYPE
  2
DOT
 70
     0
  3

 72
    65
 73
     0
 40
0.0
  0
LTYPE
  2
CENTER
 70
     0
  3

 72
    65
 73
     0
 40
0.0
  0
ENDTAB
  0
TABLE
  2
LAYER
 70
     3
  0
LAYER
  2
0
 70
     0
 62
     7
  6
CONTINUOUS
  0
LAYER
  2
1
 70
     0
 62
     7
  6
CONTINUOUS
  0
LAYER
  2
3
 70
     0
 62
     7
  6
CONTINUOUS
  0
ENDTAB
  0
TABLE
  2
STYLE
 70
     2
  0
STYLE
  2
STANDARD
 70
     0
 40
0.0
 41
1.0
 50
0.0
 71
     0
 42
0.2
  3
txt
  4

  0
STYLE
  2
ＭＳ_ゴシック
 70
     0
 40
0.0
 41
1.0
 50
0.0
 71
     0
 42
0.2
  3
ＭＳ ゴシック.shx
  4

  0
ENDTAB
  0
TABLE
  2
VIEW
 70
     0
  0
ENDTAB
  0
TABLE
  2
UCS
 70
     0
  0
ENDTAB
  0
ENDSEC
  0
SECTION
  2
BLOCKS
  0
BLOCK
  8
0
  2
D_FRAME_VIEW_1472
 70
     0
 10
0.0
 20
0.0
 30
0.0
  0
ARC
  5
73
  8
1
  6
CONTINUOUS
 62
     7
 10
84.48844654697531
 20
143.2249414866715
 30
0.0
 40
4.240892636545573
 50
332.5625732102749
 51
0.6789247316699516
  0
ARC
  5
74
  8
1
  6
CONTINUOUS
 62
     7
 10
84.4899637489549
 20
157.4088410724087
 30
0.0
 40
4.239379833999372
 50
359.3159554630071
 51
27.44254659504174
  0
ARC
  5
75
  8
1
  6
CONTINUOUS
 62
     7
 10
57.17670291771174
 20
157.4088410724087
 30
0.0
 40
4.239379833999366
 50
152.5574534049582
 51
180.6840445369929
  0
ARC
  5
76
  8
1
  6
CONTINUOUS
 62
     7
 10
57.17822011969146
 20
143.2249414866715
 30
0.0
 40
4.240892636545678
 50
179.3210752683305
 51
207.4374267897249
  0
ARC
  5
77
  8
1
  6
CONTINUOUS
 62
     7
 10
70.83333333333333
 20
150.3167108455769
 30
0.0
 40
19.75
 50
307.4168646492457
 51
41.98729583885427
  0
LINE
  5
78
  8
1
  6
CONTINUOUS
 62
     7
 10
80.69953637053626
 20
133.3378052773385
 30
0.0
 11
82.72938893211244
 21
134.6774089378687
 31
0.0
  0
LINE
  5
79
  8
1
  6
CONTINUOUS
 62
     7
 10
60.96713029613039
 20
133.3378052773385
 30
0.0
 11
58.93727773455421
 21
134.6774089378687
 31
0.0
  0
ARC
  5
7A
  8
1
  6
CONTINUOUS
 62
     7
 10
70.83333333333333
 20
150.3167108455769
 30
0.0
 40
19.75
 50
138.0127041611457
 51
232.5831353507542
  0
LINE
  5
7B
  8
1
  6
CONTINUOUS
 62
     7
 10
85.58333333333331
 20
144.7753919510757
 30
0.0
 11
85.0833333333306
 21
143.6033861220276
 31
0.0
  0
ARC
  5
7C
  8
1
  6
CONTINUOUS
 62
     7
 10
70.83333333333333
 20
150.3167108455769
 30
0.0
 40
15.75654515084306
 50
339.4096723180882
 51
20.59032768191179
  0
LINE
  5
7D
  8
1
  6
CONTINUOUS
 62
     7
 10
85.08333333333331
 20
157.0300355691207
 30
0.0
 11
85.58333333333333
 21
155.8580297400782
 31
0.0
  0
ARC
  5
7E
  8
1
  6
CONTINUOUS
 62
     7
 10
70.83333333333333
 20
150.3167108455769
 30
0.0
 40
15.74999999999999
 50
25.20876529675838
 51
39.99999999999994
  0
ARC
  5
7F
  8
1
  6
CONTINUOUS
 62
     7
 10
70.83333333333333
 20
150.3167108455769
 30
0.0
 40
15.74999999999999
 50
299.4923335213639
 51
334.7912347032416
  0
ARC
  5
80
  8
1
  6
CONTINUOUS
 62
     7
 10
70.83333333333333
 20
150.3167108455769
 30
0.0
 40
15.75
 50
140.0
 51
154.7912347032416
  0
LINE
  5
81
  8
1
  6
CONTINUOUS
 62
     7
 10
56.58333333333334
 20
157.0300355691207
 30
0.0
 11
56.08333333333333
 21
155.8580297400782
 31
0.0
  0
ARC
  5
82
  8
1
  6
CONTINUOUS
 62
     7
 10
70.83333333333333
 20
150.3167108455769
 30
0.0
 40
15.75654515084306
 50
159.4096723180881
 51
200.5903276819118
  0
LINE
  5
83
  8
1
  6
CONTINUOUS
 62
     7
 10
56.08333333333334
 20
144.7753919510757
 30
0.0
 11
56.58333333333607
 21
143.6033861220276
 31
0.0
  0
ARC
  5
84
  8
1
  6
CONTINUOUS
 62
     7
 10
70.83333333333333
 20
150.3167108455769
 30
0.0
 40
15.74999999999999
 50
205.2087652967585
 51
240.5076664786361
  0
LINE
  5
85
  8
1
  6
CONTINUOUS
 62
     7
 10
52.93762521149841
 20
157.3582290421618
 30
0.0
 11
52.93762521149841
 21
143.2751926489923
 31
0.0
  0
LINE
  5
86
  8
1
  6
CONTINUOUS
 62
     7
 10
88.72904145516824
 20
157.3582290421618
 30
0.0
 11
88.72904145516824
 21
143.2751926489923
 31
0.0
  0
POLYLINE
  5
87
  8
1
  6
CONTINUOUS
 62
     7
 66
     1
 10
0.0
 20
0.0
 30
0.0
  0
VERTEX
  5
168
  8
1
  6
CONTINUOUS
 62
     7
 10
78.33333333333334
 20
136.1723767903703
 30
0.0
  0
VERTEX
  5
169
  8
1
  6
CONTINUOUS
 62
     7
 10
78.33392251114047
 20
136.1963931160893
 30
0.0
  0
VERTEX
  5
16A
  8
1
  6
CONTINUOUS
 62
     7
 10
78.33568071805745
 20
136.220421760265
 30
0.0
  0
VERTEX
  5
16B
  8
1
  6
CONTINUOUS
 62
     7
 10
78.33859396432766
 20
136.2443805429036
 30
0.0
  0
VERTEX
  5
16C
  8
1
  6
CONTINUOUS
 62
     7
 10
78.34264826019445
 20
136.2681872840114
 30
0.0
  0
VERTEX
  5
16D
  8
1
  6
CONTINUOUS
 62
     7
 10
78.34782961590119
 20
136.2917598035946
 30
0.0
  0
VERTEX
  5
16E
  8
1
  6
CONTINUOUS
 62
     7
 10
78.35412404169124
 20
136.3150159216595
 30
0.0
  0
VERTEX
  5
16F
  8
1
  6
CONTINUOUS
 62
     7
 10
78.36151754780796
 20
136.3378734582124
 30
0.0
  0
VERTEX
  5
170
  8
1
  6
CONTINUOUS
 62
     7
 10
78.37002302723153
 20
136.3603409610906
 30
0.0
  0
VERTEX
  5
171
  8
1
  6
CONTINUOUS
 62
     7
 10
78.3796357486188
 20
136.3824331214074
 30
0.0
  0
VERTEX
  5
172
  8
1
  6
CONTINUOUS
 62
     7
 10
78.39031530258195
 20
136.4040770221296
 30
0.0
  0
VERTEX
  5
173
  8
1
  6
CONTINUOUS
 62
     7
 10
78.40202127973325
 20
136.4251997462239
 30
0.0
  0
VERTEX
  5
174
  8
1
  6
CONTINUOUS
 62
     7
 10
78.41471327068487
 20
136.4457283766573
 30
0.0
  0
VERTEX
  5
175
  8
1
  6
CONTINUOUS
 62
     7
 10
78.42835086604906
 20
136.4655899963965
 30
0.0
  0
VERTEX
  5
176
  8
1
  6
CONTINUOUS
 62
     7
 10
78.44289365643802
 20
136.4847116884084
 30
0.0
  0
VERTEX
  5
177
  8
1
  6
CONTINUOUS
 62
     7
 10
78.45835640957455
 20
136.5030970035959
 30
0.0
  0
VERTEX
  5
178
  8
1
  6
CONTINUOUS
 62
     7
 10
78.47473971499019
 20
136.5207616471575
 30
0.0
  0
VERTEX
  5
179
  8
1
  6
CONTINUOUS
 62
     7
 10
78.49198130600261
 20
136.5376501959929
 30
0.0
  0
VERTEX
  5
17A
  8
1
  6
CONTINUOUS
 62
     7
 10
78.51001891592946
 20
136.5537072270018
 30
0.0
  0
VERTEX
  5
17B
  8
1
  6
CONTINUOUS
 62
     7
 10
78.5287902780884
 20
136.5688773170839
 30
0.0
  0
VERTEX
  5
17C
  8
1
  6
CONTINUOUS
 62
     7
 10
78.54823312579707
 20
136.5831050431388
 30
0.0
  0
VERTEX
  5
17D
  8
1
  6
CONTINUOUS
 62
     7
 10
78.56828519237314
 20
136.5963349820663
 30
0.0
  0
VERTEX
  5
17E
  8
1
  6
CONTINUOUS
 62
     7
 10
78.58717011889046
 20
136.6075710073909
 30
0.0
  0
SEQEND
  5
33E
  8
1
  6
CONTINUOUS
 62
     7
  0
POLYLINE
  5
88
  8
1
  6
CONTINUOUS
 62
     7
 66
     1
 10
0.0
 20
0.0
 30
0.0
  0
VERTEX
  5
17F
  8
1
  6
CONTINUOUS
 62
     7
 10
63.33333333333332
 20
136.1723767903703
 30
0.0
  0
VERTEX
  5
180
  8
1
  6
CONTINUOUS
 62
     7
 10
63.33274415552619
 20
136.1963931160893
 30
0.0
  0
VERTEX
  5
181
  8
1
  6
CONTINUOUS
 62
     7
 10
63.33098594860921
 20
136.220421760265
 30
0.0
  0
VERTEX
  5
182
  8
1
  6
CONTINUOUS
 62
     7
 10
63.32807270233901
 20
136.2443805429036
 30
0.0
  0
VERTEX
  5
183
  8
1
  6
CONTINUOUS
 62
     7
 10
63.32401840647221
 20
136.2681872840114
 30
0.0
  0
VERTEX
  5
184
  8
1
  6
CONTINUOUS
 62
     7
 10
63.31883705076547
 20
136.2917598035946
 30
0.0
  0
VERTEX
  5
185
  8
1
  6
CONTINUOUS
 62
     7
 10
63.31254262497543
 20
136.3150159216595
 30
0.0
  0
VERTEX
  5
186
  8
1
  6
CONTINUOUS
 62
     7
 10
63.30514911885869
 20
136.3378734582124
 30
0.0
  0
VERTEX
  5
187
  8
1
  6
CONTINUOUS
 62
     7
 10
63.29664363943512
 20
136.3603409610906
 30
0.0
  0
VERTEX
  5
188
  8
1
  6
CONTINUOUS
 62
     7
 10
63.28703091804787
 20
136.3824331214074
 30
0.0
  0
VERTEX
  5
189
  8
1
  6
CONTINUOUS
 62
     7
 10
63.2763513640847
 20
136.4040770221296
 30
0.0
  0
VERTEX
  5
18A
  8
1
  6
CONTINUOUS
 62
     7
 10
63.26464538693341
 20
136.4251997462239
 30
0.0
  0
VERTEX
  5
18B
  8
1
  6
CONTINUOUS
 62
     7
 10
63.25195339598179
 20
136.4457283766573
 30
0.0
  0
VERTEX
  5
18C
  8
1
  6
CONTINUOUS
 62
     7
 10
63.2383158006176
 20
136.4655899963965
 30
0.0
  0
VERTEX
  5
18D
  8
1
  6
CONTINUOUS
 62
     7
 10
63.22377301022865
 20
136.4847116884084
 30
0.0
  0
VERTEX
  5
18E
  8
1
  6
CONTINUOUS
 62
     7
 10
63.20831025709212
 20
136.5030970035959
 30
0.0
  0
VERTEX
  5
18F
  8
1
  6
CONTINUOUS
 62
     7
 10
63.19192695167647
 20
136.5207616471575
 30
0.0
  0
VERTEX
  5
190
  8
1
  6
CONTINUOUS
 62
     7
 10
63.17468536066405
 20
136.5376501959929
 30
0.0
  0
VERTEX
  5
191
  8
1
  6
CONTINUOUS
 62
     7
 10
63.15664775073719
 20
136.5537072270018
 30
0.0
  0
VERTEX
  5
192
  8
1
  6
CONTINUOUS
 62
     7
 10
63.13787638857826
 20
136.5688773170839
 30
0.0
  0
VERTEX
  5
193
  8
1
  6
CONTINUOUS
 62
     7
 10
63.11843354086959
 20
136.5831050431388
 30
0.0
  0
VERTEX
  5
194
  8
1
  6
CONTINUOUS
 62
     7
 10
63.09838147429352
 20
136.5963349820663
 30
0.0
  0
VERTEX
  5
195
  8
1
  6
CONTINUOUS
 62
     7
 10
63.07949654777621
 20
136.6075710073909
 30
0.0
  0
SEQEND
  5
33F
  8
1
  6
CONTINUOUS
 62
     7
  0
ARC
  5
89
  8
1
  6
CONTINUOUS
 62
     7
 10
57.26821142793916
 20
162.5254297542917
 30
0.0
 40
1.499921927264632
 50
359.997913698477
 51
138.0147904626688
  0
ARC
  5
8A
  8
1
  6
CONTINUOUS
 62
     7
 10
84.39845523872751
 20
162.5254297542917
 30
0.0
 40
1.499921927264639
 50
41.98520953733123
 51
180.002086301523
  0
ARC
  5
8B
  8
1
  6
CONTINUOUS
 62
     7
 10
61.72238667276577
 20
134.6407860662938
 30
0.0
 40
1.501872572962031
 50
311.8406936883268
 51
359.5332329940407
  0
ARC
  5
8C
  8
1
  6
CONTINUOUS
 62
     7
 10
61.7199073170657
 20
134.6363003525502
 30
0.0
 40
1.500192394322709
 50
263.0551849510062
 51
312.0255207776532
  0
LINE
  5
8D
  8
1
  6
CONTINUOUS
 62
     7
 10
61.53851409327
 20
133.1471147635974
 30
0.0
 11
60.96713029613039
 21
133.3378052773385
 31
0.0
  0
LINE
  5
8E
  8
1
  6
CONTINUOUS
 62
     7
 10
80.12815257339668
 20
133.1471147635974
 30
0.0
 11
80.69953637053626
 21
133.3378052773385
 31
0.0
  0
ARC
  5
8F
  8
1
  6
CONTINUOUS
 62
     7
 10
79.94675934960097
 20
134.6363003525501
 30
0.0
 40
1.500192394322659
 50
227.9744792223457
 51
276.9448150489944
  0
ARC
  5
90
  8
1
  6
CONTINUOUS
 62
     7
 10
79.94553799456192
 20
134.6413544199981
 30
0.0
 40
1.503135265592833
 50
180.4880398765311
 51
228.1380334411023
  0
LINE
  5
91
  8
1
  6
CONTINUOUS
 62
     7
 10
63.33333333333332
 20
136.1723767903703
 30
0.0
 11
63.33333333333334
 21
133.0666346917053
 31
0.0
  0
LINE
  5
92
  8
1
  6
CONTINUOUS
 62
     7
 10
78.33333333333334
 20
136.1723767903703
 30
0.0
 11
78.33333333333333
 21
133.0666346917053
 31
0.0
  0
LINE
  5
93
  8
1
  6
CONTINUOUS
 62
     7
 10
82.89853331245723
 20
162.5253751378884
 30
0.0
 11
82.89853331245723
 21
160.4406156981399
 31
0.0
  0
LINE
  5
94
  8
1
  6
CONTINUOUS
 62
     7
 10
58.76813335420942
 20
162.5253751378884
 30
0.0
 11
58.76813335420942
 21
160.4406156981399
 31
0.0
  0
LINE
  5
95
  8
1
  6
CONTINUOUS
 62
     7
 10
70.14594697908996
 20
127.566710845577
 30
0.0
 11
71.5207196875767
 21
127.566710845577
 31
0.0
  0
LINE
  5
96
  8
1
  6
CONTINUOUS
 62
     7
 10
69.68768940959437
 20
127.566710845577
 30
0.0
 11
70.14594697908996
 21
127.566710845577
 31
0.0
  0
LINE
  5
97
  8
1
  6
CONTINUOUS
 62
     7
 10
71.52071968757672
 20
127.566710845577
 30
0.0
 11
71.97897725707229
 21
127.566710845577
 31
0.0
  0
LINE
  5
98
  8
1
  6
CONTINUOUS
 62
     7
 10
73.55278929606568
 20
131.066710845577
 30
0.0
 11
73.03244758608663
 21
131.0527478571117
 31
0.0
  0
LINE
  5
99
  8
1
  6
CONTINUOUS
 62
     7
 10
76.33340948720499
 20
131.066710845577
 30
0.0
 11
73.55278929606568
 21
131.066710845577
 31
0.0
  0
LINE
  5
9A
  8
1
  6
CONTINUOUS
 62
     7
 10
68.11387740114444
 20
131.0667143455106
 30
0.0
 11
65.33325717946167
 21
131.066710845577
 31
0.0
  0
LINE
  5
9B
  8
1
  6
CONTINUOUS
 62
     7
 10
68.63421908058002
 20
131.0527478571117
 30
0.0
 11
68.11387737060332
 21
131.0667108458435
 31
0.0
  0
LINE
  5
9C
  8
1
  6
CONTINUOUS
 62
     7
 10
68.63421908058002
 20
131.0527478571117
 30
0.0
 11
73.03244758608663
 21
131.0527478571117
 31
0.0
  0
LINE
  5
9D
  8
1
  6
CONTINUOUS
 62
     7
 10
82.43087035902958
 20
127.566710845577
 30
0.0
 11
80.90122275146338
 21
127.566710845577
 31
0.0
  0
LINE
  5
9E
  8
1
  6
CONTINUOUS
 62
     7
 10
59.23579630763707
 20
127.566710845577
 30
0.0
 11
60.76544391520327
 21
127.566710845577
 31
0.0
  0
LINE
  5
9F
  8
1
  6
CONTINUOUS
 62
     7
 10
71.97897725707229
 20
127.566710845577
 30
0.0
 11
80.90122275146338
 21
127.566710845577
 31
0.0
  0
LINE
  5
A0
  8
1
  6
CONTINUOUS
 62
     7
 10
60.76544391520327
 20
127.566710845577
 30
0.0
 11
69.68768940959437
 21
127.566710845577
 31
0.0
  0
POLYLINE
  5
A1
  8
1
  6
CONTINUOUS
 62
     7
 66
     1
 10
0.0
 20
0.0
 30
0.0
  0
VERTEX
  5
196
  8
1
  6
CONTINUOUS
 62
     7
 10
76.33340948720497
 20
131.0667108455769
 30
0.0
  0
VERTEX
  5
197
  8
1
  6
CONTINUOUS
 62
     7
 10
76.72358338820918
 20
131.1051380338988
 30
0.0
  0
VERTEX
  5
198
  8
1
  6
CONTINUOUS
 62
     7
 10
77.09875872149273
 20
131.2189430062884
 30
0.0
  0
VERTEX
  5
199
  8
1
  6
CONTINUOUS
 62
     7
 10
77.44451910282241
 20
131.4037527241578
 30
0.0
  0
VERTEX
  5
19A
  8
1
  6
CONTINUOUS
 62
     7
 10
77.74757843882362
 20
131.6524657400867
 30
0.0
  0
VERTEX
  5
19B
  8
1
  6
CONTINUOUS
 62
     7
 10
77.99629145475244
 20
131.9555250760879
 30
0.0
  0
VERTEX
  5
19C
  8
1
  6
CONTINUOUS
 62
     7
 10
78.18110117262192
 20
132.3012854574175
 30
0.0
  0
VERTEX
  5
19D
  8
1
  6
CONTINUOUS
 62
     7
 10
78.29490614501147
 20
132.6764607907011
 30
0.0
  0
VERTEX
  5
19E
  8
1
  6
CONTINUOUS
 62
     7
 10
78.33333333333333
 20
133.0666346917053
 30
0.0
  0
SEQEND
  5
340
  8
1
  6
CONTINUOUS
 62
     7
  0
POLYLINE
  5
A2
  8
1
  6
CONTINUOUS
 62
     7
 66
     1
 10
0.0
 20
0.0
 30
0.0
  0
VERTEX
  5
19F
  8
1
  6
CONTINUOUS
 62
     7
 10
63.33333333333332
 20
133.0666346917053
 30
0.0
  0
VERTEX
  5
1A0
  8
1
  6
CONTINUOUS
 62
     7
 10
63.3717605216552
 20
132.6764607907011
 30
0.0
  0
VERTEX
  5
1A1
  8
1
  6
CONTINUOUS
 62
     7
 10
63.48556549404474
 20
132.3012854574175
 30
0.0
  0
VERTEX
  5
1A2
  8
1
  6
CONTINUOUS
 62
     7
 10
63.67037521191423
 20
131.9555250760879
 30
0.0
  0
VERTEX
  5
1A3
  8
1
  6
CONTINUOUS
 62
     7
 10
63.91908822784303
 20
131.6524657400867
 30
0.0
  0
VERTEX
  5
1A4
  8
1
  6
CONTINUOUS
 62
     7
 10
64.22214756384425
 20
131.4037527241578
 30
0.0
  0
VERTEX
  5
1A5
  8
1
  6
CONTINUOUS
 62
     7
 10
64.56790794517393
 20
131.2189430062884
 30
0.0
  0
VERTEX
  5
1A6
  8
1
  6
CONTINUOUS
 62
     7
 10
64.94308327845746
 20
131.1051380338988
 30
0.0
  0
VERTEX
  5
1A7
  8
1
  6
CONTINUOUS
 62
     7
 10
65.33325717946168
 20
131.0667108455769
 30
0.0
  0
SEQEND
  5
341
  8
1
  6
CONTINUOUS
 62
     7
  0
ARC
  5
A3
  8
1
  6
CONTINUOUS
 62
     7
 10
57.00850862069743
 20
132.2472685546408
 30
0.0
 40
3.001495108364209
 50
348.7092221808288
 51
52.56398069590523
  0
ARC
  5
A4
  8
1
  6
CONTINUOUS
 62
     7
 10
84.65815804596923
 20
132.2472685546408
 30
0.0
 40
3.001495108364209
 50
127.4360193040948
 51
191.2907778191712
  0
LINE
  5
A5
  8
1
  6
CONTINUOUS
 62
     7
 10
59.13333333333333
 20
127.566710845577
 30
0.0
 11
59.95191334749985
 21
131.6596109164096
 31
0.0
  0
LINE
  5
A6
  8
1
  6
CONTINUOUS
 62
     7
 10
59.23579630763707
 20
127.566710845577
 30
0.0
 11
59.13333333333333
 21
127.566710845577
 31
0.0
  0
LINE
  5
A7
  8
1
  6
CONTINUOUS
 62
     7
 10
82.53333333333333
 20
127.566710845577
 30
0.0
 11
81.71475331916682
 21
131.6596109164096
 31
0.0
  0
LINE
  5
A8
  8
1
  6
CONTINUOUS
 62
     7
 10
82.43087035902958
 20
127.566710845577
 30
0.0
 11
82.53333333333333
 21
127.566710845577
 31
0.0
  0
LINE
  5
A9
  8
1
  6
CONTINUOUS
 62
     7
 10
85.0833333333306
 20
143.6033861220276
 30
0.0
 11
85.08333333333331
 21
157.0300355691207
 31
0.0
  0
LINE
  5
AA
  8
1
  6
CONTINUOUS
 62
     7
 10
56.58333333333607
 20
143.6033861220276
 30
0.0
 11
56.58333333333334
 21
157.0300355691207
 31
0.0
  0
ENDBLK
  8
0
  0
BLOCK
  8
0
  2
D_FRAME_VIEW_1587
 70
     0
 10
0.0
 20
0.0
 30
0.0
  0
POLYLINE
  5
B7
  8
1
  6
CONTINUOUS
 62
     7
 66
     1
 10
0.0
 20
0.0
 30
0.0
  0
VERTEX
  5
1A8
  8
1
  6
CONTINUOUS
 62
     7
 10
157.5069815110003
 20
157.3582290421618
 30
0.0
  0
VERTEX
  5
1A9
  8
1
  6
CONTINUOUS
 62
     7
 10
151.1545073595473
 20
154.6524877137625
 30
0.0
  0
VERTEX
  5
1AA
  8
1
  6
CONTINUOUS
 62
     7
 10
147.916248719212
 20
151.7806622673067
 30
0.0
  0
VERTEX
  5
1AB
  8
1
  6
CONTINUOUS
 62
     7
 10
147.9162487192119
 20
148.8527594238474
 30
0.0
  0
VERTEX
  5
1AC
  8
1
  6
CONTINUOUS
 62
     7
 10
151.154507359547
 20
145.9809339773916
 30
0.0
  0
VERTEX
  5
1AD
  8
1
  6
CONTINUOUS
 62
     7
 10
157.5069815109997
 20
143.2751926489923
 30
0.0
  0
SEQEND
  5
342
  8
1
  6
CONTINUOUS
 62
     7
  0
ARC
  5
B8
  8
1
  6
CONTINUOUS
 62
     7
 10
164.908752244926
 20
136.8372572262537
 30
0.0
 40
23.76227622031527
 50
108.5681844664543
 51
133.0776574636349
  0
ARC
  5
B9
  8
1
  6
CONTINUOUS
 62
     7
 10
151.9200456966128
 20
150.2929815347831
 30
0.0
 40
5.071402478737005
 50
129.7178858594788
 51
233.2176690064821
  0
ARC
  5
BA
  8
1
  6
CONTINUOUS
 62
     7
 10
164.954639064867
 20
163.9443027405111
 30
0.0
 40
23.91731537279419
 50
227.7822845812179
 51
251.4406166773425
  0
LINE
  5
BB
  8
1
  6
CONTINUOUS
 62
     7
 10
156.2426736125055
 20
133.3378052773385
 30
0.0
 11
156.1485690021787
 21
133.4930958989462
 31
0.0
  0
ARC
  5
BC
  8
1
  6
CONTINUOUS
 62
     7
 10
151.4900475587766
 20
129.6790841688152
 30
0.0
 40
6.020673344088232
 50
39.30777746206202
 51
56.11863551023622
  0
LINE
  5
BD
  8
1
  6
CONTINUOUS
 62
     7
 10
154.8464231365809
 20
134.6774089378687
 30
0.0
 11
143.3333333333333
 21
134.6305536198192
 31
0.0
  0
ARC
  5
BE
  8
1
  6
CONTINUOUS
 62
     7
 10
121.7579144217411
 20
136.8372572262544
 30
0.0
 40
23.7622762203145
 50
46.92234253636484
 51
71.43181553354617
  0
ARC
  5
BF
  8
1
  6
CONTINUOUS
 62
     7
 10
134.7466209700539
 20
150.2929815347831
 30
0.0
 40
5.071402478737005
 50
306.7823309935179
 51
50.28211414052122
  0
ARC
  5
C0
  8
1
  6
CONTINUOUS
 62
     7
 10
121.7120276017997
 20
163.9443027405111
 30
0.0
 40
23.91731537279419
 50
288.5593833226576
 51
312.2177154187822
  0
LINE
  5
C1
  8
1
  6
CONTINUOUS
 62
     7
 10
131.8202435300858
 20
134.6774089378687
 30
0.0
 11
143.3333333333333
 21
134.6305536198192
 31
0.0
  0
LINE
  5
C2
  8
1
  6
CONTINUOUS
 62
     7
 10
130.4239930541612
 20
133.3378052773385
 30
0.0
 11
130.5180976644879
 21
133.4930958989462
 31
0.0
  0
ARC
  5
C3
  8
1
  6
CONTINUOUS
 62
     7
 10
135.17661910789
 20
129.6790841688152
 30
0.0
 40
6.020673344088232
 50
123.8813644897638
 51
140.692222537938
  0
POLYLINE
  5
C4
  8
1
  6
CONTINUOUS
 62
     7
 66
     1
 10
0.0
 20
0.0
 30
0.0
  0
VERTEX
  5
1AE
  8
1
  6
CONTINUOUS
 62
     7
 10
129.1596851556668
 20
143.2751926489922
 30
0.0
  0
VERTEX
  5
1AF
  8
1
  6
CONTINUOUS
 62
     7
 10
135.5121593071196
 20
145.9809339773916
 30
0.0
  0
VERTEX
  5
1B0
  8
1
  6
CONTINUOUS
 62
     7
 10
138.7504179474548
 20
148.8527594238474
 30
0.0
  0
VERTEX
  5
1B1
  8
1
  6
CONTINUOUS
 62
     7
 10
138.7504179474547
 20
151.7806622673067
 30
0.0
  0
VERTEX
  5
1B2
  8
1
  6
CONTINUOUS
 62
     7
 10
135.5121593071194
 20
154.6524877137625
 30
0.0
  0
VERTEX
  5
1B3
  8
1
  6
CONTINUOUS
 62
     7
 10
129.1596851556665
 20
157.3582290421618
 30
0.0
  0
SEQEND
  5
343
  8
1
  6
CONTINUOUS
 62
     7
  0
LINE
  5
C5
  8
1
  6
CONTINUOUS
 62
     7
 10
129.1596851556664
 20
157.3582290421618
 30
0.0
 11
128.3333333333333
 21
157.3582290421618
 31
0.0
  0
LINE
  5
C6
  8
1
  6
CONTINUOUS
 62
     7
 10
128.3333333333333
 20
157.3582290421618
 30
0.0
 11
128.3333333333333
 21
158.9017423220002
 31
0.0
  0
POLYLINE
  5
C7
  8
1
  6
CONTINUOUS
 62
     7
 66
     1
 10
0.0
 20
0.0
 30
0.0
  0
VERTEX
  5
1B4
  8
1
  6
CONTINUOUS
 62
     7
 10
129.3246067978362
 20
159.3625971272651
 30
0.0
  0
VERTEX
  5
1B5
  8
1
  6
CONTINUOUS
 62
     7
 10
129.1307596760791
 20
159.35305942256
 30
0.0
  0
VERTEX
  5
1B6
  8
1
  6
CONTINUOUS
 62
     7
 10
128.9446113631818
 20
159.3263694180965
 30
0.0
  0
VERTEX
  5
1B7
  8
1
  6
CONTINUOUS
 62
     7
 10
128.7732364230337
 20
159.2835414671013
 30
0.0
  0
VERTEX
  5
1B8
  8
1
  6
CONTINUOUS
 62
     7
 10
128.6231479577105
 20
159.226203245221
 30
0.0
  0
VERTEX
  5
1B9
  8
1
  6
CONTINUOUS
 62
     7
 10
128.5000500771258
 20
159.1565338907334
 30
0.0
  0
VERTEX
  5
1BA
  8
1
  6
CONTINUOUS
 62
     7
 10
128.4086211144179
 20
159.0771811864295
 30
0.0
  0
VERTEX
  5
1BB
  8
1
  6
CONTINUOUS
 62
     7
 10
128.3523358259676
 20
158.9911609306674
 30
0.0
  0
VERTEX
  5
1BC
  8
1
  6
CONTINUOUS
 62
     7
 10
128.3333333333333
 20
158.9017423220002
 30
0.0
  0
SEQEND
  5
344
  8
1
  6
CONTINUOUS
 62
     7
  0
LINE
  5
C8
  8
1
  6
CONTINUOUS
 62
     7
 10
158.3333333333333
 20
157.3582290421618
 30
0.0
 11
158.3333333333333
 21
158.9017423220002
 31
0.0
  0
LINE
  5
C9
  8
1
  6
CONTINUOUS
 62
     7
 10
157.5069815110003
 20
157.3582290421618
 30
0.0
 11
158.3333333333333
 21
157.3582290421618
 31
0.0
  0
POLYLINE
  5
CA
  8
1
  6
CONTINUOUS
 62
     7
 66
     1
 10
0.0
 20
0.0
 30
0.0
  0
VERTEX
  5
1BD
  8
1
  6
CONTINUOUS
 62
     7
 10
158.3333333333333
 20
158.9017423220002
 30
0.0
  0
VERTEX
  5
1BE
  8
1
  6
CONTINUOUS
 62
     7
 10
158.314330840699
 20
158.9911609306674
 30
0.0
  0
VERTEX
  5
1BF
  8
1
  6
CONTINUOUS
 62
     7
 10
158.2580455522487
 20
159.0771811864295
 30
0.0
  0
VERTEX
  5
1C0
  8
1
  6
CONTINUOUS
 62
     7
 10
158.1666165895408
 20
159.1565338907334
 30
0.0
  0
VERTEX
  5
1C1
  8
1
  6
CONTINUOUS
 62
     7
 10
158.0435187089562
 20
159.226203245221
 30
0.0
  0
VERTEX
  5
1C2
  8
1
  6
CONTINUOUS
 62
     7
 10
157.893430243633
 20
159.2835414671013
 30
0.0
  0
VERTEX
  5
1C3
  8
1
  6
CONTINUOUS
 62
     7
 10
157.7220553034849
 20
159.3263694180965
 30
0.0
  0
VERTEX
  5
1C4
  8
1
  6
CONTINUOUS
 62
     7
 10
157.5359069905875
 20
159.35305942256
 30
0.0
  0
VERTEX
  5
1C5
  8
1
  6
CONTINUOUS
 62
     7
 10
157.3420598688305
 20
159.3625971272651
 30
0.0
  0
SEQEND
  5
345
  8
1
  6
CONTINUOUS
 62
     7
  0
LINE
  5
CB
  8
1
  6
CONTINUOUS
 62
     7
 10
158.3333333333333
 20
141.7316793691475
 30
0.0
 11
158.3333333333333
 21
143.2751926489923
 31
0.0
  0
POLYLINE
  5
CC
  8
1
  6
CONTINUOUS
 62
     7
 66
     1
 10
0.0
 20
0.0
 30
0.0
  0
VERTEX
  5
1C6
  8
1
  6
CONTINUOUS
 62
     7
 10
157.3420598688317
 20
141.2708245638883
 30
0.0
  0
VERTEX
  5
1C7
  8
1
  6
CONTINUOUS
 62
     7
 10
157.5359069905887
 20
141.2803622685933
 30
0.0
  0
VERTEX
  5
1C8
  8
1
  6
CONTINUOUS
 62
     7
 10
157.7220553034858
 20
141.3070522730563
 30
0.0
  0
VERTEX
  5
1C9
  8
1
  6
CONTINUOUS
 62
     7
 10
157.8934302436337
 20
141.3498802240509
 30
0.0
  0
VERTEX
  5
1CA
  8
1
  6
CONTINUOUS
 62
     7
 10
158.0435187089567
 20
141.4072184459306
 30
0.0
  0
VERTEX
  5
1CB
  8
1
  6
CONTINUOUS
 62
     7
 10
158.1666165895411
 20
141.4768878004173
 30
0.0
  0
VERTEX
  5
1CC
  8
1
  6
CONTINUOUS
 62
     7
 10
158.2580455522489
 20
141.5562405047203
 30
0.0
  0
VERTEX
  5
1CD
  8
1
  6
CONTINUOUS
 62
     7
 10
158.3143308406991
 20
141.6422607604814
 30
0.0
  0
VERTEX
  5
1CE
  8
1
  6
CONTINUOUS
 62
     7
 10
158.3333333333333
 20
141.7316793691476
 30
0.0
  0
SEQEND
  5
346
  8
1
  6
CONTINUOUS
 62
     7
  0
LINE
  5
CD
  8
1
  6
CONTINUOUS
 62
     7
 10
157.5069815110003
 20
143.2751926489923
 30
0.0
 11
158.3333333333333
 21
143.2751926489923
 31
0.0
  0
POLYLINE
  5
CE
  8
1
  6
CONTINUOUS
 62
     7
 66
     1
 10
0.0
 20
0.0
 30
0.0
  0
VERTEX
  5
1CF
  8
1
  6
CONTINUOUS
 62
     7
 10
128.3333333333333
 20
141.7316793691476
 30
0.0
  0
VERTEX
  5
1D0
  8
1
  6
CONTINUOUS
 62
     7
 10
128.3523358259676
 20
141.6422607604814
 30
0.0
  0
VERTEX
  5
1D1
  8
1
  6
CONTINUOUS
 62
     7
 10
128.4086211144178
 20
141.5562405047203
 30
0.0
  0
VERTEX
  5
1D2
  8
1
  6
CONTINUOUS
 62
     7
 10
128.5000500771256
 20
141.4768878004173
 30
0.0
  0
VERTEX
  5
1D3
  8
1
  6
CONTINUOUS
 62
     7
 10
128.62314795771
 20
141.4072184459306
 30
0.0
  0
VERTEX
  5
1D4
  8
1
  6
CONTINUOUS
 62
     7
 10
128.773236423033
 20
141.3498802240509
 30
0.0
  0
VERTEX
  5
1D5
  8
1
  6
CONTINUOUS
 62
     7
 10
128.9446113631809
 20
141.3070522730563
 30
0.0
  0
VERTEX
  5
1D6
  8
1
  6
CONTINUOUS
 62
     7
 10
129.130759676078
 20
141.2803622685933
 30
0.0
  0
VERTEX
  5
1D7
  8
1
  6
CONTINUOUS
 62
     7
 10
129.3246067978349
 20
141.2708245638883
 30
0.0
  0
SEQEND
  5
347
  8
1
  6
CONTINUOUS
 62
     7
  0
LINE
  5
CF
  8
1
  6
CONTINUOUS
 62
     7
 10
128.3333333333333
 20
141.7316793691475
 30
0.0
 11
128.3333333333333
 21
143.2751926489923
 31
0.0
  0
LINE
  5
D0
  8
1
  6
CONTINUOUS
 62
     7
 10
129.1596851556664
 20
143.2751926489923
 30
0.0
 11
128.3333333333333
 21
143.2751926489923
 31
0.0
  0
LINE
  5
D1
  8
1
  6
CONTINUOUS
 62
     7
 10
128.3333333333333
 20
143.2751926489923
 30
0.0
 11
128.3333333333333
 21
157.3582290421618
 31
0.0
  0
LINE
  5
D2
  8
1
  6
CONTINUOUS
 62
     7
 10
158.3333333333333
 20
143.2751926489923
 30
0.0
 11
158.3333333333333
 21
157.3582290421618
 31
0.0
  0
LINE
  5
D3
  8
1
  6
CONTINUOUS
 62
     7
 10
128.3333333333333
 20
158.9017423220003
 30
0.0
 11
128.3333333333333
 21
162.530343835354
 31
0.0
  0
LINE
  5
D4
  8
1
  6
CONTINUOUS
 62
     7
 10
158.3333333333333
 20
158.9017423220003
 30
0.0
 11
158.3333333333333
 21
162.530343835354
 31
0.0
  0
LINE
  5
D5
  8
1
  6
CONTINUOUS
 62
     7
 10
128.3333333333333
 20
134.2193073469561
 30
0.0
 11
128.3333333333333
 21
141.7316793691475
 31
0.0
  0
LINE
  5
D6
  8
1
  6
CONTINUOUS
 62
     7
 10
158.3333333333333
 20
134.2193073469561
 30
0.0
 11
158.3333333333333
 21
141.7316793691475
 31
0.0
  0
LINE
  5
D7
  8
1
  6
CONTINUOUS
 62
     7
 10
128.3333333333333
 20
162.7022834780506
 30
0.0
 11
128.3333333333333
 21
162.7019313163125
 31
0.0
  0
LINE
  5
D8
  8
1
  6
CONTINUOUS
 62
     7
 10
128.3333333333333
 20
162.5303438353539
 30
0.0
 11
128.3333333333333
 21
162.6143144563
 31
0.0
  0
LINE
  5
D9
  8
1
  6
CONTINUOUS
 62
     7
 10
128.3333333333333
 20
162.6143144563
 30
0.0
 11
128.3333333333333
 21
162.7022804984972
 31
0.0
  0
LINE
  5
DA
  8
1
  6
CONTINUOUS
 62
     7
 10
158.3333333333333
 20
162.7022834780506
 30
0.0
 11
158.3333333333333
 21
162.7019313163125
 31
0.0
  0
LINE
  5
DB
  8
1
  6
CONTINUOUS
 62
     7
 10
158.3333333333333
 20
162.5303438353539
 30
0.0
 11
158.3333333333333
 21
162.6143144563
 31
0.0
  0
LINE
  5
DC
  8
1
  6
CONTINUOUS
 62
     7
 10
158.3333333333333
 20
162.6143144563
 30
0.0
 11
158.3333333333333
 21
162.7022804984972
 31
0.0
  0
LINE
  5
DD
  8
1
  6
CONTINUOUS
 62
     7
 10
143.3333333333333
 20
164.0254647075184
 30
0.0
 11
143.3333333333333
 21
163.5287856488736
 31
0.0
  0
LINE
  5
DE
  8
1
  6
CONTINUOUS
 62
     7
 10
156.3333333333333
 20
131.407273669011
 30
0.0
 11
156.3333333333333
 21
133.0577552672861
 31
0.0
  0
LINE
  5
DF
  8
1
  6
CONTINUOUS
 62
     7
 10
156.3333333333333
 20
133.0577552672861
 30
0.0
 11
156.3333333333333
 21
133.1471147635974
 31
0.0
  0
LINE
  5
E0
  8
1
  6
CONTINUOUS
 62
     7
 10
156.3333333333333
 20
133.1471147635974
 30
0.0
 11
156.2426736125055
 21
133.3378052773385
 31
0.0
  0
LINE
  5
E1
  8
1
  6
CONTINUOUS
 62
     7
 10
130.3333333333333
 20
131.407273669011
 30
0.0
 11
130.3333333333333
 21
133.0577552672861
 31
0.0
  0
LINE
  5
E2
  8
1
  6
CONTINUOUS
 62
     7
 10
130.3333333333333
 20
133.0577552672861
 30
0.0
 11
130.3333333333333
 21
133.1471147635974
 31
0.0
  0
LINE
  5
E3
  8
1
  6
CONTINUOUS
 62
     7
 10
130.3333333333333
 20
133.1471147635974
 30
0.0
 11
130.4239930541612
 21
133.3378052773385
 31
0.0
  0
LINE
  5
E4
  8
1
  6
CONTINUOUS
 62
     7
 10
154.8464231365809
 20
127.566710845577
 30
0.0
 11
143.3333333333333
 21
127.566710845577
 31
0.0
  0
LINE
  5
E5
  8
1
  6
CONTINUOUS
 62
     7
 10
131.8202435300858
 20
127.566710845577
 30
0.0
 11
143.3333333333333
 21
127.566710845577
 31
0.0
  0
LINE
  5
E6
  8
1
  6
CONTINUOUS
 62
     7
 10
156.3333333333333
 20
127.566710845577
 30
0.0
 11
156.3333333333333
 21
131.407273669011
 31
0.0
  0
LINE
  5
E7
  8
1
  6
CONTINUOUS
 62
     7
 10
154.8464231365809
 20
127.566710845577
 30
0.0
 11
156.3333333333333
 21
127.566710845577
 31
0.0
  0
LINE
  5
E8
  8
1
  6
CONTINUOUS
 62
     7
 10
130.3333333333333
 20
127.566710845577
 30
0.0
 11
130.3333333333333
 21
131.407273669011
 31
0.0
  0
LINE
  5
E9
  8
1
  6
CONTINUOUS
 62
     7
 10
131.8202435300858
 20
127.566710845577
 30
0.0
 11
130.3333333333333
 21
127.566710845577
 31
0.0
  0
LINE
  5
EA
  8
1
  6
CONTINUOUS
 62
     7
 10
158.3333333333333
 20
134.1515088630466
 30
0.0
 11
158.3333333333333
 21
134.1949161852143
 31
0.0
  0
LINE
  5
EB
  8
1
  6
CONTINUOUS
 62
     7
 10
158.3333333333333
 20
134.1949161852143
 30
0.0
 11
158.3333333333333
 21
134.2193073469561
 31
0.0
  0
LINE
  5
EC
  8
1
  6
CONTINUOUS
 62
     7
 10
130.2289700655842
 20
130.9523507998572
 30
0.0
 11
130.3333333333333
 21
130.9532615642971
 31
0.0
  0
LINE
  5
ED
  8
1
  6
CONTINUOUS
 62
     7
 10
130.0333333333333
 20
127.566710845577
 30
0.0
 11
130.3333333333333
 21
127.566710845577
 31
0.0
  0
LINE
  5
EE
  8
1
  6
CONTINUOUS
 62
     7
 10
156.4376966010825
 20
130.9523507998572
 30
0.0
 11
156.3333333333333
 21
130.9532615642971
 31
0.0
  0
LINE
  5
EF
  8
1
  6
CONTINUOUS
 62
     7
 10
156.6333333333334
 20
127.566710845577
 30
0.0
 11
156.3333333333333
 21
127.566710845577
 31
0.0
  0
LINE
  5
F0
  8
1
  6
CONTINUOUS
 62
     7
 10
130.0789700655842
 20
130.9510417696886
 30
0.0
 11
130.2289700655842
 21
130.9523507998572
 31
0.0
  0
LINE
  5
F1
  8
1
  6
CONTINUOUS
 62
     7
 10
129.5833333333333
 20
127.566710845577
 30
0.0
 11
130.0333333333333
 21
127.566710845577
 31
0.0
  0
LINE
  5
F2
  8
1
  6
CONTINUOUS
 62
     7
 10
156.5876966010825
 20
130.9510417696886
 30
0.0
 11
156.4376966010825
 21
130.9523507998572
 31
0.0
  0
LINE
  5
F3
  8
1
  6
CONTINUOUS
 62
     7
 10
157.0833333333333
 20
127.566710845577
 30
0.0
 11
156.6333333333334
 21
127.566710845577
 31
0.0
  0
LINE
  5
F4
  8
1
  6
CONTINUOUS
 62
     7
 10
130.3333333333333
 20
132.9575107666601
 30
0.0
 11
130.3333333333333
 21
133.086360802992
 31
0.0
  0
LINE
  5
F5
  8
1
  6
CONTINUOUS
 62
     7
 10
156.3333333333333
 20
132.9575107666601
 30
0.0
 11
156.3333333333333
 21
133.086360802992
 31
0.0
  0
LINE
  5
F6
  8
1
  6
CONTINUOUS
 62
     7
 10
128.3333333333333
 20
162.7019313163125
 30
0.0
 11
128.3333333333333
 21
162.6086448946183
 31
0.0
  0
LINE
  5
F7
  8
1
  6
CONTINUOUS
 62
     7
 10
128.3333333333333
 20
162.7022834780506
 30
0.0
 11
128.3333333333333
 21
162.7019313163125
 31
0.0
  0
LINE
  5
F8
  8
1
  6
CONTINUOUS
 62
     7
 10
158.3333333333333
 20
162.7022834780506
 30
0.0
 11
158.3333333333333
 21
162.7019313163125
 31
0.0
  0
LINE
  5
F9
  8
1
  6
CONTINUOUS
 62
     7
 10
158.3333333333333
 20
162.7019313163125
 30
0.0
 11
158.3333333333333
 21
162.6086448946183
 31
0.0
  0
ARC
  5
FA
  8
1
  6
CONTINUOUS
 62
     7
 10
129.3333333333333
 20
162.7025570613098
 30
0.0
 40
0.9999999999999982
 50
91.33814022101713
 51
180.0
  0
ARC
  5
FB
  8
1
  6
CONTINUOUS
 62
     7
 10
157.3333333333333
 20
162.7025570613098
 30
0.0
 40
1.000000000000001
 50
0.0
 51
88.66185977898287
  0
LINE
  5
FC
  8
1
  6
CONTINUOUS
 62
     7
 10
157.3566804944616
 20
163.7022839111221
 30
0.0
 11
143.3333397853123
 21
164.0254645598488
 31
0.0
  0
LINE
  5
FD
  8
1
  6
CONTINUOUS
 62
     7
 10
143.3333268813544
 20
164.0254645598488
 30
0.0
 11
129.3099861722051
 21
163.7022839111221
 31
0.0
  0
ARC
  5
FE
  8
1
  6
CONTINUOUS
 62
     7
 10
129.3333333333333
 20
134.1513799562237
 30
0.0
 40
1.000000000000001
 50
180.0
 51
269.1302929129615
  0
LINE
  5
FF
  8
1
  6
CONTINUOUS
 62
     7
 10
156.333337522466
 20
133.1360922408536
 30
0.0
 11
157.3607707185004
 21
133.151681420928
 31
0.0
  0
ARC
  5
100
  8
1
  6
CONTINUOUS
 62
     7
 10
157.3333333333333
 20
134.1513799562237
 30
0.0
 40
0.9999999999999934
 50
270.8697070870384
 51
0.0
  0
LINE
  5
101
  8
1
  6
CONTINUOUS
 62
     7
 10
129.3058959481663
 20
133.151681420928
 30
0.0
 11
130.3333291442007
 21
133.1360922408536
 31
0.0
  0
POLYLINE
  5
102
  8
1
  6
CONTINUOUS
 62
     7
 66
     1
 10
0.0
 20
0.0
 30
0.0
  0
VERTEX
  5
1D8
  8
1
  6
CONTINUOUS
 62
     7
 10
130.0800368767831
 20
130.9510510796089
 30
0.0
  0
VERTEX
  5
1D9
  8
1
  6
CONTINUOUS
 62
     7
 10
130.0582085725304
 20
130.9503823712846
 30
0.0
  0
VERTEX
  5
1DA
  8
1
  6
CONTINUOUS
 62
     7
 10
130.0364219728844
 20
130.9487585153302
 30
0.0
  0
VERTEX
  5
1DB
  8
1
  6
CONTINUOUS
 62
     7
 10
130.0147191051615
 20
130.9461826279219
 30
0.0
  0
VERTEX
  5
1DC
  8
1
  6
CONTINUOUS
 62
     7
 10
129.9931418553822
 20
130.9426596459507
 30
0.0
  0
VERTEX
  5
1DD
  8
1
  6
CONTINUOUS
 62
     7
 10
129.971731886157
 20
130.9381963175359
 30
0.0
  0
VERTEX
  5
1DE
  8
1
  6
CONTINUOUS
 62
     7
 10
129.9509070825814
 20
130.9329056445052
 30
0.0
  0
VERTEX
  5
1DF
  8
1
  6
CONTINUOUS
 62
     7
 10
129.9303223525798
 20
130.9267259177082
 30
0.0
  0
VERTEX
  5
1E0
  8
1
  6
CONTINUOUS
 62
     7
 10
129.9100160825223
 20
130.9196685469997
 30
0.0
  0
VERTEX
  5
1E1
  8
1
  6
CONTINUOUS
 62
     7
 10
129.8900261532029
 20
130.9117465611045
 30
0.0
  0
VERTEX
  5
1E2
  8
1
  6
CONTINUOUS
 62
     7
 10
129.8700363474245
 20
130.9028073238147
 30
0.0
  0
VERTEX
  5
1E3
  8
1
  6
CONTINUOUS
 62
     7
 10
129.8504518450087
 20
130.8930040154807
 30
0.0
  0
VERTEX
  5
1E4
  8
1
  6
CONTINUOUS
 62
     7
 10
129.8313105580339
 20
130.8823553937367
 30
0.0
  0
VERTEX
  5
1E5
  8
1
  6
CONTINUOUS
 62
     7
 10
129.8126495516276
 20
130.8708818325416
 30
0.0
  0
VERTEX
  5
1E6
  8
1
  6
CONTINUOUS
 62
     7
 10
129.794504971102
 20
130.8586052831966
 30
0.0
  0
VERTEX
  5
1E7
  8
1
  6
CONTINUOUS
 62
     7
 10
129.7772210955575
 20
130.8457890691093
 30
0.0
  0
VERTEX
  5
1E8
  8
1
  6
CONTINUOUS
 62
     7
 10
129.7605015897896
 20
130.8322445906043
 30
0.0
  0
VERTEX
  5
1E9
  8
1
  6
CONTINUOUS
 62
     7
 10
129.7443777160258
 20
130.817996841389
 30
0.0
  0
VERTEX
  5
1EA
  8
1
  6
CONTINUOUS
 62
     7
 10
129.7288796295214
 20
130.8030721122151
 30
0.0
  0
VERTEX
  5
1EB
  8
1
  6
CONTINUOUS
 62
     7
 10
129.7120645128455
 20
130.7853254453889
 30
0.0
  0
VERTEX
  5
1EC
  8
1
  6
CONTINUOUS
 62
     7
 10
129.6961355127426
 20
130.7667824621486
 30
0.0
  0
VERTEX
  5
1ED
  8
1
  6
CONTINUOUS
 62
     7
 10
129.6811311216186
 20
130.7474873420999
 30
0.0
  0
VERTEX
  5
1EE
  8
1
  6
CONTINUOUS
 62
     7
 10
129.6670876048998
 20
130.7274860559721
 30
0.0
  0
VERTEX
  5
1EF
  8
1
  6
CONTINUOUS
 62
     7
 10
129.6540389120687
 20
130.7068262561296
 30
0.0
  0
VERTEX
  5
1F0
  8
1
  6
CONTINUOUS
 62
     7
 10
129.6420165933637
 20
130.6855571630825
 30
0.0
  0
VERTEX
  5
1F1
  8
1
  6
CONTINUOUS
 62
     7
 10
129.6310497223525
 20
130.6637294482657
 30
0.0
  0
VERTEX
  5
1F2
  8
1
  6
CONTINUOUS
 62
     7
 10
129.6211648245698
 20
130.6413951133673
 30
0.0
  0
VERTEX
  5
1F3
  8
1
  6
CONTINUOUS
 62
     7
 10
129.6123858123968
 20
130.6186073664915
 30
0.0
  0
VERTEX
  5
1F4
  8
1
  6
CONTINUOUS
 62
     7
 10
129.6047339263443
 20
130.5954204954518
 30
0.0
  0
VERTEX
  5
1F5
  8
1
  6
CONTINUOUS
 62
     7
 10
129.598227682886
 20
130.5718897384951
 30
0.0
  0
VERTEX
  5
1F6
  8
1
  6
CONTINUOUS
 62
     7
 10
129.5928828289703
 20
130.5480711527657
 30
0.0
  0
VERTEX
  5
1F7
  8
1
  6
CONTINUOUS
 62
     7
 10
129.5887123033247
 20
130.5240214808202
 30
0.0
  0
VERTEX
  5
1F8
  8
1
  6
CONTINUOUS
 62
     7
 10
129.5857262046492
 20
130.4997980155121
 30
0.0
  0
VERTEX
  5
1F9
  8
1
  6
CONTINUOUS
 62
     7
 10
129.5839317667766
 20
130.4754584635681
 30
0.0
  0
VERTEX
  5
1FA
  8
1
  6
CONTINUOUS
 62
     7
 10
129.5833333408631
 20
130.4510608081785
 30
0.0
  0
SEQEND
  5
348
  8
1
  6
CONTINUOUS
 62
     7
  0
LINE
  5
103
  8
1
  6
CONTINUOUS
 62
     7
 10
129.5833333333333
 20
130.4510608081565
 30
0.0
 11
129.5833333333333
 21
127.566710845577
 31
0.0
  0
POLYLINE
  5
104
  8
1
  6
CONTINUOUS
 62
     7
 66
     1
 10
0.0
 20
0.0
 30
0.0
  0
VERTEX
  5
1FB
  8
1
  6
CONTINUOUS
 62
     7
 10
157.0833333258036
 20
130.4510608081785
 30
0.0
  0
VERTEX
  5
1FC
  8
1
  6
CONTINUOUS
 62
     7
 10
157.0827348998901
 20
130.4754584635681
 30
0.0
  0
VERTEX
  5
1FD
  8
1
  6
CONTINUOUS
 62
     7
 10
157.0809404620175
 20
130.4997980155121
 30
0.0
  0
VERTEX
  5
1FE
  8
1
  6
CONTINUOUS
 62
     7
 10
157.0779543633419
 20
130.5240214808202
 30
0.0
  0
VERTEX
  5
1FF
  8
1
  6
CONTINUOUS
 62
     7
 10
157.0737838376964
 20
130.5480711527657
 30
0.0
  0
VERTEX
  5
200
  8
1
  6
CONTINUOUS
 62
     7
 10
157.0684389837807
 20
130.5718897384951
 30
0.0
  0
VERTEX
  5
201
  8
1
  6
CONTINUOUS
 62
     7
 10
157.0619327403223
 20
130.5954204954518
 30
0.0
  0
VERTEX
  5
202
  8
1
  6
CONTINUOUS
 62
     7
 10
157.0542808542699
 20
130.6186073664915
 30
0.0
  0
VERTEX
  5
203
  8
1
  6
CONTINUOUS
 62
     7
 10
157.0455018420968
 20
130.6413951133673
 30
0.0
  0
VERTEX
  5
204
  8
1
  6
CONTINUOUS
 62
     7
 10
157.0356169443141
 20
130.6637294482657
 30
0.0
  0
VERTEX
  5
205
  8
1
  6
CONTINUOUS
 62
     7
 10
157.024650073303
 20
130.6855571630825
 30
0.0
  0
VERTEX
  5
206
  8
1
  6
CONTINUOUS
 62
     7
 10
157.012627754598
 20
130.7068262561296
 30
0.0
  0
VERTEX
  5
207
  8
1
  6
CONTINUOUS
 62
     7
 10
156.9995790617669
 20
130.7274860559721
 30
0.0
  0
VERTEX
  5
208
  8
1
  6
CONTINUOUS
 62
     7
 10
156.9855355450481
 20
130.7474873420999
 30
0.0
  0
VERTEX
  5
209
  8
1
  6
CONTINUOUS
 62
     7
 10
156.970531153924
 20
130.7667824621486
 30
0.0
  0
VERTEX
  5
20A
  8
1
  6
CONTINUOUS
 62
     7
 10
156.9546021538212
 20
130.7853254453889
 30
0.0
  0
VERTEX
  5
20B
  8
1
  6
CONTINUOUS
 62
     7
 10
156.9377870371453
 20
130.8030721122151
 30
0.0
  0
VERTEX
  5
20C
  8
1
  6
CONTINUOUS
 62
     7
 10
156.9220012852029
 20
130.8182620153871
 30
0.0
  0
VERTEX
  5
20D
  8
1
  6
CONTINUOUS
 62
     7
 10
156.9055673447167
 20
130.832749594051
 30
0.0
  0
VERTEX
  5
20E
  8
1
  6
CONTINUOUS
 62
     7
 10
156.8885170782629
 20
130.8465071340882
 30
0.0
  0
VERTEX
  5
20F
  8
1
  6
CONTINUOUS
 62
     7
 10
156.8708835358248
 20
130.8595083171906
 30
0.0
  0
VERTEX
  5
210
  8
1
  6
CONTINUOUS
 62
     7
 10
156.8527008897651
 20
130.8717282711982
 30
0.0
  0
VERTEX
  5
211
  8
1
  6
CONTINUOUS
 62
     7
 10
156.8343425318926
 20
130.882946956756
 30
0.0
  0
VERTEX
  5
212
  8
1
  6
CONTINUOUS
 62
     7
 10
156.8155227840472
 20
130.8933688056881
 30
0.0
  0
VERTEX
  5
213
  8
1
  6
CONTINUOUS
 62
     7
 10
156.7962767985819
 20
130.9029745835548
 30
0.0
  0
VERTEX
  5
214
  8
1
  6
CONTINUOUS
 62
     7
 10
156.7766405134638
 20
130.9117465611045
 30
0.0
  0
VERTEX
  5
215
  8
1
  6
CONTINUOUS
 62
     7
 10
156.7562840888424
 20
130.9198046219342
 30
0.0
  0
VERTEX
  5
216
  8
1
  6
CONTINUOUS
 62
     7
 10
156.7356004263305
 20
130.9269660858445
 30
0.0
  0
VERTEX
  5
217
  8
1
  6
CONTINUOUS
 62
     7
 10
156.7146295259588
 20
130.93321724685
 30
0.0
  0
VERTEX
  5
218
  8
1
  6
CONTINUOUS
 62
     7
 10
156.6934119282879
 20
130.9385461396824
 30
0.0
  0
VERTEX
  5
219
  8
1
  6
CONTINUOUS
 62
     7
 10
156.6719886348235
 20
130.9429425627073
 30
0.0
  0
VERTEX
  5
21A
  8
1
  6
CONTINUOUS
 62
     7
 10
156.6507877203012
 20
130.9463446832817
 30
0.0
  0
VERTEX
  5
21B
  8
1
  6
CONTINUOUS
 62
     7
 10
156.6294677932214
 20
130.948832927434
 30
0.0
  0
VERTEX
  5
21C
  8
1
  6
CONTINUOUS
 62
     7
 10
156.6080685435233
 20
130.9504026948531
 30
0.0
  0
VERTEX
  5
21D
  8
1
  6
CONTINUOUS
 62
     7
 10
156.5866297898835
 20
130.9510510796089
 30
0.0
  0
SEQEND
  5
349
  8
1
  6
CONTINUOUS
 62
     7
  0
LINE
  5
105
  8
1
  6
CONTINUOUS
 62
     7
 10
157.0833333333333
 20
127.566710845577
 30
0.0
 11
157.0833333333333
 21
130.4510608081565
 31
0.0
  0
ENDBLK
  8
0
  0
BLOCK
  8
0
  2
D_FRAME_VIEW_1673
 70
     0
 10
0.0
 20
0.0
 30
0.0
  0
LINE
  5
10A
  8
1
  6
CONTINUOUS
 62
     7
 10
58.64588104981723
 20
195.1579401311683
 30
0.0
 11
58.76813335420942
 21
209.1666666666667
 31
0.0
  0
LINE
  5
10B
  8
1
  6
CONTINUOUS
 62
     7
 10
83.02078561684944
 20
223.175393202165
 30
0.0
 11
82.89853331245723
 21
209.1666666666667
 31
0.0
  0
LINE
  5
10C
  8
1
  6
CONTINUOUS
 62
     7
 10
83.02078561684944
 20
195.1579401311683
 30
0.0
 11
82.89853331245723
 21
209.1666666666667
 31
0.0
  0
LINE
  5
10D
  8
1
  6
CONTINUOUS
 62
     7
 10
58.64588104981723
 20
223.175393202165
 30
0.0
 11
58.76813335420942
 21
209.1666666666667
 31
0.0
  0
LINE
  5
10E
  8
1
  6
CONTINUOUS
 62
     7
 10
56.76842764652508
 20
194.1666666666667
 30
0.0
 11
57.64591912675306
 21
194.1666666666667
 31
0.0
  0
ARC
  5
10F
  8
1
  6
CONTINUOUS
 62
     7
 10
57.64591912675306
 20
195.1666666666667
 30
0.0
 40
0.9999999999999959
 50
270.0
 51
359.5000000000001
  0
LINE
  5
110
  8
1
  6
CONTINUOUS
 62
     7
 10
84.89823902014159
 20
194.1666666666667
 30
0.0
 11
84.0207475399136
 21
194.1666666666667
 31
0.0
  0
ARC
  5
111
  8
1
  6
CONTINUOUS
 62
     7
 10
84.0207475399136
 20
195.1666666666667
 30
0.0
 40
1.000000000000003
 50
180.5
 51
270.0
  0
LINE
  5
112
  8
1
  6
CONTINUOUS
 62
     7
 10
84.89823902014159
 20
224.1666666666667
 30
0.0
 11
84.0207475399136
 21
224.1666666666667
 31
0.0
  0
ARC
  5
113
  8
1
  6
CONTINUOUS
 62
     7
 10
84.0207475399136
 20
223.1666666666667
 30
0.0
 40
1.000000000000003
 50
90.0
 51
179.5
  0
LINE
  5
114
  8
1
  6
CONTINUOUS
 62
     7
 10
56.76842764652508
 20
224.1666666666667
 30
0.0
 11
57.64591912675306
 21
224.1666666666667
 31
0.0
  0
ARC
  5
115
  8
1
  6
CONTINUOUS
 62
     7
 10
57.64591912675306
 20
223.1666666666667
 30
0.0
 40
0.9999999999999959
 50
0.4999999999999834
 51
90.0
  0
LINE
  5
116
  8
1
  6
CONTINUOUS
 62
     7
 10
87.36486796677261
 20
194.1666666666667
 30
0.0
 11
84.8982390201416
 21
194.1666666666667
 31
0.0
  0
LINE
  5
117
  8
1
  6
CONTINUOUS
 62
     7
 10
54.30179869989406
 20
194.1666666666667
 30
0.0
 11
56.76842764652505
 21
194.1666666666667
 31
0.0
  0
LINE
  5
118
  8
1
  6
CONTINUOUS
 62
     7
 10
54.30179869989406
 20
224.1666666666667
 30
0.0
 11
56.76842764652505
 21
224.1666666666667
 31
0.0
  0
LINE
  5
119
  8
1
  6
CONTINUOUS
 62
     7
 10
87.36486796677261
 20
224.1666666666667
 30
0.0
 11
84.8982390201416
 21
224.1666666666667
 31
0.0
  0
LINE
  5
11A
  8
1
  6
CONTINUOUS
 62
     7
 10
62.21111910587694
 20
194.1666666666667
 30
0.0
 11
57.72060272472548
 21
194.1666666666667
 31
0.0
  0
POLYLINE
  5
11B
  8
1
  6
CONTINUOUS
 62
     7
 66
     1
 10
0.0
 20
0.0
 30
0.0
  0
VERTEX
  5
220
  8
1
  6
CONTINUOUS
 62
     7
 10
62.95345736453485
 20
194.4966413613729
 30
0.0
  0
VERTEX
  5
221
  8
1
  6
CONTINUOUS
 62
     7
 10
62.92402887402235
 20
194.4654108913016
 30
0.0
  0
VERTEX
  5
222
  8
1
  6
CONTINUOUS
 62
     7
 10
62.89344097643254
 20
194.4356147772898
 30
0.0
  0
VERTEX
  5
223
  8
1
  6
CONTINUOUS
 62
     7
 10
62.86165084218337
 20
194.407187595159
 30
0.0
  0
VERTEX
  5
224
  8
1
  6
CONTINUOUS
 62
     7
 10
62.8288472426663
 20
194.3802749392058
 30
0.0
  0
VERTEX
  5
225
  8
1
  6
CONTINUOUS
 62
     7
 10
62.79722426085857
 20
194.3564319784616
 30
0.0
  0
VERTEX
  5
226
  8
1
  6
CONTINUOUS
 62
     7
 10
62.76488970087767
 20
194.3339973877134
 30
0.0
  0
VERTEX
  5
227
  8
1
  6
CONTINUOUS
 62
     7
 10
62.73171428405254
 20
194.3128632821274
 30
0.0
  0
VERTEX
  5
228
  8
1
  6
CONTINUOUS
 62
     7
 10
62.69794274209711
 20
194.2931663820542
 30
0.0
  0
VERTEX
  5
229
  8
1
  6
CONTINUOUS
 62
     7
 10
62.66305155836019
 20
194.2746147349767
 30
0.0
  0
VERTEX
  5
22A
  8
1
  6
CONTINUOUS
 62
     7
 10
62.62766453529349
 20
194.2575517645601
 30
0.0
  0
VERTEX
  5
22B
  8
1
  6
CONTINUOUS
 62
     7
 10
62.59164982359215
 20
194.2418985833405
 30
0.0
  0
VERTEX
  5
22C
  8
1
  6
CONTINUOUS
 62
     7
 10
62.55524808302107
 20
194.2277442805826
 30
0.0
  0
VERTEX
  5
22D
  8
1
  6
CONTINUOUS
 62
     7
 10
62.51363098402854
 20
194.2135213260124
 30
0.0
  0
VERTEX
  5
22E
  8
1
  6
CONTINUOUS
 62
     7
 10
62.4716613593943
 20
194.2012042209278
 30
0.0
  0
VERTEX
  5
22F
  8
1
  6
CONTINUOUS
 62
     7
 10
62.42915557248041
 20
194.1907262839811
 30
0.0
  0
VERTEX
  5
230
  8
1
  6
CONTINUOUS
 62
     7
 10
62.38643483359641
 20
194.1821544038612
 30
0.0
  0
VERTEX
  5
231
  8
1
  6
CONTINUOUS
 62
     7
 10
62.34279620098308
 20
194.1753742290135
 30
0.0
  0
VERTEX
  5
232
  8
1
  6
CONTINUOUS
 62
     7
 10
62.29907101885885
 20
194.1705419450566
 30
0.0
  0
VERTEX
  5
233
  8
1
  6
CONTINUOUS
 62
     7
 10
62.25507451518365
 20
194.1676333778198
 30
0.0
  0
VERTEX
  5
234
  8
1
  6
CONTINUOUS
 62
     7
 10
62.21111910587697
 20
194.1666666666667
 30
0.0
  0
SEQEND
  5
34A
  8
1
  6
CONTINUOUS
 62
     7
  0
LINE
  5
11C
  8
1
  6
CONTINUOUS
 62
     7
 10
79.45554756078973
 20
194.1666666666667
 30
0.0
 11
83.94606394194118
 21
194.1666666666667
 31
0.0
  0
POLYLINE
  5
11D
  8
1
  6
CONTINUOUS
 62
     7
 66
     1
 10
0.0
 20
0.0
 30
0.0
  0
VERTEX
  5
235
  8
1
  6
CONTINUOUS
 62
     7
 10
78.71320930213182
 20
194.4966413613729
 30
0.0
  0
VERTEX
  5
236
  8
1
  6
CONTINUOUS
 62
     7
 10
78.74266626137334
 20
194.4653825450204
 30
0.0
  0
VERTEX
  5
237
  8
1
  6
CONTINUOUS
 62
     7
 10
78.77322569023411
 20
194.4356147772898
 30
0.0
  0
VERTEX
  5
238
  8
1
  6
CONTINUOUS
 62
     7
 10
78.80504465030283
 20
194.407163391155
 30
0.0
  0
VERTEX
  5
239
  8
1
  6
CONTINUOUS
 62
     7
 10
78.83781942400036
 20
194.3802749392058
 30
0.0
  0
VERTEX
  5
23A
  8
1
  6
CONTINUOUS
 62
     7
 10
78.88025894414096
 20
194.3487197735983
 30
0.0
  0
VERTEX
  5
23B
  8
1
  6
CONTINUOUS
 62
     7
 10
78.9239606383803
 20
194.3196664378734
 30
0.0
  0
VERTEX
  5
23C
  8
1
  6
CONTINUOUS
 62
     7
 10
78.96872392456955
 20
194.2931663820542
 30
0.0
  0
VERTEX
  5
23D
  8
1
  6
CONTINUOUS
 62
     7
 10
79.01547274402368
 20
194.2687082599178
 30
0.0
  0
VERTEX
  5
23E
  8
1
  6
CONTINUOUS
 62
     7
 10
79.06310072101488
 20
194.2468946532421
 30
0.0
  0
VERTEX
  5
23F
  8
1
  6
CONTINUOUS
 62
     7
 10
79.11141858364559
 20
194.2277442805826
 30
0.0
  0
VERTEX
  5
240
  8
1
  6
CONTINUOUS
 62
     7
 10
79.16714499961668
 20
194.2091606611593
 30
0.0
  0
VERTEX
  5
241
  8
1
  6
CONTINUOUS
 62
     7
 10
79.2234965739182
 20
194.1939662858068
 30
0.0
  0
VERTEX
  5
242
  8
1
  6
CONTINUOUS
 62
     7
 10
79.28023183307026
 20
194.1821544038612
 30
0.0
  0
VERTEX
  5
243
  8
1
  6
CONTINUOUS
 62
     7
 10
79.33859221676394
 20
194.1735321946865
 30
0.0
  0
VERTEX
  5
244
  8
1
  6
CONTINUOUS
 62
     7
 10
79.39710577804644
 20
194.1683785709883
 30
0.0
  0
VERTEX
  5
245
  8
1
  6
CONTINUOUS
 62
     7
 10
79.4555475607897
 20
194.1666666666667
 30
0.0
  0
SEQEND
  5
34B
  8
1
  6
CONTINUOUS
 62
     7
  0
LINE
  5
11E
  8
1
  6
CONTINUOUS
 62
     7
 10
62.21111910587694
 20
224.1666666666667
 30
0.0
 11
57.72060272472548
 21
224.1666666666667
 31
0.0
  0
POLYLINE
  5
11F
  8
1
  6
CONTINUOUS
 62
     7
 66
     1
 10
0.0
 20
0.0
 30
0.0
  0
VERTEX
  5
246
  8
1
  6
CONTINUOUS
 62
     7
 10
62.95345736453485
 20
223.8366919719604
 30
0.0
  0
VERTEX
  5
247
  8
1
  6
CONTINUOUS
 62
     7
 10
62.92402887402235
 20
223.8679224420318
 30
0.0
  0
VERTEX
  5
248
  8
1
  6
CONTINUOUS
 62
     7
 10
62.89344097643254
 20
223.8977185560436
 30
0.0
  0
VERTEX
  5
249
  8
1
  6
CONTINUOUS
 62
     7
 10
62.86165084218337
 20
223.9261457381743
 30
0.0
  0
VERTEX
  5
24A
  8
1
  6
CONTINUOUS
 62
     7
 10
62.8288472426663
 20
223.9530583941275
 30
0.0
  0
VERTEX
  5
24B
  8
1
  6
CONTINUOUS
 62
     7
 10
62.79722426085857
 20
223.9769013548717
 30
0.0
  0
VERTEX
  5
24C
  8
1
  6
CONTINUOUS
 62
     7
 10
62.76488970087767
 20
223.9993359456199
 30
0.0
  0
VERTEX
  5
24D
  8
1
  6
CONTINUOUS
 62
     7
 10
62.73171428405254
 20
224.0204700512059
 30
0.0
  0
VERTEX
  5
24E
  8
1
  6
CONTINUOUS
 62
     7
 10
62.69794274209711
 20
224.0401669512791
 30
0.0
  0
VERTEX
  5
24F
  8
1
  6
CONTINUOUS
 62
     7
 10
62.66305155836019
 20
224.0587185983566
 30
0.0
  0
VERTEX
  5
250
  8
1
  6
CONTINUOUS
 62
     7
 10
62.62766453529349
 20
224.0757815687732
 30
0.0
  0
VERTEX
  5
251
  8
1
  6
CONTINUOUS
 62
     7
 10
62.59164982359215
 20
224.0914347499928
 30
0.0
  0
VERTEX
  5
252
  8
1
  6
CONTINUOUS
 62
     7
 10
62.55524808302107
 20
224.1055890527507
 30
0.0
  0
VERTEX
  5
253
  8
1
  6
CONTINUOUS
 62
     7
 10
62.51363098402854
 20
224.1198120073209
 30
0.0
  0
VERTEX
  5
254
  8
1
  6
CONTINUOUS
 62
     7
 10
62.4716613593943
 20
224.1321291124056
 30
0.0
  0
VERTEX
  5
255
  8
1
  6
CONTINUOUS
 62
     7
 10
62.42915557248041
 20
224.1426070493523
 30
0.0
  0
VERTEX
  5
256
  8
1
  6
CONTINUOUS
 62
     7
 10
62.38643483359641
 20
224.1511789294721
 30
0.0
  0
VERTEX
  5
257
  8
1
  6
CONTINUOUS
 62
     7
 10
62.34279620098308
 20
224.1579591043198
 30
0.0
  0
VERTEX
  5
258
  8
1
  6
CONTINUOUS
 62
     7
 10
62.29907101885885
 20
224.1627913882768
 30
0.0
  0
VERTEX
  5
259
  8
1
  6
CONTINUOUS
 62
     7
 10
62.25507451518365
 20
224.1656999555136
 30
0.0
  0
VERTEX
  5
25A
  8
1
  6
CONTINUOUS
 62
     7
 10
62.21111910587697
 20
224.1666666666667
 30
0.0
  0
SEQEND
  5
34C
  8
1
  6
CONTINUOUS
 62
     7
  0
LINE
  5
120
  8
1
  6
CONTINUOUS
 62
     7
 10
79.45554756078973
 20
224.1666666666667
 30
0.0
 11
83.94606394194118
 21
224.1666666666667
 31
0.0
  0
POLYLINE
  5
121
  8
1
  6
CONTINUOUS
 62
     7
 66
     1
 10
0.0
 20
0.0
 30
0.0
  0
VERTEX
  5
25B
  8
1
  6
CONTINUOUS
 62
     7
 10
78.71320930213182
 20
223.8366919719604
 30
0.0
  0
VERTEX
  5
25C
  8
1
  6
CONTINUOUS
 62
     7
 10
78.74266626137334
 20
223.867950788313
 30
0.0
  0
VERTEX
  5
25D
  8
1
  6
CONTINUOUS
 62
     7
 10
78.77322569023411
 20
223.8977185560436
 30
0.0
  0
VERTEX
  5
25E
  8
1
  6
CONTINUOUS
 62
     7
 10
78.80504465030283
 20
223.9261699421783
 30
0.0
  0
VERTEX
  5
25F
  8
1
  6
CONTINUOUS
 62
     7
 10
78.83781942400036
 20
223.9530583941275
 30
0.0
  0
VERTEX
  5
260
  8
1
  6
CONTINUOUS
 62
     7
 10
78.88025894414096
 20
223.984613559735
 30
0.0
  0
VERTEX
  5
261
  8
1
  6
CONTINUOUS
 62
     7
 10
78.9239606383803
 20
224.0136668954599
 30
0.0
  0
VERTEX
  5
262
  8
1
  6
CONTINUOUS
 62
     7
 10
78.96872392456955
 20
224.0401669512791
 30
0.0
  0
VERTEX
  5
263
  8
1
  6
CONTINUOUS
 62
     7
 10
79.01547274402368
 20
224.0646250734156
 30
0.0
  0
VERTEX
  5
264
  8
1
  6
CONTINUOUS
 62
     7
 10
79.06310072101488
 20
224.0864386800912
 30
0.0
  0
VERTEX
  5
265
  8
1
  6
CONTINUOUS
 62
     7
 10
79.11141858364559
 20
224.1055890527507
 30
0.0
  0
VERTEX
  5
266
  8
1
  6
CONTINUOUS
 62
     7
 10
79.16714499961668
 20
224.124172672174
 30
0.0
  0
VERTEX
  5
267
  8
1
  6
CONTINUOUS
 62
     7
 10
79.2234965739182
 20
224.1393670475265
 30
0.0
  0
VERTEX
  5
268
  8
1
  6
CONTINUOUS
 62
     7
 10
79.28023183307026
 20
224.1511789294721
 30
0.0
  0
VERTEX
  5
269
  8
1
  6
CONTINUOUS
 62
     7
 10
79.33859221676394
 20
224.1598011386468
 30
0.0
  0
VERTEX
  5
26A
  8
1
  6
CONTINUOUS
 62
     7
 10
79.39710577804644
 20
224.164954762345
 30
0.0
  0
VERTEX
  5
26B
  8
1
  6
CONTINUOUS
 62
     7
 10
79.4555475607897
 20
224.1666666666667
 30
0.0
  0
SEQEND
  5
34D
  8
1
  6
CONTINUOUS
 62
     7
  0
LINE
  5
122
  8
1
  6
CONTINUOUS
 62
     7
 10
90.49203721126624
 20
204.9914642686215
 30
0.0
 11
88.72904145516826
 21
194.9930184889998
 31
0.0
  0
ARC
  5
123
  8
1
  6
CONTINUOUS
 62
     7
 10
53.92243296451063
 20
195.1666666666667
 30
0.0
 40
1.000000000000005
 50
190.0000000000005
 51
270.0000000000002
  0
LINE
  5
124
  8
1
  6
CONTINUOUS
 62
     7
 10
53.92243296451062
 20
194.1666666666667
 30
0.0
 11
54.12684044211825
 21
194.1666666666667
 31
0.0
  0
LINE
  5
125
  8
1
  6
CONTINUOUS
 62
     7
 10
54.12683000930505
 20
194.1666666666667
 30
0.0
 11
54.30179869989411
 21
194.1666666666667
 31
0.0
  0
LINE
  5
126
  8
1
  6
CONTINUOUS
 62
     7
 10
51.17462945540042
 20
204.9914642686215
 30
0.0
 11
52.9376252114984
 21
194.9930184889998
 31
0.0
  0
ARC
  5
127
  8
1
  6
CONTINUOUS
 62
     7
 10
87.74423370215604
 20
195.1666666666667
 30
0.0
 40
1.000000000000005
 50
269.9999999999998
 51
349.9999999999995
  0
LINE
  5
128
  8
1
  6
CONTINUOUS
 62
     7
 10
87.74423370215604
 20
194.1666666666667
 30
0.0
 11
87.36486796677255
 21
194.1666666666667
 31
0.0
  0
LINE
  5
129
  8
1
  6
CONTINUOUS
 62
     7
 10
90.49203721126624
 20
213.3418690647119
 30
0.0
 11
88.72904145516826
 21
223.3403148443335
 31
0.0
  0
LINE
  5
12A
  8
1
  6
CONTINUOUS
 62
     7
 10
51.17462945540042
 20
213.3418690647119
 30
0.0
 11
52.9376252114984
 21
223.3403148443335
 31
0.0
  0
ARC
  5
12B
  8
1
  6
CONTINUOUS
 62
     7
 10
53.92243296451063
 20
223.1666666666667
 30
0.0
 40
1.000000000000005
 50
89.99999999999982
 51
169.9999999999995
  0
LINE
  5
12C
  8
1
  6
CONTINUOUS
 62
     7
 10
53.92243296451062
 20
224.1666666666667
 30
0.0
 11
54.12684044211825
 21
224.1666666666667
 31
0.0
  0
LINE
  5
12D
  8
1
  6
CONTINUOUS
 62
     7
 10
54.12683000930505
 20
224.1666666666667
 30
0.0
 11
54.30179869989411
 21
224.1666666666667
 31
0.0
  0
ARC
  5
12E
  8
1
  6
CONTINUOUS
 62
     7
 10
87.74423370215604
 20
223.1666666666667
 30
0.0
 40
1.000000000000005
 50
10.00000000000045
 51
90.00000000000016
  0
LINE
  5
12F
  8
1
  6
CONTINUOUS
 62
     7
 10
87.74423370215604
 20
224.1666666666667
 30
0.0
 11
87.36486796677255
 21
224.1666666666667
 31
0.0
  0
LINE
  5
130
  8
1
  6
CONTINUOUS
 62
     7
 10
78.45558563772552
 20
195.1579401311683
 30
0.0
 11
78.33333333333334
 21
209.1666666666667
 31
0.0
  0
LINE
  5
131
  8
1
  6
CONTINUOUS
 62
     7
 10
78.71320930213182
 20
194.4966413613729
 30
0.0
 11
78.64124253566163
 21
194.5862324909749
 31
0.0
  0
ARC
  5
132
  8
1
  6
CONTINUOUS
 62
     7
 10
79.45552958545886
 20
195.1666632651743
 30
0.0
 40
0.9999816413840786
 50
189.7911153746433
 51
215.4815964862191
  0
POLYLINE
  5
133
  8
1
  6
CONTINUOUS
 62
     7
 66
     1
 10
0.0
 20
0.0
 30
0.0
  0
VERTEX
  5
26C
  8
1
  6
CONTINUOUS
 62
     7
 10
78.47011339633194
 20
194.9966096932865
 30
0.0
  0
VERTEX
  5
26D
  8
1
  6
CONTINUOUS
 62
     7
 10
78.45773023613755
 20
195.1006342102281
 30
0.0
  0
VERTEX
  5
26E
  8
1
  6
CONTINUOUS
 62
     7
 10
78.45558563772552
 20
195.1579401311683
 30
0.0
  0
SEQEND
  5
34E
  8
1
  6
CONTINUOUS
 62
     7
  0
LINE
  5
134
  8
1
  6
CONTINUOUS
 62
     7
 10
63.21108102894114
 20
195.1579401311683
 30
0.0
 11
63.33333333333332
 21
209.1666666666667
 31
0.0
  0
LINE
  5
135
  8
1
  6
CONTINUOUS
 62
     7
 10
62.95345736453485
 20
194.4966413613729
 30
0.0
 11
63.02542413100502
 21
194.5862324909749
 31
0.0
  0
ARC
  5
136
  8
1
  6
CONTINUOUS
 62
     7
 10
62.2111370812078
 20
195.1666632651743
 30
0.0
 40
0.9999816413840843
 50
324.518403513781
 51
350.2088846253566
  0
POLYLINE
  5
137
  8
1
  6
CONTINUOUS
 62
     7
 66
     1
 10
0.0
 20
0.0
 30
0.0
  0
VERTEX
  5
26F
  8
1
  6
CONTINUOUS
 62
     7
 10
63.19655327033471
 20
194.9966096932865
 30
0.0
  0
VERTEX
  5
270
  8
1
  6
CONTINUOUS
 62
     7
 10
63.20893643052911
 20
195.1006342102281
 30
0.0
  0
VERTEX
  5
271
  8
1
  6
CONTINUOUS
 62
     7
 10
63.21108102894114
 20
195.1579401311683
 30
0.0
  0
SEQEND
  5
34F
  8
1
  6
CONTINUOUS
 62
     7
  0
LINE
  5
138
  8
1
  6
CONTINUOUS
 62
     7
 10
63.21108102894114
 20
223.175393202165
 30
0.0
 11
63.33333333333332
 21
209.1666666666667
 31
0.0
  0
LINE
  5
139
  8
1
  6
CONTINUOUS
 62
     7
 10
62.95345736453485
 20
223.8366919719604
 30
0.0
 11
63.02542413100502
 21
223.7471008423585
 31
0.0
  0
ARC
  5
13A
  8
1
  6
CONTINUOUS
 62
     7
 10
62.2111370812078
 20
223.166670068159
 30
0.0
 40
0.9999816413840843
 50
9.791115374643368
 51
35.48159648621897
  0
POLYLINE
  5
13B
  8
1
  6
CONTINUOUS
 62
     7
 66
     1
 10
0.0
 20
0.0
 30
0.0
  0
VERTEX
  5
272
  8
1
  6
CONTINUOUS
 62
     7
 10
63.19655327033471
 20
223.3367236400468
 30
0.0
  0
VERTEX
  5
273
  8
1
  6
CONTINUOUS
 62
     7
 10
63.20893643052911
 20
223.2326991231052
 30
0.0
  0
VERTEX
  5
274
  8
1
  6
CONTINUOUS
 62
     7
 10
63.21108102894114
 20
223.175393202165
 30
0.0
  0
SEQEND
  5
350
  8
1
  6
CONTINUOUS
 62
     7
  0
LINE
  5
13C
  8
1
  6
CONTINUOUS
 62
     7
 10
78.45558563772552
 20
223.175393202165
 30
0.0
 11
78.33333333333334
 21
209.1666666666667
 31
0.0
  0
LINE
  5
13D
  8
1
  6
CONTINUOUS
 62
     7
 10
78.71320930213182
 20
223.8366919719604
 30
0.0
 11
78.64124253566163
 21
223.7471008423585
 31
0.0
  0
ARC
  5
13E
  8
1
  6
CONTINUOUS
 62
     7
 10
79.45552958545886
 20
223.166670068159
 30
0.0
 40
0.9999816413840786
 50
144.5184035137808
 51
170.2088846253566
  0
POLYLINE
  5
13F
  8
1
  6
CONTINUOUS
 62
     7
 66
     1
 10
0.0
 20
0.0
 30
0.0
  0
VERTEX
  5
275
  8
1
  6
CONTINUOUS
 62
     7
 10
78.47011339633194
 20
223.3367236400468
 30
0.0
  0
VERTEX
  5
276
  8
1
  6
CONTINUOUS
 62
     7
 10
78.45773023613755
 20
223.2326991231052
 30
0.0
  0
VERTEX
  5
277
  8
1
  6
CONTINUOUS
 62
     7
 10
78.45558563772552
 20
223.175393202165
 30
0.0
  0
SEQEND
  5
351
  8
1
  6
CONTINUOUS
 62
     7
  0
LINE
  5
140
  8
1
  6
CONTINUOUS
 62
     7
 10
63.21940284866026
 20
196.1666666666667
 30
0.0
 11
65.2241332544164
 21
196.1666666666667
 31
0.0
  0
LINE
  5
141
  8
1
  6
CONTINUOUS
 62
     7
 10
76.44253341225026
 20
222.1666666666667
 30
0.0
 11
78.4472638180064
 21
222.1666666666667
 31
0.0
  0
LINE
  5
142
  8
1
  6
CONTINUOUS
 62
     7
 10
63.21940284866026
 20
222.1666666666667
 30
0.0
 11
65.2241332544164
 21
222.1666666666667
 31
0.0
  0
LINE
  5
143
  8
1
  6
CONTINUOUS
 62
     7
 10
76.44253341225026
 20
196.1666666666667
 30
0.0
 11
78.4472638180064
 21
196.1666666666667
 31
0.0
  0
ARC
  5
144
  8
1
  6
CONTINUOUS
 62
     7
 10
70.83333333333333
 20
209.1668737755973
 30
0.0
 40
2.719455978505391
 50
359.9956364553198
 51
36.03482069283837
  0
LINE
  5
145
  8
1
  6
CONTINUOUS
 62
     7
 10
68.63421908058002
 20
210.7666666666667
 30
0.0
 11
73.03244758608665
 21
210.7666666666667
 31
0.0
  0
ARC
  5
146
  8
1
  6
CONTINUOUS
 62
     7
 10
70.83333333333333
 20
209.1668737755973
 30
0.0
 40
2.719455978505391
 50
143.9651793071615
 51
180.0043641881954
  0
ARC
  5
147
  8
1
  6
CONTINUOUS
 62
     7
 10
70.83333333333333
 20
209.1664595577361
 30
0.0
 40
2.719455978505391
 50
323.965179307161
 51
0.0043635446802455
  0
ARC
  5
148
  8
1
  6
CONTINUOUS
 62
     7
 10
70.83333333333333
 20
209.1664595577361
 30
0.0
 40
2.719455978505391
 50
179.9956358118046
 51
216.034820692839
  0
LINE
  5
149
  8
1
  6
CONTINUOUS
 62
     7
 10
68.63421908058002
 20
207.5666666666666
 30
0.0
 11
73.03244758608663
 21
207.5666666666666
 31
0.0
  0
POLYLINE
  5
14A
  8
1
  6
CONTINUOUS
 62
     7
 66
     1
 10
0.0
 20
0.0
 30
0.0
  0
VERTEX
  5
278
  8
1
  6
CONTINUOUS
 62
     7
 10
69.68768940959437
 20
222.1666666666667
 30
0.0
  0
VERTEX
  5
279
  8
1
  6
CONTINUOUS
 62
     7
 10
69.7118316747246
 20
222.1672498557418
 30
0.0
  0
VERTEX
  5
27A
  8
1
  6
CONTINUOUS
 62
     7
 10
69.73591762183376
 20
222.1689980625291
 30
0.0
  0
VERTEX
  5
27B
  8
1
  6
CONTINUOUS
 62
     7
 10
69.75989106427694
 20
222.1719072088883
 30
0.0
  0
VERTEX
  5
27C
  8
1
  6
CONTINUOUS
 62
     7
 10
69.78369607785528
 20
222.1759705084899
 30
0.0
  0
VERTEX
  5
27D
  8
1
  6
CONTINUOUS
 62
     7
 10
69.80727713127334
 20
222.181178482646
 30
0.0
  0
VERTEX
  5
27E
  8
1
  6
CONTINUOUS
 62
     7
 10
69.83057921568019
 20
222.1875189824223
 30
0.0
  0
VERTEX
  5
27F
  8
1
  6
CONTINUOUS
 62
     7
 10
69.8535479729916
 20
222.1949772169778
 30
0.0
  0
VERTEX
  5
280
  8
1
  6
CONTINUOUS
 62
     7
 10
69.8761298226943
 20
222.2035357880689
 30
0.0
  0
VERTEX
  5
281
  8
1
  6
CONTINUOUS
 62
     7
 10
69.89827208683604
 20
222.213174730635
 30
0.0
  0
VERTEX
  5
282
  8
1
  6
CONTINUOUS
 62
     7
 10
69.91992311291071
 20
222.2238715593721
 30
0.0
  0
VERTEX
  5
283
  8
1
  6
CONTINUOUS
 62
     7
 10
69.94103239435076
 20
222.2356013211856
 30
0.0
  0
VERTEX
  5
284
  8
1
  6
CONTINUOUS
 62
     7
 10
69.96155068834696
 20
222.2483366533996
 30
0.0
  0
VERTEX
  5
285
  8
1
  6
CONTINUOUS
 62
     7
 10
69.98143013071969
 20
222.2620478475878
 30
0.0
  0
VERTEX
  5
286
  8
1
  6
CONTINUOUS
 62
     7
 10
70.0006243475745
 20
222.2767029188754
 30
0.0
  0
VERTEX
  5
287
  8
1
  6
CONTINUOUS
 62
     7
 10
70.01908856348112
 20
222.2922676805527
 30
0.0
  0
VERTEX
  5
288
  8
1
  6
CONTINUOUS
 62
     7
 10
70.03677970592354
 20
222.3087058238237
 30
0.0
  0
VERTEX
  5
289
  8
1
  6
CONTINUOUS
 62
     7
 10
70.05365650577774
 20
222.3259790025062
 30
0.0
  0
VERTEX
  5
28A
  8
1
  6
CONTINUOUS
 62
     7
 10
70.06967959358258
 20
222.3440469224837
 30
0.0
  0
VERTEX
  5
28B
  8
1
  6
CONTINUOUS
 62
     7
 10
70.08481159137901
 20
222.3628674357022
 30
0.0
  0
VERTEX
  5
28C
  8
1
  6
CONTINUOUS
 62
     7
 10
70.09901719990381
 20
222.3823966384907
 30
0.0
  0
VERTEX
  5
28D
  8
1
  6
CONTINUOUS
 62
     7
 10
70.11226328093423
 20
222.4025889739785
 30
0.0
  0
VERTEX
  5
28E
  8
1
  6
CONTINUOUS
 62
     7
 10
70.12451893459126
 20
222.4233973383678
 30
0.0
  0
VERTEX
  5
28F
  8
1
  6
CONTINUOUS
 62
     7
 10
70.13575557142163
 20
222.4447731908153
 30
0.0
  0
VERTEX
  5
290
  8
1
  6
CONTINUOUS
 62
     7
 10
70.14594697908994
 20
222.4666666666667
 30
0.0
  0
SEQEND
  5
352
  8
1
  6
CONTINUOUS
 62
     7
  0
POLYLINE
  5
14B
  8
1
  6
CONTINUOUS
 62
     7
 66
     1
 10
0.0
 20
0.0
 30
0.0
  0
VERTEX
  5
291
  8
1
  6
CONTINUOUS
 62
     7
 10
69.68768940959437
 20
196.1666666666667
 30
0.0
  0
VERTEX
  5
292
  8
1
  6
CONTINUOUS
 62
     7
 10
69.7118316747246
 20
196.1660834775915
 30
0.0
  0
VERTEX
  5
293
  8
1
  6
CONTINUOUS
 62
     7
 10
69.73591762183376
 20
196.1643352708042
 30
0.0
  0
VERTEX
  5
294
  8
1
  6
CONTINUOUS
 62
     7
 10
69.75989106427694
 20
196.161426124445
 30
0.0
  0
VERTEX
  5
295
  8
1
  6
CONTINUOUS
 62
     7
 10
69.78369607785528
 20
196.1573628248434
 30
0.0
  0
VERTEX
  5
296
  8
1
  6
CONTINUOUS
 62
     7
 10
69.80727713127334
 20
196.1521548506873
 30
0.0
  0
VERTEX
  5
297
  8
1
  6
CONTINUOUS
 62
     7
 10
69.83057921568019
 20
196.1458143509111
 30
0.0
  0
VERTEX
  5
298
  8
1
  6
CONTINUOUS
 62
     7
 10
69.8535479729916
 20
196.1383561163555
 30
0.0
  0
VERTEX
  5
299
  8
1
  6
CONTINUOUS
 62
     7
 10
69.8761298226943
 20
196.1297975452644
 30
0.0
  0
VERTEX
  5
29A
  8
1
  6
CONTINUOUS
 62
     7
 10
69.89827208683604
 20
196.1201586026983
 30
0.0
  0
VERTEX
  5
29B
  8
1
  6
CONTINUOUS
 62
     7
 10
69.91992311291071
 20
196.1094617739612
 30
0.0
  0
VERTEX
  5
29C
  8
1
  6
CONTINUOUS
 62
     7
 10
69.94103239435076
 20
196.0977320121478
 30
0.0
  0
VERTEX
  5
29D
  8
1
  6
CONTINUOUS
 62
     7
 10
69.96155068834696
 20
196.0849966799337
 30
0.0
  0
VERTEX
  5
29E
  8
1
  6
CONTINUOUS
 62
     7
 10
69.98143013071969
 20
196.0712854857455
 30
0.0
  0
VERTEX
  5
29F
  8
1
  6
CONTINUOUS
 62
     7
 10
70.0006243475745
 20
196.0566304144579
 30
0.0
  0
VERTEX
  5
2A0
  8
1
  6
CONTINUOUS
 62
     7
 10
70.01908856348112
 20
196.0410656527806
 30
0.0
  0
VERTEX
  5
2A1
  8
1
  6
CONTINUOUS
 62
     7
 10
70.03677970592354
 20
196.0246275095096
 30
0.0
  0
VERTEX
  5
2A2
  8
1
  6
CONTINUOUS
 62
     7
 10
70.05365650577774
 20
196.0073543308271
 30
0.0
  0
VERTEX
  5
2A3
  8
1
  6
CONTINUOUS
 62
     7
 10
70.06967959358258
 20
195.9892864108496
 30
0.0
  0
VERTEX
  5
2A4
  8
1
  6
CONTINUOUS
 62
     7
 10
70.08481159137901
 20
195.9704658976311
 30
0.0
  0
VERTEX
  5
2A5
  8
1
  6
CONTINUOUS
 62
     7
 10
70.09901719990381
 20
195.9509366948426
 30
0.0
  0
VERTEX
  5
2A6
  8
1
  6
CONTINUOUS
 62
     7
 10
70.11226328093423
 20
195.9307443593548
 30
0.0
  0
VERTEX
  5
2A7
  8
1
  6
CONTINUOUS
 62
     7
 10
70.12451893459126
 20
195.9099359949656
 30
0.0
  0
VERTEX
  5
2A8
  8
1
  6
CONTINUOUS
 62
     7
 10
70.13575557142163
 20
195.888560142518
 30
0.0
  0
VERTEX
  5
2A9
  8
1
  6
CONTINUOUS
 62
     7
 10
70.14594697908994
 20
195.8666666666666
 30
0.0
  0
SEQEND
  5
353
  8
1
  6
CONTINUOUS
 62
     7
  0
POLYLINE
  5
14C
  8
1
  6
CONTINUOUS
 62
     7
 66
     1
 10
0.0
 20
0.0
 30
0.0
  0
VERTEX
  5
2AA
  8
1
  6
CONTINUOUS
 62
     7
 10
71.52071968757672
 20
195.8666666666666
 30
0.0
  0
VERTEX
  5
2AB
  8
1
  6
CONTINUOUS
 62
     7
 10
71.53091109524503
 20
195.888560142518
 30
0.0
  0
VERTEX
  5
2AC
  8
1
  6
CONTINUOUS
 62
     7
 10
71.54214773207539
 20
195.9099359949656
 30
0.0
  0
VERTEX
  5
2AD
  8
1
  6
CONTINUOUS
 62
     7
 10
71.55440338573243
 20
195.9307443593548
 30
0.0
  0
VERTEX
  5
2AE
  8
1
  6
CONTINUOUS
 62
     7
 10
71.56764946676284
 20
195.9509366948426
 30
0.0
  0
VERTEX
  5
2AF
  8
1
  6
CONTINUOUS
 62
     7
 10
71.58185507528765
 20
195.9704658976311
 30
0.0
  0
VERTEX
  5
2B0
  8
1
  6
CONTINUOUS
 62
     7
 10
71.59698707308408
 20
195.9892864108496
 30
0.0
  0
VERTEX
  5
2B1
  8
1
  6
CONTINUOUS
 62
     7
 10
71.61301016088892
 20
196.0073543308271
 30
0.0
  0
VERTEX
  5
2B2
  8
1
  6
CONTINUOUS
 62
     7
 10
71.62988696074312
 20
196.0246275095096
 30
0.0
  0
VERTEX
  5
2B3
  8
1
  6
CONTINUOUS
 62
     7
 10
71.64757810318555
 20
196.0410656527806
 30
0.0
  0
VERTEX
  5
2B4
  8
1
  6
CONTINUOUS
 62
     7
 10
71.66604231909216
 20
196.0566304144579
 30
0.0
  0
VERTEX
  5
2B5
  8
1
  6
CONTINUOUS
 62
     7
 10
71.68523653594698
 20
196.0712854857455
 30
0.0
  0
VERTEX
  5
2B6
  8
1
  6
CONTINUOUS
 62
     7
 10
71.7051159783197
 20
196.0849966799337
 30
0.0
  0
VERTEX
  5
2B7
  8
1
  6
CONTINUOUS
 62
     7
 10
71.7256342723159
 20
196.0977320121478
 30
0.0
  0
VERTEX
  5
2B8
  8
1
  6
CONTINUOUS
 62
     7
 10
71.74674355375596
 20
196.1094617739612
 30
0.0
  0
VERTEX
  5
2B9
  8
1
  6
CONTINUOUS
 62
     7
 10
71.76839457983061
 20
196.1201586026983
 30
0.0
  0
VERTEX
  5
2BA
  8
1
  6
CONTINUOUS
 62
     7
 10
71.79053684397238
 20
196.1297975452644
 30
0.0
  0
VERTEX
  5
2BB
  8
1
  6
CONTINUOUS
 62
     7
 10
71.81311869367505
 20
196.1383561163555
 30
0.0
  0
VERTEX
  5
2BC
  8
1
  6
CONTINUOUS
 62
     7
 10
71.83608745098647
 20
196.1458143509111
 30
0.0
  0
VERTEX
  5
2BD
  8
1
  6
CONTINUOUS
 62
     7
 10
71.85938953539333
 20
196.1521548506873
 30
0.0
  0
VERTEX
  5
2BE
  8
1
  6
CONTINUOUS
 62
     7
 10
71.88297058881138
 20
196.1573628248434
 30
0.0
  0
VERTEX
  5
2BF
  8
1
  6
CONTINUOUS
 62
     7
 10
71.90677560238971
 20
196.161426124445
 30
0.0
  0
VERTEX
  5
2C0
  8
1
  6
CONTINUOUS
 62
     7
 10
71.93074904483291
 20
196.1643352708042
 30
0.0
  0
VERTEX
  5
2C1
  8
1
  6
CONTINUOUS
 62
     7
 10
71.95483499194205
 20
196.1660834775915
 30
0.0
  0
VERTEX
  5
2C2
  8
1
  6
CONTINUOUS
 62
     7
 10
71.97897725707229
 20
196.1666666666667
 30
0.0
  0
SEQEND
  5
354
  8
1
  6
CONTINUOUS
 62
     7
  0
POLYLINE
  5
14D
  8
1
  6
CONTINUOUS
 62
     7
 66
     1
 10
0.0
 20
0.0
 30
0.0
  0
VERTEX
  5
2C3
  8
1
  6
CONTINUOUS
 62
     7
 10
71.52071968757672
 20
222.4666666666667
 30
0.0
  0
VERTEX
  5
2C4
  8
1
  6
CONTINUOUS
 62
     7
 10
71.53091109524503
 20
222.4447731908153
 30
0.0
  0
VERTEX
  5
2C5
  8
1
  6
CONTINUOUS
 62
     7
 10
71.54214773207539
 20
222.4233973383678
 30
0.0
  0
VERTEX
  5
2C6
  8
1
  6
CONTINUOUS
 62
     7
 10
71.55440338573243
 20
222.4025889739785
 30
0.0
  0
VERTEX
  5
2C7
  8
1
  6
CONTINUOUS
 62
     7
 10
71.56764946676284
 20
222.3823966384907
 30
0.0
  0
VERTEX
  5
2C8
  8
1
  6
CONTINUOUS
 62
     7
 10
71.58185507528765
 20
222.3628674357022
 30
0.0
  0
VERTEX
  5
2C9
  8
1
  6
CONTINUOUS
 62
     7
 10
71.59698707308408
 20
222.3440469224837
 30
0.0
  0
VERTEX
  5
2CA
  8
1
  6
CONTINUOUS
 62
     7
 10
71.61301016088892
 20
222.3259790025062
 30
0.0
  0
VERTEX
  5
2CB
  8
1
  6
CONTINUOUS
 62
     7
 10
71.62988696074312
 20
222.3087058238237
 30
0.0
  0
VERTEX
  5
2CC
  8
1
  6
CONTINUOUS
 62
     7
 10
71.64757810318555
 20
222.2922676805527
 30
0.0
  0
VERTEX
  5
2CD
  8
1
  6
CONTINUOUS
 62
     7
 10
71.66604231909216
 20
222.2767029188754
 30
0.0
  0
VERTEX
  5
2CE
  8
1
  6
CONTINUOUS
 62
     7
 10
71.68523653594698
 20
222.2620478475878
 30
0.0
  0
VERTEX
  5
2CF
  8
1
  6
CONTINUOUS
 62
     7
 10
71.7051159783197
 20
222.2483366533996
 30
0.0
  0
VERTEX
  5
2D0
  8
1
  6
CONTINUOUS
 62
     7
 10
71.7256342723159
 20
222.2356013211856
 30
0.0
  0
VERTEX
  5
2D1
  8
1
  6
CONTINUOUS
 62
     7
 10
71.74674355375596
 20
222.2238715593721
 30
0.0
  0
VERTEX
  5
2D2
  8
1
  6
CONTINUOUS
 62
     7
 10
71.76839457983061
 20
222.213174730635
 30
0.0
  0
VERTEX
  5
2D3
  8
1
  6
CONTINUOUS
 62
     7
 10
71.79053684397238
 20
222.2035357880689
 30
0.0
  0
VERTEX
  5
2D4
  8
1
  6
CONTINUOUS
 62
     7
 10
71.81311869367505
 20
222.1949772169778
 30
0.0
  0
VERTEX
  5
2D5
  8
1
  6
CONTINUOUS
 62
     7
 10
71.83608745098647
 20
222.1875189824223
 30
0.0
  0
VERTEX
  5
2D6
  8
1
  6
CONTINUOUS
 62
     7
 10
71.85938953539333
 20
222.181178482646
 30
0.0
  0
VERTEX
  5
2D7
  8
1
  6
CONTINUOUS
 62
     7
 10
71.88297058881138
 20
222.1759705084899
 30
0.0
  0
VERTEX
  5
2D8
  8
1
  6
CONTINUOUS
 62
     7
 10
71.90677560238971
 20
222.1719072088883
 30
0.0
  0
VERTEX
  5
2D9
  8
1
  6
CONTINUOUS
 62
     7
 10
71.93074904483291
 20
222.1689980625291
 30
0.0
  0
VERTEX
  5
2DA
  8
1
  6
CONTINUOUS
 62
     7
 10
71.95483499194205
 20
222.1672498557418
 30
0.0
  0
VERTEX
  5
2DB
  8
1
  6
CONTINUOUS
 62
     7
 10
71.97897725707229
 20
222.1666666666667
 30
0.0
  0
SEQEND
  5
355
  8
1
  6
CONTINUOUS
 62
     7
  0
LINE
  5
14E
  8
1
  6
CONTINUOUS
 62
     7
 10
76.44253341225026
 20
196.1666666666667
 30
0.0
 11
71.97897725707229
 21
196.1666666666667
 31
0.0
  0
LINE
  5
14F
  8
1
  6
CONTINUOUS
 62
     7
 10
76.44253341225026
 20
222.1666666666667
 30
0.0
 11
71.97897725707229
 21
222.1666666666667
 31
0.0
  0
LINE
  5
150
  8
1
  6
CONTINUOUS
 62
     7
 10
69.68768940959437
 20
222.1666666666667
 30
0.0
 11
65.2241332544164
 21
222.1666666666667
 31
0.0
  0
LINE
  5
151
  8
1
  6
CONTINUOUS
 62
     7
 10
69.68768940959437
 20
196.1666666666667
 30
0.0
 11
65.2241332544164
 21
196.1666666666667
 31
0.0
  0
POLYLINE
  5
152
  8
1
  6
CONTINUOUS
 62
     7
 66
     1
 10
0.0
 20
0.0
 30
0.0
  0
VERTEX
  5
2DC
  8
1
  6
CONTINUOUS
 62
     7
 10
71.52071968757672
 20
222.4666666666667
 30
0.0
  0
VERTEX
  5
2DD
  8
1
  6
CONTINUOUS
 62
     7
 10
71.50543257607421
 20
222.4995068804437
 30
0.0
  0
VERTEX
  5
2DE
  8
1
  6
CONTINUOUS
 62
     7
 10
71.48857762082866
 20
222.531570659115
 30
0.0
  0
VERTEX
  5
2DF
  8
1
  6
CONTINUOUS
 62
     7
 10
71.47019414034311
 20
222.5627832056988
 30
0.0
  0
VERTEX
  5
2E0
  8
1
  6
CONTINUOUS
 62
     7
 10
71.4503250187975
 20
222.5930717089306
 30
0.0
  0
VERTEX
  5
2E1
  8
1
  6
CONTINUOUS
 62
     7
 10
71.4290166060103
 20
222.6223655131134
 30
0.0
  0
VERTEX
  5
2E2
  8
1
  6
CONTINUOUS
 62
     7
 10
71.40631860931565
 20
222.650596282941
 30
0.0
  0
VERTEX
  5
2E3
  8
1
  6
CONTINUOUS
 62
     7
 10
71.3822839776084
 20
222.6776981629073
 30
0.0
  0
VERTEX
  5
2E4
  8
1
  6
CONTINUOUS
 62
     7
 10
71.35696877782708
 20
222.703607930931
 30
0.0
  0
VERTEX
  5
2E5
  8
1
  6
CONTINUOUS
 62
     7
 10
71.33043206416345
 20
222.7282651458376
 30
0.0
  0
VERTEX
  5
2E6
  8
1
  6
CONTINUOUS
 62
     7
 10
71.30273574030353
 20
222.7516122883535
 30
0.0
  0
VERTEX
  5
2E7
  8
1
  6
CONTINUOUS
 62
     7
 10
71.2739444150213
 20
222.773594895285
 30
0.0
  0
VERTEX
  5
2E8
  8
1
  6
CONTINUOUS
 62
     7
 10
71.24412525146221
 20
222.7941616865672
 30
0.0
  0
VERTEX
  5
2E9
  8
1
  6
CONTINUOUS
 62
     7
 10
71.21334781046791
 20
222.8132646848883
 30
0.0
  0
VERTEX
  5
2EA
  8
1
  6
CONTINUOUS
 62
     7
 10
71.18168388830783
 20
222.8308593276085
 30
0.0
  0
VERTEX
  5
2EB
  8
1
  6
CONTINUOUS
 62
     7
 10
71.14920734919585
 20
222.8469045707141
 30
0.0
  0
VERTEX
  5
2EC
  8
1
  6
CONTINUOUS
 62
     7
 10
71.1159939529832
 20
222.8613629845633
 30
0.0
  0
VERTEX
  5
2ED
  8
1
  6
CONTINUOUS
 62
     7
 10
71.08212117842919
 20
222.8742008412
 30
0.0
  0
VERTEX
  5
2EE
  8
1
  6
CONTINUOUS
 62
     7
 10
71.04766804246204
 20
222.8853881930332
 30
0.0
  0
VERTEX
  5
2EF
  8
1
  6
CONTINUOUS
 62
     7
 10
71.01271491585177
 20
222.8948989426976
 30
0.0
  0
VERTEX
  5
2F0
  8
1
  6
CONTINUOUS
 62
     7
 10
70.97734333572468
 20
222.9027109039318
 30
0.0
  0
VERTEX
  5
2F1
  8
1
  6
CONTINUOUS
 62
     7
 10
70.9416358153572
 20
222.9088058533341
 30
0.0
  0
VERTEX
  5
2F2
  8
1
  6
CONTINUOUS
 62
     7
 10
70.9056756516924
 20
222.913169572873
 30
0.0
  0
VERTEX
  5
2F3
  8
1
  6
CONTINUOUS
 62
     7
 10
70.86954673102869
 20
222.915791883054
 30
0.0
  0
VERTEX
  5
2F4
  8
1
  6
CONTINUOUS
 62
     7
 10
70.83333333333331
 20
222.9166666666667
 30
0.0
  0
VERTEX
  5
2F5
  8
1
  6
CONTINUOUS
 62
     7
 10
70.79711993563797
 20
222.915791883054
 30
0.0
  0
VERTEX
  5
2F6
  8
1
  6
CONTINUOUS
 62
     7
 10
70.76099101497422
 20
222.9131695728729
 30
0.0
  0
VERTEX
  5
2F7
  8
1
  6
CONTINUOUS
 62
     7
 10
70.72503085130944
 20
222.9088058533341
 30
0.0
  0
VERTEX
  5
2F8
  8
1
  6
CONTINUOUS
 62
     7
 10
70.68932333094195
 20
222.9027109039318
 30
0.0
  0
VERTEX
  5
2F9
  8
1
  6
CONTINUOUS
 62
     7
 10
70.65395175081487
 20
222.8948989426976
 30
0.0
  0
VERTEX
  5
2FA
  8
1
  6
CONTINUOUS
 62
     7
 10
70.61899862420461
 20
222.8853881930332
 30
0.0
  0
VERTEX
  5
2FB
  8
1
  6
CONTINUOUS
 62
     7
 10
70.58454548823747
 20
222.8742008412
 30
0.0
  0
VERTEX
  5
2FC
  8
1
  6
CONTINUOUS
 62
     7
 10
70.55067271368344
 20
222.8613629845633
 30
0.0
  0
VERTEX
  5
2FD
  8
1
  6
CONTINUOUS
 62
     7
 10
70.51745931747081
 20
222.8469045707141
 30
0.0
  0
VERTEX
  5
2FE
  8
1
  6
CONTINUOUS
 62
     7
 10
70.48498277835883
 20
222.8308593276085
 30
0.0
  0
VERTEX
  5
2FF
  8
1
  6
CONTINUOUS
 62
     7
 10
70.45331885619873
 20
222.8132646848883
 30
0.0
  0
VERTEX
  5
300
  8
1
  6
CONTINUOUS
 62
     7
 10
70.42254141520445
 20
222.7941616865672
 30
0.0
  0
VERTEX
  5
301
  8
1
  6
CONTINUOUS
 62
     7
 10
70.39272225164535
 20
222.773594895285
 30
0.0
  0
VERTEX
  5
302
  8
1
  6
CONTINUOUS
 62
     7
 10
70.36393092636311
 20
222.7516122883535
 30
0.0
  0
VERTEX
  5
303
  8
1
  6
CONTINUOUS
 62
     7
 10
70.3362346025032
 20
222.7282651458376
 30
0.0
  0
VERTEX
  5
304
  8
1
  6
CONTINUOUS
 62
     7
 10
70.30969788883958
 20
222.703607930931
 30
0.0
  0
VERTEX
  5
305
  8
1
  6
CONTINUOUS
 62
     7
 10
70.28438268905825
 20
222.6776981629073
 30
0.0
  0
VERTEX
  5
306
  8
1
  6
CONTINUOUS
 62
     7
 10
70.260348057351
 20
222.650596282941
 30
0.0
  0
VERTEX
  5
307
  8
1
  6
CONTINUOUS
 62
     7
 10
70.23765006065636
 20
222.6223655131134
 30
0.0
  0
VERTEX
  5
308
  8
1
  6
CONTINUOUS
 62
     7
 10
70.21634164786914
 20
222.5930717089306
 30
0.0
  0
VERTEX
  5
309
  8
1
  6
CONTINUOUS
 62
     7
 10
70.19647252632353
 20
222.5627832056988
 30
0.0
  0
VERTEX
  5
30A
  8
1
  6
CONTINUOUS
 62
     7
 10
70.178089045838
 20
222.531570659115
 30
0.0
  0
VERTEX
  5
30B
  8
1
  6
CONTINUOUS
 62
     7
 10
70.16123409059246
 20
222.4995068804437
 30
0.0
  0
VERTEX
  5
30C
  8
1
  6
CONTINUOUS
 62
     7
 10
70.14594697908994
 20
222.4666666666666
 30
0.0
  0
SEQEND
  5
356
  8
1
  6
CONTINUOUS
 62
     7
  0
POLYLINE
  5
153
  8
1
  6
CONTINUOUS
 62
     7
 66
     1
 10
0.0
 20
0.0
 30
0.0
  0
VERTEX
  5
30D
  8
1
  6
CONTINUOUS
 62
     7
 10
71.52071968757672
 20
195.8666666666666
 30
0.0
  0
VERTEX
  5
30E
  8
1
  6
CONTINUOUS
 62
     7
 10
71.50543257607421
 20
195.8338264528896
 30
0.0
  0
VERTEX
  5
30F
  8
1
  6
CONTINUOUS
 62
     7
 10
71.48857762082866
 20
195.8017626742183
 30
0.0
  0
VERTEX
  5
310
  8
1
  6
CONTINUOUS
 62
     7
 10
71.47019414034311
 20
195.7705501276345
 30
0.0
  0
VERTEX
  5
311
  8
1
  6
CONTINUOUS
 62
     7
 10
71.4503250187975
 20
195.7402616244028
 30
0.0
  0
VERTEX
  5
312
  8
1
  6
CONTINUOUS
 62
     7
 10
71.4290166060103
 20
195.71096782022
 30
0.0
  0
VERTEX
  5
313
  8
1
  6
CONTINUOUS
 62
     7
 10
71.40631860931565
 20
195.6827370503923
 30
0.0
  0
VERTEX
  5
314
  8
1
  6
CONTINUOUS
 62
     7
 10
71.3822839776084
 20
195.655635170426
 30
0.0
  0
VERTEX
  5
315
  8
1
  6
CONTINUOUS
 62
     7
 10
71.35696877782708
 20
195.6297254024023
 30
0.0
  0
VERTEX
  5
316
  8
1
  6
CONTINUOUS
 62
     7
 10
71.33043206416345
 20
195.6050681874957
 30
0.0
  0
VERTEX
  5
317
  8
1
  6
CONTINUOUS
 62
     7
 10
71.30273574030353
 20
195.5817210449798
 30
0.0
  0
VERTEX
  5
318
  8
1
  6
CONTINUOUS
 62
     7
 10
71.2739444150213
 20
195.5597384380484
 30
0.0
  0
VERTEX
  5
319
  8
1
  6
CONTINUOUS
 62
     7
 10
71.24412525146221
 20
195.5391716467661
 30
0.0
  0
VERTEX
  5
31A
  8
1
  6
CONTINUOUS
 62
     7
 10
71.21334781046791
 20
195.520068648445
 30
0.0
  0
VERTEX
  5
31B
  8
1
  6
CONTINUOUS
 62
     7
 10
71.18168388830783
 20
195.5024740057248
 30
0.0
  0
VERTEX
  5
31C
  8
1
  6
CONTINUOUS
 62
     7
 10
71.14920734919585
 20
195.4864287626192
 30
0.0
  0
VERTEX
  5
31D
  8
1
  6
CONTINUOUS
 62
     7
 10
71.1159939529832
 20
195.47197034877
 30
0.0
  0
VERTEX
  5
31E
  8
1
  6
CONTINUOUS
 62
     7
 10
71.08212117842919
 20
195.4591324921333
 30
0.0
  0
VERTEX
  5
31F
  8
1
  6
CONTINUOUS
 62
     7
 10
71.04766804246204
 20
195.4479451403001
 30
0.0
  0
VERTEX
  5
320
  8
1
  6
CONTINUOUS
 62
     7
 10
71.01271491585177
 20
195.4384343906357
 30
0.0
  0
VERTEX
  5
321
  8
1
  6
CONTINUOUS
 62
     7
 10
70.97734333572468
 20
195.4306224294015
 30
0.0
  0
VERTEX
  5
322
  8
1
  6
CONTINUOUS
 62
     7
 10
70.9416358153572
 20
195.4245274799992
 30
0.0
  0
VERTEX
  5
323
  8
1
  6
CONTINUOUS
 62
     7
 10
70.9056756516924
 20
195.4201637604604
 30
0.0
  0
VERTEX
  5
324
  8
1
  6
CONTINUOUS
 62
     7
 10
70.86954673102869
 20
195.4175414502793
 30
0.0
  0
VERTEX
  5
325
  8
1
  6
CONTINUOUS
 62
     7
 10
70.83333333333331
 20
195.4166666666667
 30
0.0
  0
VERTEX
  5
326
  8
1
  6
CONTINUOUS
 62
     7
 10
70.79711993563797
 20
195.4175414502793
 30
0.0
  0
VERTEX
  5
327
  8
1
  6
CONTINUOUS
 62
     7
 10
70.76099101497422
 20
195.4201637604604
 30
0.0
  0
VERTEX
  5
328
  8
1
  6
CONTINUOUS
 62
     7
 10
70.72503085130944
 20
195.4245274799992
 30
0.0
  0
VERTEX
  5
329
  8
1
  6
CONTINUOUS
 62
     7
 10
70.68932333094195
 20
195.4306224294015
 30
0.0
  0
VERTEX
  5
32A
  8
1
  6
CONTINUOUS
 62
     7
 10
70.65395175081487
 20
195.4384343906357
 30
0.0
  0
VERTEX
  5
32B
  8
1
  6
CONTINUOUS
 62
     7
 10
70.61899862420461
 20
195.4479451403001
 30
0.0
  0
VERTEX
  5
32C
  8
1
  6
CONTINUOUS
 62
     7
 10
70.58454548823747
 20
195.4591324921333
 30
0.0
  0
VERTEX
  5
32D
  8
1
  6
CONTINUOUS
 62
     7
 10
70.55067271368344
 20
195.47197034877
 30
0.0
  0
VERTEX
  5
32E
  8
1
  6
CONTINUOUS
 62
     7
 10
70.51745931747081
 20
195.4864287626192
 30
0.0
  0
VERTEX
  5
32F
  8
1
  6
CONTINUOUS
 62
     7
 10
70.48498277835883
 20
195.5024740057248
 30
0.0
  0
VERTEX
  5
330
  8
1
  6
CONTINUOUS
 62
     7
 10
70.45331885619873
 20
195.520068648445
 30
0.0
  0
VERTEX
  5
331
  8
1
  6
CONTINUOUS
 62
     7
 10
70.42254141520445
 20
195.5391716467661
 30
0.0
  0
VERTEX
  5
332
  8
1
  6
CONTINUOUS
 62
     7
 10
70.39272225164535
 20
195.5597384380484
 30
0.0
  0
VERTEX
  5
333
  8
1
  6
CONTINUOUS
 62
     7
 10
70.36393092636311
 20
195.5817210449798
 30
0.0
  0
VERTEX
  5
334
  8
1
  6
CONTINUOUS
 62
     7
 10
70.3362346025032
 20
195.6050681874958
 30
0.0
  0
VERTEX
  5
335
  8
1
  6
CONTINUOUS
 62
     7
 10
70.30969788883958
 20
195.6297254024023
 30
0.0
  0
VERTEX
  5
336
  8
1
  6
CONTINUOUS
 62
     7
 10
70.28438268905825
 20
195.655635170426
 30
0.0
  0
VERTEX
  5
337
  8
1
  6
CONTINUOUS
 62
     7
 10
70.260348057351
 20
195.6827370503923
 30
0.0
  0
VERTEX
  5
338
  8
1
  6
CONTINUOUS
 62
     7
 10
70.23765006065636
 20
195.71096782022
 30
0.0
  0
VERTEX
  5
339
  8
1
  6
CONTINUOUS
 62
     7
 10
70.21634164786914
 20
195.7402616244028
 30
0.0
  0
VERTEX
  5
33A
  8
1
  6
CONTINUOUS
 62
     7
 10
70.19647252632353
 20
195.7705501276345
 30
0.0
  0
VERTEX
  5
33B
  8
1
  6
CONTINUOUS
 62
     7
 10
70.178089045838
 20
195.8017626742183
 30
0.0
  0
VERTEX
  5
33C
  8
1
  6
CONTINUOUS
 62
     7
 10
70.16123409059246
 20
195.8338264528896
 30
0.0
  0
VERTEX
  5
33D
  8
1
  6
CONTINUOUS
 62
     7
 10
70.14594697908994
 20
195.8666666666667
 30
0.0
  0
SEQEND
  5
357
  8
1
  6
CONTINUOUS
 62
     7
  0
LINE
  5
154
  8
1
  6
CONTINUOUS
 62
     7
 10
90.55264602162542
 20
205.6502490419609
 30
0.0
 11
90.55265389147408
 21
205.6511508372956
 31
0.0
  0
LINE
  5
155
  8
1
  6
CONTINUOUS
 62
     7
 10
90.55265389147408
 20
205.6511508372956
 30
0.0
 11
90.58333333333331
 21
209.1666666666667
 31
0.0
  0
LINE
  5
156
  8
1
  6
CONTINUOUS
 62
     7
 10
51.08333333333334
 20
209.1666666666667
 30
0.0
 11
51.11401277519258
 21
205.6511508372956
 31
0.0
  0
LINE
  5
157
  8
1
  6
CONTINUOUS
 62
     7
 10
51.11401277519258
 20
205.6511508372956
 30
0.0
 11
51.11402064504124
 21
205.6502490419609
 31
0.0
  0
LINE
  5
158
  8
1
  6
CONTINUOUS
 62
     7
 10
51.11402064504124
 20
212.6830842913724
 30
0.0
 11
51.11401277519258
 21
212.6821824960377
 31
0.0
  0
LINE
  5
159
  8
1
  6
CONTINUOUS
 62
     7
 10
51.11401277519258
 20
212.6821824960377
 30
0.0
 11
51.08333333333334
 21
209.1666666666667
 31
0.0
  0
LINE
  5
15A
  8
1
  6
CONTINUOUS
 62
     7
 10
90.58333333333331
 20
209.1666666666667
 30
0.0
 11
90.55265389147408
 21
212.6821824960377
 31
0.0
  0
LINE
  5
15B
  8
1
  6
CONTINUOUS
 62
     7
 10
90.55265389147408
 20
212.6821824960377
 30
0.0
 11
90.55264602162542
 21
212.6830842913724
 31
0.0
  0
ARC
  5
15C
  8
1
  6
CONTINUOUS
 62
     7
 10
86.55280619921739
 20
205.6860569792891
 30
0.0
 40
4.000000000000002
 50
349.9999999999999
 51
359.5000000000001
  0
ARC
  5
15D
  8
1
  6
CONTINUOUS
 62
     7
 10
55.11386046744927
 20
205.6860569792891
 30
0.0
 40
3.999999999999998
 50
180.5
 51
190.0
  0
ARC
  5
15E
  8
1
  6
CONTINUOUS
 62
     7
 10
86.55280619921739
 20
212.6472763540442
 30
0.0
 40
3.999999999999998
 50
0.4999999999999834
 51
10.00000000000001
  0
ARC
  5
15F
  8
1
  6
CONTINUOUS
 62
     7
 10
55.11386046744927
 20
212.6472763540442
 30
0.0
 40
4.000000000000002
 50
170.0000000000001
 51
179.5000000000001
  0
ENDBLK
  8
0
  0
ENDSEC
  0
SECTION
  2
ENTITIES
  0
TEXT
  5
71
  8
3
  6
CONTINUOUS
 62
     7
 10
100.8848213913551
 20
110.5185715476637
 30
0.0
 40
3.0
  1
GSFY-25
  0
INSERT
  5
AB
  8
1
  6
DOT
 62
     7
  2
D_FRAME_VIEW_1472
 10
0.0
 20
0.0
 30
0.0
  0
LINE
  5
AD
  8
3
  6
CENTER
 62
     1
 10
49.08333333333332
 20
150.3167108455769
 30
0.0
 11
92.58333333333333
 21
150.3167108455769
 31
0.0
  0
LINE
  5
AF
  8
3
  6
CENTER
 62
     1
 10
49.0832553691496
 20
209.1664595577361
 30
0.0
 11
92.58341129751706
 21
209.1664595577361
 31
0.0
  0
LINE
  5
B0
  8
3
  6
CENTER
 62
     1
 10
70.83333333333333
 20
192.1666666666667
 30
0.0
 11
70.83333333333333
 21
226.1666666666667
 31
0.0
  0
LINE
  5
B1
  8
3
  6
CENTER
 62
     1
 10
143.3333333333333
 20
125.566710845577
 30
0.0
 11
143.3333333333333
 21
166.0259957520093
 31
0.0
  0
LINE
  5
B2
  8
3
  6
CENTER
 62
     1
 10
126.3333333333333
 20
150.6757021213462
 30
0.0
 11
160.3333333333333
 21
150.6757021213462
 31
0.0
  0
LINE
  5
B3
  8
3
  6
CENTER
 62
     1
 10
70.83333333333333
 20
125.566710845577
 30
0.0
 11
70.83333333333333
 21
172.0667108455769
 31
0.0
  0
INSERT
  5
106
  8
1
  6
DOT
 62
     7
  2
D_FRAME_VIEW_1587
 10
0.0
 20
0.0
 30
0.0
  0
INSERT
  5
160
  8
1
  6
DOT
 62
     7
  2
D_FRAME_VIEW_1673
 10
0.0
 20
0.0
 30
0.0
  0
ENDSEC
  0
EOF
