  0
SECTION
  2
HEADER
  9
$ACADVER
  1
AC1006
  9
$DWGCODEPAGE
  3
ansi_932
  9
$INSBASE
 10
0.0
 20
0.0
 30
0.0
  9
$EXTMIN
 10
93.16160571221106
 20
465.8667231860268
  9
$EXTMAX
 10
301.7143975284717
 20
519.3394504587541
  9
$LIMMIN
 10
0.0
 20
0.0
  9
$LIMMAX
 10
12.0
 20
9.0
  9
$ORTHOMODE
 70
     0
  9
$REGENMODE
 70
     1
  9
$FILLMODE
 70
     1
  9
$QTEXTMODE
 70
     0
  9
$MIRRTEXT
 70
     1
  9
$DRAGMODE
 70
     2
  9
$LTSCALE
 40
1.0
  9
$OSMODE
 70
    37
  9
$ATTMODE
 70
     1
  9
$TEXTSIZE
 40
0.2
  9
$TRACEWID
 40
0.05
  9
$TEXTSTYLE
  7
STANDARD
  9
$CLAYER
  8
0
  9
$CELTYPE
  6
BYLAYER
  9
$CECOLOR
 62
   256
  9
$DIMSCALE
 40
1.0
  9
$DIMASZ
 40
3.0
  9
$DIMEXO
 40
0.0625
  9
$DIMDLI
 40
0.38
  9
$DIMRND
 40
0.0
  9
$DIMDLE
 40
0.0
  9
$DIMEXE
 40
1.5
  9
$DIMTP
 40
0.0
  9
$DIMTM
 40
0.0
  9
$DIMTXT
 40
3.0
  9
$DIMCEN
 40
0.09
  9
$DIMTSZ
 40
0.0
  9
$DIMTOL
 70
     0
  9
$DIMLIM
 70
     0
  9
$DIMTIH
 70
     1
  9
$DIMTOH
 70
     1
  9
$DIMSE1
 70
     0
  9
$DIMSE2
 70
     0
  9
$DIMTAD
 70
     1
  9
$DIMZIN
 70
     0
  9
$DIMBLK
  1

  9
$DIMASO
 70
     1
  9
$DIMSHO
 70
     1
  9
$DIMPOST
  1

  9
$DIMAPOST
  1

  9
$DIMALT
 70
     0
  9
$DIMALTD
 70
     2
  9
$DIMALTF
 40
25.4
  9
$DIMLFAC
 40
1.0
  9
$DIMTOFL
 70
     0
  9
$DIMTVP
 40
0.0
  9
$DIMTIX
 70
     0
  9
$DIMSOXD
 70
     0
  9
$DIMSAH
 70
     0
  9
$DIMBLK1
  1

  9
$DIMBLK2
  1

  9
$LUNITS
 70
     2
  9
$LUPREC
 70
     4
  9
$SKETCHINC
 40
0.1
  9
$FILLETRAD
 40
0.5
  9
$AUNITS
 70
     0
  9
$AUPREC
 70
     0
  9
$MENU
  1
.
  9
$ELEVATION
 40
0.0
  9
$THICKNESS
 40
0.0
  9
$LIMCHECK
 70
     0
  9
$CHAMFERA
 40
0.0
  9
$CHAMFERB
 40
0.0
  9
$SKPOLY
 70
     0
  9
$TDCREATE
 40
2459110.504913183
  9
$TDUPDATE
 40
2459110.504913553
  9
$TDINDWG
 40
0.0000000116
  9
$TDUSRTIMER
 40
0.0000000116
  9
$USRTIMER
 70
     1
  9
$ANGBASE
 50
0.0
  9
$ANGDIR
 70
     0
  9
$PDMODE
 70
     0
  9
$PDSIZE
 40
0.0
  9
$PLINEWID
 40
0.0
  9
$COORDS
 70
     1
  9
$SPLFRAME
 70
     0
  9
$SPLINETYPE
 70
     6
  9
$SPLINESEGS
 70
     8
  9
$ATTDIA
 70
     0
  9
$ATTREQ
 70
     1
  9
$HANDLING
 70
     1
  9
$HANDSEED
  5
148
  9
$SURFTAB1
 70
     6
  9
$SURFTAB2
 70
     6
  9
$SURFTYPE
 70
     6
  9
$SURFU
 70
     6
  9
$SURFV
 70
     6
  9
$UCSNAME
  2

  9
$UCSORG
 10
0.0
 20
0.0
 30
0.0
  9
$UCSXDIR
 10
1.0
 20
0.0
 30
0.0
  9
$UCSYDIR
 10
0.0
 20
1.0
 30
0.0
  9
$USERI1
 70
     0
  9
$USERI2
 70
     0
  9
$USERI3
 70
     0
  9
$USERI4
 70
     0
  9
$USERI5
 70
     0
  9
$USERR1
 40
0.0
  9
$USERR2
 40
0.0
  9
$USERR3
 40
0.0
  9
$USERR4
 40
0.0
  9
$USERR5
 40
0.0
  9
$WORLDVIEW
 70
     1
  0
ENDSEC
  0
SECTION
  2
TABLES
  0
TABLE
  2
VPORT
 70
     1
  0
VPORT
  2
*ACTIVE
 70
     0
 10
0.0
 20
0.0
 11
1.0
 21
1.0
 12
197.4380016203414
 22
492.6030868223904
 13
0.0
 23
0.0
 14
0.5
 24
0.5
 15
0.5
 25
0.5
 16
0.0
 26
0.0
 36
1.0
 17
0.0
 27
0.0
 37
0.0
 40
53.4727272727273
 41
1.6
 42
50.0
 43
0.0
 44
0.0
 50
0.0
 51
0.0
 71
     0
 72
   100
 73
     1
 74
     3
 75
     0
 76
     0
 77
     0
 78
     0
  0
ENDTAB
  0
TABLE
  2
LTYPE
 70
     2
  0
LTYPE
  2
CONTINUOUS
 70
     0
  3
Solid line
 72
    65
 73
     0
 40
0.0
  0
LTYPE
  2
CENTER
 70
     0
  3

 72
    65
 73
     0
 40
0.0
  0
ENDTAB
  0
TABLE
  2
LAYER
 70
     1
  0
LAYER
  2
0
 70
     0
 62
     7
  6
CONTINUOUS
  0
ENDTAB
  0
TABLE
  2
STYLE
 70
     2
  0
STYLE
  2
STANDARD
 70
     0
 40
0.0
 41
1.0
 50
0.0
 71
     0
 42
0.2
  3
txt
  4

  0
STYLE
  2
ＭＳ_ゴシック
 70
     0
 40
0.0
 41
1.0
 50
0.0
 71
     0
 42
0.2
  3
ＭＳ ゴシック.shx
  4

  0
ENDTAB
  0
TABLE
  2
VIEW
 70
     0
  0
ENDTAB
  0
TABLE
  2
UCS
 70
     0
  0
ENDTAB
  0
ENDSEC
  0
SECTION
  2
BLOCKS
  0
BLOCK
  8
0
  2
D_FRAME_VIEW_1713
 70
     0
 10
0.0
 20
0.0
 30
0.0
  0
CIRCLE
  5
70
  8
0
  6
CONTINUOUS
 62
     7
 10
110.1616057122111
 20
500.8394504587541
 30
0.0
 40
16.5
  0
CIRCLE
  5
71
  8
0
  6
CONTINUOUS
 62
     7
 10
110.1616057122111
 20
500.8394504587541
 30
0.0
 40
17.0
  0
CIRCLE
  5
72
  8
0
  6
CONTINUOUS
 62
     7
 10
110.1616057122111
 20
500.8394504587541
 30
0.0
 40
10.3155
  0
CIRCLE
  5
73
  8
0
  6
CONTINUOUS
 62
     7
 10
110.1616057122111
 20
500.8394504587541
 30
0.0
 40
9.3155
  0
ARC
  5
74
  8
0
  6
CONTINUOUS
 62
     7
 10
110.1616057122111
 20
500.8394504587541
 30
0.0
 40
18.5
 50
263.2314565050074
 51
276.7685434949926
  0
LINE
  5
75
  8
0
  6
CONTINUOUS
 62
     7
 10
107.9812180420933
 20
482.4683887145871
 30
0.0
 11
105.2584793546955
 21
484.0403626286891
 31
0.0
  0
ARC
  5
76
  8
0
  6
CONTINUOUS
 62
     7
 10
110.1616057122111
 20
500.8394504587541
 30
0.0
 40
17.5
 50
253.7291326754124
 51
286.2708673245875
  0
LINE
  5
77
  8
0
  6
CONTINUOUS
 62
     7
 10
115.0647320697266
 20
484.0403626286891
 30
0.0
 11
112.3419933823288
 21
482.4683887145871
 31
0.0
  0
ARC
  5
78
  8
0
  6
CONTINUOUS
 62
     7
 10
110.1616057122111
 20
500.8394504587541
 30
0.0
 40
18.5
 50
323.2314565050074
 51
336.7685434949925
  0
ARC
  5
79
  8
0
  6
CONTINUOUS
 62
     7
 10
110.1616057122111
 20
500.8394504587541
 30
0.0
 40
17.49999999999999
 50
313.7291326754125
 51
346.2708673245874
  0
LINE
  5
7A
  8
0
  6
CONTINUOUS
 62
     7
 10
124.9812180420933
 20
489.7656484742502
 30
0.0
 11
122.2584793546956
 21
488.1936745601482
 31
0.0
  0
LINE
  5
7B
  8
0
  6
CONTINUOUS
 62
     7
 10
127.1616057122111
 20
496.6861385272951
 30
0.0
 11
127.1616057122111
 21
493.5421906990909
 31
0.0
  0
ARC
  5
7C
  8
0
  6
CONTINUOUS
 62
     7
 10
110.1616057122111
 20
500.8394504587541
 30
0.0
 40
18.5
 50
203.2314565050075
 51
216.7685434949926
  0
LINE
  5
7D
  8
0
  6
CONTINUOUS
 62
     7
 10
93.16160571221106
 20
493.5421906990909
 30
0.0
 11
93.16160571221106
 21
496.686138527295
 31
0.0
  0
ARC
  5
7E
  8
0
  6
CONTINUOUS
 62
     7
 10
110.1616057122111
 20
500.8394504587541
 30
0.0
 40
17.5
 50
193.7291326754126
 51
226.2708673245876
  0
LINE
  5
7F
  8
0
  6
CONTINUOUS
 62
     7
 10
98.06473206972657
 20
488.1936745601481
 30
0.0
 11
95.34199338232881
 21
489.7656484742502
 31
0.0
  0
ARC
  5
80
  8
0
  6
CONTINUOUS
 62
     7
 10
110.1616057122111
 20
500.8394504587541
 30
0.0
 40
18.5
 50
83.2314565050076
 51
96.76854349499264
  0
LINE
  5
81
  8
0
  6
CONTINUOUS
 62
     7
 10
112.3419933823288
 20
519.2105122029211
 30
0.0
 11
115.0647320697265
 21
517.6385382888191
 31
0.0
  0
ARC
  5
82
  8
0
  6
CONTINUOUS
 62
     7
 10
110.1616057122111
 20
500.8394504587541
 30
0.0
 40
17.5
 50
73.72913267541281
 51
106.2708673245875
  0
LINE
  5
83
  8
0
  6
CONTINUOUS
 62
     7
 10
105.2584793546955
 20
517.6385382888191
 30
0.0
 11
107.9812180420933
 21
519.2105122029212
 31
0.0
  0
LINE
  5
84
  8
0
  6
CONTINUOUS
 62
     7
 10
115.0647320697265
 20
517.6385382888191
 30
0.0
 11
118.6616057122111
 21
515.5618823230895
 31
0.0
  0
LINE
  5
85
  8
0
  6
CONTINUOUS
 62
     7
 10
118.6616057122111
 20
515.5618823230895
 30
0.0
 11
122.2584793546956
 21
513.48522635736
 31
0.0
  0
ARC
  5
86
  8
0
  6
CONTINUOUS
 62
     7
 10
110.1616057122111
 20
500.8394504587541
 30
0.0
 40
17.5
 50
13.7291326754126
 51
46.27086732458734
  0
LINE
  5
87
  8
0
  6
CONTINUOUS
 62
     7
 10
105.2584793546955
 20
484.0403626286891
 30
0.0
 11
101.6616057122111
 21
486.1170185944187
 31
0.0
  0
LINE
  5
88
  8
0
  6
CONTINUOUS
 62
     7
 10
101.6616057122111
 20
486.1170185944187
 30
0.0
 11
98.06473206972657
 21
488.1936745601481
 31
0.0
  0
LINE
  5
89
  8
0
  6
CONTINUOUS
 62
     7
 10
93.16160571221106
 20
496.6861385272951
 30
0.0
 11
93.16160571221106
 21
500.8394504587541
 31
0.0
  0
LINE
  5
8A
  8
0
  6
CONTINUOUS
 62
     7
 10
93.16160571221106
 20
500.8394504587541
 30
0.0
 11
93.16160571221106
 21
504.9927623902132
 31
0.0
  0
ARC
  5
8B
  8
0
  6
CONTINUOUS
 62
     7
 10
110.1616057122111
 20
500.8394504587541
 30
0.0
 40
17.5
 50
133.7291326754123
 51
166.2708673245874
  0
LINE
  5
8C
  8
0
  6
CONTINUOUS
 62
     7
 10
98.0647320697266
 20
513.4852263573601
 30
0.0
 11
101.6616057122111
 21
515.5618823230897
 31
0.0
  0
LINE
  5
8D
  8
0
  6
CONTINUOUS
 62
     7
 10
101.6616057122111
 20
515.5618823230897
 30
0.0
 11
105.2584793546956
 21
517.6385382888191
 31
0.0
  0
LINE
  5
8E
  8
0
  6
CONTINUOUS
 62
     7
 10
122.2584793546956
 20
488.1936745601481
 30
0.0
 11
118.6616057122111
 21
486.1170185944187
 31
0.0
  0
LINE
  5
8F
  8
0
  6
CONTINUOUS
 62
     7
 10
118.6616057122111
 20
486.1170185944187
 30
0.0
 11
115.0647320697266
 21
484.0403626286891
 31
0.0
  0
LINE
  5
90
  8
0
  6
CONTINUOUS
 62
     7
 10
127.1616057122111
 20
504.9927623902132
 30
0.0
 11
127.1616057122111
 21
500.8394504587541
 31
0.0
  0
LINE
  5
91
  8
0
  6
CONTINUOUS
 62
     7
 10
127.1616057122111
 20
500.8394504587541
 30
0.0
 11
127.1616057122111
 21
496.6861385272951
 31
0.0
  0
ARC
  5
92
  8
0
  6
CONTINUOUS
 62
     7
 10
110.1616057122111
 20
500.8394504587541
 30
0.0
 40
18.5
 50
23.23145650500748
 51
36.76854349499239
  0
LINE
  5
93
  8
0
  6
CONTINUOUS
 62
     7
 10
122.2584793546956
 20
513.48522635736
 30
0.0
 11
124.9812180420933
 21
511.9132524432579
 31
0.0
  0
LINE
  5
94
  8
0
  6
CONTINUOUS
 62
     7
 10
127.1616057122111
 20
508.1367102184173
 30
0.0
 11
127.1616057122111
 21
504.9927623902132
 31
0.0
  0
ARC
  5
95
  8
0
  6
CONTINUOUS
 62
     7
 10
110.1616057122111
 20
500.8394504587541
 30
0.0
 40
18.5
 50
143.2314565050074
 51
156.7685434949925
  0
LINE
  5
96
  8
0
  6
CONTINUOUS
 62
     7
 10
95.34199338232882
 20
511.913252443258
 30
0.0
 11
98.06473206972659
 21
513.4852263573601
 31
0.0
  0
LINE
  5
97
  8
0
  6
CONTINUOUS
 62
     7
 10
93.16160571221106
 20
504.9927623902132
 30
0.0
 11
93.16160571221106
 21
508.1367102184173
 31
0.0
  0
ENDBLK
  8
0
  0
BLOCK
  8
0
  2
D_FRAME_VIEW_1868
 70
     0
 10
0.0
 20
0.0
 30
0.0
  0
LINE
  5
9F
  8
0
  6
CONTINUOUS
 62
     7
 10
165.9098602707354
 20
483.8394504587541
 30
0.0
 11
165.9098602707354
 21
500.8394504587541
 31
0.0
  0
LINE
  5
A0
  8
0
  6
CONTINUOUS
 62
     7
 10
166.1598602707354
 20
517.5894504587541
 30
0.0
 11
166.1598602707354
 21
500.8394504587541
 31
0.0
  0
LINE
  5
A1
  8
0
  6
CONTINUOUS
 62
     7
 10
165.9098602707354
 20
500.8394504587541
 30
0.0
 11
165.9098602707354
 21
517.8394504587541
 31
0.0
  0
LINE
  5
A2
  8
0
  6
CONTINUOUS
 62
     7
 10
166.1598602707354
 20
500.8394504587541
 30
0.0
 11
166.1598602707354
 21
484.0894504587541
 31
0.0
  0
LINE
  5
A3
  8
0
  6
CONTINUOUS
 62
     7
 10
164.6598602707354
 20
517.8394504587541
 30
0.0
 11
164.6598602707354
 21
500.8394504587541
 31
0.0
  0
LINE
  5
A4
  8
0
  6
CONTINUOUS
 62
     7
 10
164.6598602707354
 20
500.8394504587541
 30
0.0
 11
164.6598602707354
 21
483.8394504587541
 31
0.0
  0
LINE
  5
A5
  8
0
  6
CONTINUOUS
 62
     7
 10
164.1598602707354
 20
484.3394504587541
 30
0.0
 11
164.1598602707354
 21
500.8394504587541
 31
0.0
  0
LINE
  5
A6
  8
0
  6
CONTINUOUS
 62
     7
 10
164.1598602707354
 20
500.8394504587541
 30
0.0
 11
164.1598602707354
 21
517.3394504587541
 31
0.0
  0
LINE
  5
A7
  8
0
  6
CONTINUOUS
 62
     7
 10
221.6598602707354
 20
493.5421906990909
 30
0.0
 11
221.6598602707354
 21
508.1367102184173
 31
0.0
  0
LINE
  5
A8
  8
0
  6
CONTINUOUS
 62
     7
 10
221.6598602707354
 20
508.1367102184173
 30
0.0
 11
222.6598602707354
 21
507.928173898133
 31
0.0
  0
LINE
  5
A9
  8
0
  6
CONTINUOUS
 62
     7
 10
222.6598602707354
 20
507.928173898133
 30
0.0
 11
222.6598602707354
 21
493.7507270193752
 31
0.0
  0
LINE
  5
AA
  8
0
  6
CONTINUOUS
 62
     7
 10
221.6598602707354
 20
493.5421906990909
 30
0.0
 11
222.6598602707354
 21
493.7507270193752
 31
0.0
  0
ARC
  5
AB
  8
0
  6
CONTINUOUS
 62
     7
 10
225.1585039556906
 20
499.56759612037
 30
0.0
 40
23.14349577566061
 50
158.2683380198197
 51
166.4428999456511
  0
LINE
  5
AC
  8
0
  6
CONTINUOUS
 62
     7
 10
221.6598602707354
 20
508.1367102184173
 30
0.0
 11
203.6598602707354
 21
508.1367102184173
 31
0.0
  0
LINE
  5
AD
  8
0
  6
CONTINUOUS
 62
     7
 10
203.6598602707354
 20
493.5421906990909
 30
0.0
 11
221.6598602707354
 21
493.5421906990909
 31
0.0
  0
ARC
  5
AE
  8
0
  6
CONTINUOUS
 62
     7
 10
225.1528144015624
 20
502.1094951124874
 30
0.0
 40
23.13754053873572
 50
193.5560462640439
 51
201.7327157704862
  0
LINE
  5
AF
  8
0
  6
CONTINUOUS
 62
     7
 10
202.6598602707354
 20
504.992762390213
 30
0.0
 11
202.6598602707354
 21
496.686138527295
 31
0.0
  0
LINE
  5
B0
  8
0
  6
CONTINUOUS
 62
     7
 10
221.6598602707354
 20
489.7656484742502
 30
0.0
 11
221.6598602707354
 21
493.5421906990908
 31
0.0
  0
LINE
  5
B1
  8
0
  6
CONTINUOUS
 62
     7
 10
221.6598602707354
 20
489.7656484742502
 30
0.0
 11
203.6598602707354
 21
489.7656484742502
 31
0.0
  0
LINE
  5
B2
  8
0
  6
CONTINUOUS
 62
     7
 10
203.6598602707354
 20
493.5421906990909
 30
0.0
 11
203.6598602707354
 21
489.7656484742502
 31
0.0
  0
LINE
  5
B3
  8
0
  6
CONTINUOUS
 62
     7
 10
203.6598602707354
 20
511.9132524432579
 30
0.0
 11
203.6598602707354
 21
508.1367102184173
 31
0.0
  0
LINE
  5
B4
  8
0
  6
CONTINUOUS
 62
     7
 10
202.6598602707354
 20
504.992762390213
 30
0.0
 11
202.6598602707354
 21
513.48522635736
 31
0.0
  0
ARC
  5
B5
  8
0
  6
CONTINUOUS
 62
     7
 10
210.1554566025008
 20
517.149438140255
 30
0.0
 40
8.343285465491523
 50
206.0516322588694
 51
218.8727444669969
  0
LINE
  5
B6
  8
0
  6
CONTINUOUS
 62
     7
 10
221.6598602707354
 20
508.1367102184173
 30
0.0
 11
221.6598602707354
 21
511.9132524432579
 31
0.0
  0
LINE
  5
B7
  8
0
  6
CONTINUOUS
 62
     7
 10
221.6598602707354
 20
511.9132524432579
 30
0.0
 11
222.6598602707354
 21
511.1514951996157
 31
0.0
  0
LINE
  5
B8
  8
0
  6
CONTINUOUS
 62
     7
 10
222.6598602707354
 20
511.1514951996157
 30
0.0
 11
222.6598602707354
 21
507.928173898133
 31
0.0
  0
LINE
  5
B9
  8
0
  6
CONTINUOUS
 62
     7
 10
203.6598602707354
 20
511.9132524432579
 30
0.0
 11
221.6598602707354
 21
511.9132524432579
 31
0.0
  0
ARC
  5
BA
  8
0
  6
CONTINUOUS
 62
     7
 10
210.1590125738286
 20
484.5272006714406
 30
0.0
 40
8.347473632277225
 50
141.1304853712089
 51
153.9451379029227
  0
LINE
  5
BB
  8
0
  6
CONTINUOUS
 62
     7
 10
202.6598602707354
 20
488.1936745601481
 30
0.0
 11
202.6598602707354
 21
496.686138527295
 31
0.0
  0
LINE
  5
BC
  8
0
  6
CONTINUOUS
 62
     7
 10
222.6598602707354
 20
493.7507270193752
 30
0.0
 11
222.6598602707354
 21
490.5274057178925
 31
0.0
  0
LINE
  5
BD
  8
0
  6
CONTINUOUS
 62
     7
 10
221.6598602707354
 20
489.7656484742502
 30
0.0
 11
222.6598602707354
 21
490.5274057178925
 31
0.0
  0
LINE
  5
BE
  8
0
  6
CONTINUOUS
 62
     7
 10
190.1598602707353
 20
517.5894504587541
 30
0.0
 11
190.1598602707353
 21
484.0894504587541
 31
0.0
  0
LINE
  5
BF
  8
0
  6
CONTINUOUS
 62
     7
 10
192.1598602707353
 20
517.5894504587541
 30
0.0
 11
192.1598602707353
 21
484.0894504587541
 31
0.0
  0
LINE
  5
C0
  8
0
  6
CONTINUOUS
 62
     7
 10
192.6598602707354
 20
517.0894504587541
 30
0.0
 11
192.6598602707354
 21
484.5894504587541
 31
0.0
  0
LINE
  5
C1
  8
0
  6
CONTINUOUS
 62
     7
 10
190.6598602707354
 20
517.0894504587541
 30
0.0
 11
190.6598602707354
 21
484.5894504587541
 31
0.0
  0
LINE
  5
C2
  8
0
  6
CONTINUOUS
 62
     7
 10
191.1598602707353
 20
517.5894504587541
 30
0.0
 11
191.1598602707353
 21
484.0894504587541
 31
0.0
  0
LINE
  5
C3
  8
0
  6
CONTINUOUS
 62
     7
 10
198.1598602707354
 20
517.5894504587541
 30
0.0
 11
198.1598602707354
 21
484.0894504587541
 31
0.0
  0
LINE
  5
C4
  8
0
  6
CONTINUOUS
 62
     7
 10
198.6598602707354
 20
517.0894504587541
 30
0.0
 11
198.6598602707354
 21
484.5894504587541
 31
0.0
  0
LINE
  5
C5
  8
0
  6
CONTINUOUS
 62
     7
 10
199.1598602707354
 20
517.5894504587541
 30
0.0
 11
199.1598602707354
 21
484.0894504587541
 31
0.0
  0
LINE
  5
C6
  8
0
  6
CONTINUOUS
 62
     7
 10
195.1598602707354
 20
517.5894504587541
 30
0.0
 11
195.1598602707354
 21
484.0894504587541
 31
0.0
  0
LINE
  5
C7
  8
0
  6
CONTINUOUS
 62
     7
 10
196.1598602707354
 20
517.5894504587541
 30
0.0
 11
196.1598602707354
 21
484.0894504587541
 31
0.0
  0
LINE
  5
C8
  8
0
  6
CONTINUOUS
 62
     7
 10
193.1598602707353
 20
517.5894504587541
 30
0.0
 11
193.1598602707353
 21
484.0894504587541
 31
0.0
  0
LINE
  5
C9
  8
0
  6
CONTINUOUS
 62
     7
 10
194.1598602707353
 20
517.5894504587541
 30
0.0
 11
194.1598602707353
 21
484.0894504587541
 31
0.0
  0
LINE
  5
CA
  8
0
  6
CONTINUOUS
 62
     7
 10
196.6598602707354
 20
517.0894504587541
 30
0.0
 11
196.6598602707354
 21
484.5894504587541
 31
0.0
  0
LINE
  5
CB
  8
0
  6
CONTINUOUS
 62
     7
 10
197.1598602707354
 20
517.5894504587541
 30
0.0
 11
197.1598602707354
 21
484.0894504587541
 31
0.0
  0
LINE
  5
CC
  8
0
  6
CONTINUOUS
 62
     7
 10
194.6598602707354
 20
517.0894504587541
 30
0.0
 11
194.6598602707354
 21
484.5894504587541
 31
0.0
  0
ARC
  5
CD
  8
0
  6
CONTINUOUS
 62
     7
 10
210.1590125738303
 20
513.9720644001103
 30
0.0
 40
8.347473632279245
 50
141.1304853712093
 51
153.9451379029197
  0
LINE
  5
CE
  8
0
  6
CONTINUOUS
 62
     7
 10
221.6598602707354
 20
519.2105122029211
 30
0.0
 11
203.6598602707354
 21
519.2105122029211
 31
0.0
  0
LINE
  5
CF
  8
0
  6
CONTINUOUS
 62
     7
 10
221.6598602707354
 20
511.9132524432579
 30
0.0
 11
221.6598602707354
 21
519.2105122029211
 31
0.0
  0
LINE
  5
D0
  8
0
  6
CONTINUOUS
 62
     7
 10
202.6598602707354
 20
517.6385382888191
 30
0.0
 11
202.6598602707354
 21
513.48522635736
 31
0.0
  0
LINE
  5
D1
  8
0
  6
CONTINUOUS
 62
     7
 10
221.6598602707354
 20
519.2105122029211
 30
0.0
 11
222.6598602707354
 21
518.2402186389946
 31
0.0
  0
LINE
  5
D2
  8
0
  6
CONTINUOUS
 62
     7
 10
222.6598602707354
 20
518.2402186389946
 30
0.0
 11
222.6598602707354
 21
511.1514951996157
 31
0.0
  0
LINE
  5
D3
  8
0
  6
CONTINUOUS
 62
     7
 10
221.6598602707354
 20
482.468388714587
 30
0.0
 11
221.6598602707354
 21
489.7656484742502
 31
0.0
  0
LINE
  5
D4
  8
0
  6
CONTINUOUS
 62
     7
 10
203.6598602707354
 20
482.468388714587
 30
0.0
 11
221.6598602707354
 21
482.468388714587
 31
0.0
  0
ARC
  5
D5
  8
0
  6
CONTINUOUS
 62
     7
 10
210.1554566024984
 20
487.7045744115828
 30
0.0
 40
8.343285465488842
 50
206.0516322588686
 51
218.872744467
  0
LINE
  5
D6
  8
0
  6
CONTINUOUS
 62
     7
 10
202.6598602707354
 20
488.1936745601481
 30
0.0
 11
202.6598602707354
 21
484.0403626286891
 31
0.0
  0
LINE
  5
D7
  8
0
  6
CONTINUOUS
 62
     7
 10
221.6598602707354
 20
482.468388714587
 30
0.0
 11
222.6598602707354
 21
483.4386822785136
 31
0.0
  0
LINE
  5
D8
  8
0
  6
CONTINUOUS
 62
     7
 10
222.6598602707354
 20
490.5274057178925
 30
0.0
 11
222.6598602707354
 21
483.4386822785136
 31
0.0
  0
LINE
  5
D9
  8
0
  6
CONTINUOUS
 62
     7
 10
202.6598602707354
 20
483.3394504587541
 30
0.0
 11
202.6598602707354
 21
484.0403626286891
 31
0.0
  0
LINE
  5
DA
  8
0
  6
CONTINUOUS
 62
     7
 10
203.6598602707354
 20
482.468388714587
 30
0.0
 11
203.6598602707354
 21
482.3394504587541
 31
0.0
  0
LINE
  5
DB
  8
0
  6
CONTINUOUS
 62
     7
 10
203.6598602707354
 20
519.3394504587541
 30
0.0
 11
203.6598602707354
 21
519.2105122029211
 31
0.0
  0
LINE
  5
DC
  8
0
  6
CONTINUOUS
 62
     7
 10
202.6598602707354
 20
517.6385382888191
 30
0.0
 11
202.6598602707354
 21
518.3394504587541
 31
0.0
  0
LINE
  5
DD
  8
0
  6
CONTINUOUS
 62
     7
 10
221.6598602707354
 20
482.3394504587541
 30
0.0
 11
221.6598602707354
 21
482.468388714587
 31
0.0
  0
LINE
  5
DE
  8
0
  6
CONTINUOUS
 62
     7
 10
222.6598602707354
 20
483.4386822785136
 30
0.0
 11
222.6598602707354
 21
483.3394504587541
 31
0.0
  0
LINE
  5
DF
  8
0
  6
CONTINUOUS
 62
     7
 10
221.6598602707354
 20
519.2105122029211
 30
0.0
 11
221.6598602707354
 21
519.3394504587541
 31
0.0
  0
LINE
  5
E0
  8
0
  6
CONTINUOUS
 62
     7
 10
222.6598602707354
 20
518.3394504587541
 30
0.0
 11
222.6598602707354
 21
518.2402186389946
 31
0.0
  0
LINE
  5
E1
  8
0
  6
CONTINUOUS
 62
     7
 10
165.9098602707354
 20
483.8394504587541
 30
0.0
 11
166.1598602707354
 21
484.0894504587541
 31
0.0
  0
LINE
  5
E2
  8
0
  6
CONTINUOUS
 62
     7
 10
166.1598602707354
 20
517.5894504587541
 30
0.0
 11
165.9098602707354
 21
517.8394504587541
 31
0.0
  0
LINE
  5
E3
  8
0
  6
CONTINUOUS
 62
     7
 10
164.6598602707354
 20
483.8394504587541
 30
0.0
 11
165.9098602707354
 21
483.8394504587541
 31
0.0
  0
LINE
  5
E4
  8
0
  6
CONTINUOUS
 62
     7
 10
165.9098602707354
 20
517.8394504587541
 30
0.0
 11
164.6598602707354
 21
517.8394504587541
 31
0.0
  0
LINE
  5
E5
  8
0
  6
CONTINUOUS
 62
     7
 10
164.6598602707354
 20
517.8394504587541
 30
0.0
 11
164.1598602707354
 21
517.3394504587541
 31
0.0
  0
LINE
  5
E6
  8
0
  6
CONTINUOUS
 62
     7
 10
164.1598602707354
 20
484.3394504587541
 30
0.0
 11
164.6598602707354
 21
483.8394504587541
 31
0.0
  0
LINE
  5
E7
  8
0
  6
CONTINUOUS
 62
     7
 10
166.1598602707354
 20
484.0894504587541
 30
0.0
 11
190.1598602707353
 21
484.0894504587541
 31
0.0
  0
LINE
  5
E8
  8
0
  6
CONTINUOUS
 62
     7
 10
190.1598602707353
 20
517.5894504587541
 30
0.0
 11
166.1598602707354
 21
517.5894504587541
 31
0.0
  0
LINE
  5
E9
  8
0
  6
CONTINUOUS
 62
     7
 10
192.1598602707353
 20
484.0894504587541
 30
0.0
 11
192.6598602707354
 21
484.5894504587541
 31
0.0
  0
LINE
  5
EA
  8
0
  6
CONTINUOUS
 62
     7
 10
192.6598602707354
 20
517.0894504587541
 30
0.0
 11
192.1598602707353
 21
517.5894504587541
 31
0.0
  0
LINE
  5
EB
  8
0
  6
CONTINUOUS
 62
     7
 10
190.1598602707353
 20
484.0894504587541
 30
0.0
 11
190.6598602707354
 21
484.5894504587541
 31
0.0
  0
LINE
  5
EC
  8
0
  6
CONTINUOUS
 62
     7
 10
190.6598602707354
 20
517.0894504587541
 30
0.0
 11
190.1598602707353
 21
517.5894504587541
 31
0.0
  0
LINE
  5
ED
  8
0
  6
CONTINUOUS
 62
     7
 10
191.1598602707353
 20
484.0894504587541
 30
0.0
 11
192.1598602707353
 21
484.0894504587541
 31
0.0
  0
LINE
  5
EE
  8
0
  6
CONTINUOUS
 62
     7
 10
192.1598602707353
 20
517.5894504587541
 30
0.0
 11
191.1598602707353
 21
517.5894504587541
 31
0.0
  0
LINE
  5
EF
  8
0
  6
CONTINUOUS
 62
     7
 10
198.1598602707354
 20
484.0894504587541
 30
0.0
 11
198.6598602707354
 21
484.5894504587541
 31
0.0
  0
LINE
  5
F0
  8
0
  6
CONTINUOUS
 62
     7
 10
198.6598602707354
 20
517.0894504587541
 30
0.0
 11
198.1598602707354
 21
517.5894504587541
 31
0.0
  0
LINE
  5
F1
  8
0
  6
CONTINUOUS
 62
     7
 10
199.1598602707354
 20
484.0894504587541
 30
0.0
 11
202.6598602707354
 21
484.0894504587541
 31
0.0
  0
LINE
  5
F2
  8
0
  6
CONTINUOUS
 62
     7
 10
202.6598602707354
 20
517.5894504587541
 30
0.0
 11
199.1598602707354
 21
517.5894504587541
 31
0.0
  0
LINE
  5
F3
  8
0
  6
CONTINUOUS
 62
     7
 10
195.1598602707354
 20
484.0894504587541
 30
0.0
 11
196.1598602707354
 21
484.0894504587541
 31
0.0
  0
LINE
  5
F4
  8
0
  6
CONTINUOUS
 62
     7
 10
196.1598602707354
 20
517.5894504587541
 30
0.0
 11
195.1598602707354
 21
517.5894504587541
 31
0.0
  0
LINE
  5
F5
  8
0
  6
CONTINUOUS
 62
     7
 10
193.1598602707353
 20
484.0894504587541
 30
0.0
 11
194.1598602707353
 21
484.0894504587541
 31
0.0
  0
LINE
  5
F6
  8
0
  6
CONTINUOUS
 62
     7
 10
194.1598602707353
 20
517.5894504587541
 30
0.0
 11
193.1598602707353
 21
517.5894504587541
 31
0.0
  0
LINE
  5
F7
  8
0
  6
CONTINUOUS
 62
     7
 10
196.1598602707354
 20
484.0894504587541
 30
0.0
 11
196.6598602707354
 21
484.5894504587541
 31
0.0
  0
LINE
  5
F8
  8
0
  6
CONTINUOUS
 62
     7
 10
196.6598602707354
 20
517.0894504587541
 30
0.0
 11
196.1598602707354
 21
517.5894504587541
 31
0.0
  0
LINE
  5
F9
  8
0
  6
CONTINUOUS
 62
     7
 10
197.1598602707354
 20
484.0894504587541
 30
0.0
 11
198.1598602707354
 21
484.0894504587541
 31
0.0
  0
LINE
  5
FA
  8
0
  6
CONTINUOUS
 62
     7
 10
198.1598602707354
 20
517.5894504587541
 30
0.0
 11
197.1598602707354
 21
517.5894504587541
 31
0.0
  0
LINE
  5
FB
  8
0
  6
CONTINUOUS
 62
     7
 10
194.1598602707353
 20
484.0894504587541
 30
0.0
 11
194.6598602707354
 21
484.5894504587541
 31
0.0
  0
LINE
  5
FC
  8
0
  6
CONTINUOUS
 62
     7
 10
194.6598602707354
 20
517.0894504587541
 30
0.0
 11
194.1598602707353
 21
517.5894504587541
 31
0.0
  0
LINE
  5
FD
  8
0
  6
CONTINUOUS
 62
     7
 10
191.1598602707353
 20
517.5894504587541
 30
0.0
 11
190.6598602707354
 21
517.0894504587541
 31
0.0
  0
LINE
  5
FE
  8
0
  6
CONTINUOUS
 62
     7
 10
190.6598602707354
 20
484.5894504587541
 30
0.0
 11
191.1598602707353
 21
484.0894504587541
 31
0.0
  0
LINE
  5
FF
  8
0
  6
CONTINUOUS
 62
     7
 10
197.1598602707354
 20
517.5894504587541
 30
0.0
 11
196.6598602707354
 21
517.0894504587541
 31
0.0
  0
LINE
  5
100
  8
0
  6
CONTINUOUS
 62
     7
 10
196.6598602707354
 20
484.5894504587541
 30
0.0
 11
197.1598602707354
 21
484.0894504587541
 31
0.0
  0
LINE
  5
101
  8
0
  6
CONTINUOUS
 62
     7
 10
193.1598602707353
 20
517.5894504587541
 30
0.0
 11
192.6598602707354
 21
517.0894504587541
 31
0.0
  0
LINE
  5
102
  8
0
  6
CONTINUOUS
 62
     7
 10
192.6598602707354
 20
484.5894504587541
 30
0.0
 11
193.1598602707353
 21
484.0894504587541
 31
0.0
  0
LINE
  5
103
  8
0
  6
CONTINUOUS
 62
     7
 10
199.1598602707354
 20
517.5894504587541
 30
0.0
 11
198.6598602707354
 21
517.0894504587541
 31
0.0
  0
LINE
  5
104
  8
0
  6
CONTINUOUS
 62
     7
 10
198.6598602707354
 20
484.5894504587541
 30
0.0
 11
199.1598602707354
 21
484.0894504587541
 31
0.0
  0
LINE
  5
105
  8
0
  6
CONTINUOUS
 62
     7
 10
195.1598602707354
 20
517.5894504587541
 30
0.0
 11
194.6598602707354
 21
517.0894504587541
 31
0.0
  0
LINE
  5
106
  8
0
  6
CONTINUOUS
 62
     7
 10
194.6598602707354
 20
484.5894504587541
 30
0.0
 11
195.1598602707354
 21
484.0894504587541
 31
0.0
  0
LINE
  5
107
  8
0
  6
CONTINUOUS
 62
     7
 10
202.6598602707354
 20
483.3394504587541
 30
0.0
 11
203.6598602707354
 21
482.3394504587541
 31
0.0
  0
LINE
  5
108
  8
0
  6
CONTINUOUS
 62
     7
 10
203.6598602707354
 20
519.3394504587541
 30
0.0
 11
202.6598602707354
 21
518.3394504587541
 31
0.0
  0
LINE
  5
109
  8
0
  6
CONTINUOUS
 62
     7
 10
203.6598602707354
 20
482.3394504587541
 30
0.0
 11
221.6598602707354
 21
482.3394504587541
 31
0.0
  0
LINE
  5
10A
  8
0
  6
CONTINUOUS
 62
     7
 10
221.6598602707354
 20
482.3394504587541
 30
0.0
 11
222.6598602707354
 21
483.3394504587541
 31
0.0
  0
LINE
  5
10B
  8
0
  6
CONTINUOUS
 62
     7
 10
221.6598602707354
 20
519.3394504587541
 30
0.0
 11
203.6598602707354
 21
519.3394504587541
 31
0.0
  0
LINE
  5
10C
  8
0
  6
CONTINUOUS
 62
     7
 10
222.6598602707354
 20
518.3394504587541
 30
0.0
 11
221.6598602707354
 21
519.3394504587541
 31
0.0
  0
ENDBLK
  8
0
  0
BLOCK
  8
0
  2
D_FRAME_VIEW_1910
 70
     0
 10
0.0
 20
0.0
 30
0.0
  0
ARC
  5
111
  8
0
  6
CONTINUOUS
 62
     7
 10
284.7143975284716
 20
500.8394504587541
 30
0.0
 40
18.50000000000004
 50
203.2314565050075
 51
216.7685434949925
  0
LINE
  5
112
  8
0
  6
CONTINUOUS
 62
     7
 10
267.7143975284716
 20
493.5421906990909
 30
0.0
 11
268.7143975284716
 21
493.7507270193752
 31
0.0
  0
ARC
  5
113
  8
0
  6
CONTINUOUS
 62
     7
 10
284.7143975284716
 20
500.8394504587541
 30
0.0
 40
17.50000000000002
 50
203.8955081861615
 51
216.1044918138385
  0
LINE
  5
114
  8
0
  6
CONTINUOUS
 62
     7
 10
269.8947851985894
 20
489.7656484742502
 30
0.0
 11
270.5753829495673
 21
490.5274057178925
 31
0.0
  0
LINE
  5
115
  8
0
  6
CONTINUOUS
 62
     7
 10
300.7143975284717
 20
493.7507270193752
 30
0.0
 11
300.7143975284717
 21
507.928173898133
 31
0.0
  0
LINE
  5
116
  8
0
  6
CONTINUOUS
 62
     7
 10
300.7143975284717
 20
507.928173898133
 30
0.0
 11
301.7143975284717
 21
508.1367102184173
 31
0.0
  0
LINE
  5
117
  8
0
  6
CONTINUOUS
 62
     7
 10
301.7143975284717
 20
508.1367102184173
 30
0.0
 11
301.7143975284717
 21
493.5421906990909
 31
0.0
  0
LINE
  5
118
  8
0
  6
CONTINUOUS
 62
     7
 10
300.7143975284717
 20
493.7507270193752
 30
0.0
 11
301.7143975284717
 21
493.5421906990909
 31
0.0
  0
LINE
  5
119
  8
0
  6
CONTINUOUS
 62
     7
 10
267.7143975284716
 20
493.5421906990909
 30
0.0
 11
267.7143975284716
 21
508.1367102184173
 31
0.0
  0
LINE
  5
11A
  8
0
  6
CONTINUOUS
 62
     7
 10
267.7143975284716
 20
508.1367102184173
 30
0.0
 11
268.7143975284716
 21
507.928173898133
 31
0.0
  0
LINE
  5
11B
  8
0
  6
CONTINUOUS
 62
     7
 10
268.7143975284716
 20
507.928173898133
 30
0.0
 11
268.7143975284716
 21
493.7507270193752
 31
0.0
  0
ARC
  5
11C
  8
0
  6
CONTINUOUS
 62
     7
 10
284.7143975284716
 20
500.8394504587541
 30
0.0
 40
17.50000000000002
 50
23.89550818616149
 51
36.10449181383866
  0
LINE
  5
11D
  8
0
  6
CONTINUOUS
 62
     7
 10
298.853412107376
 20
511.1514951996157
 30
0.0
 11
299.534009858354
 21
511.9132524432579
 31
0.0
  0
ARC
  5
11E
  8
0
  6
CONTINUOUS
 62
     7
 10
284.7143975284716
 20
500.8394504587541
 30
0.0
 40
18.49999999999998
 50
23.23145650500754
 51
36.76854349499263
  0
ARC
  5
11F
  8
0
  6
CONTINUOUS
 62
     7
 10
284.7143975284716
 20
500.8394504587541
 30
0.0
 40
18.50000000000002
 50
143.2314565050076
 51
156.7685434949925
  0
LINE
  5
120
  8
0
  6
CONTINUOUS
 62
     7
 10
269.8947851985894
 20
511.9132524432579
 30
0.0
 11
270.5753829495673
 21
511.1514951996157
 31
0.0
  0
ARC
  5
121
  8
0
  6
CONTINUOUS
 62
     7
 10
284.7143975284716
 20
500.8394504587541
 30
0.0
 40
17.49999999999998
 50
143.8955081861615
 51
156.1044918138385
  0
LINE
  5
122
  8
0
  6
CONTINUOUS
 62
     7
 10
298.853412107376
 20
511.1514951996157
 30
0.0
 11
286.5753829495674
 21
518.2402186389946
 31
0.0
  0
LINE
  5
123
  8
0
  6
CONTINUOUS
 62
     7
 10
286.5753829495674
 20
518.2402186389946
 30
0.0
 11
286.8947851985894
 21
519.2105122029211
 31
0.0
  0
LINE
  5
124
  8
0
  6
CONTINUOUS
 62
     7
 10
286.8947851985894
 20
519.2105122029211
 30
0.0
 11
299.534009858354
 21
511.9132524432579
 31
0.0
  0
LINE
  5
125
  8
0
  6
CONTINUOUS
 62
     7
 10
269.8947851985894
 20
511.9132524432579
 30
0.0
 11
282.534009858354
 21
519.2105122029211
 31
0.0
  0
LINE
  5
126
  8
0
  6
CONTINUOUS
 62
     7
 10
282.534009858354
 20
519.2105122029211
 30
0.0
 11
282.853412107376
 21
518.2402186389946
 31
0.0
  0
LINE
  5
127
  8
0
  6
CONTINUOUS
 62
     7
 10
282.853412107376
 20
518.2402186389946
 30
0.0
 11
270.5753829495673
 21
511.1514951996157
 31
0.0
  0
ARC
  5
128
  8
0
  6
CONTINUOUS
 62
     7
 10
284.7143975284716
 20
500.8394504587541
 30
0.0
 40
17.49999999999992
 50
83.89550818616138
 51
96.1044918138385
  0
ARC
  5
129
  8
0
  6
CONTINUOUS
 62
     7
 10
284.7143975284716
 20
500.8394504587541
 30
0.0
 40
18.49999999999996
 50
83.23145650500737
 51
96.7685434949924
  0
LINE
  5
12A
  8
0
  6
CONTINUOUS
 62
     7
 10
286.5753829495674
 20
483.4386822785136
 30
0.0
 11
298.853412107376
 21
490.5274057178925
 31
0.0
  0
LINE
  5
12B
  8
0
  6
CONTINUOUS
 62
     7
 10
298.853412107376
 20
490.5274057178925
 30
0.0
 11
299.534009858354
 21
489.7656484742502
 31
0.0
  0
LINE
  5
12C
  8
0
  6
CONTINUOUS
 62
     7
 10
299.534009858354
 20
489.7656484742502
 30
0.0
 11
286.8947851985894
 21
482.468388714587
 31
0.0
  0
LINE
  5
12D
  8
0
  6
CONTINUOUS
 62
     7
 10
286.5753829495674
 20
483.4386822785136
 30
0.0
 11
286.8947851985894
 21
482.468388714587
 31
0.0
  0
CIRCLE
  5
12E
  8
0
  6
CONTINUOUS
 62
     7
 10
284.7143975284716
 20
500.8394504587541
 30
0.0
 40
13.05849999999997
  0
ARC
  5
12F
  8
0
  6
CONTINUOUS
 62
     7
 10
284.7143975284716
 20
500.8394504587541
 30
0.0
 40
17.50000000000001
 50
323.8955081861614
 51
336.1044918138386
  0
ARC
  5
130
  8
0
  6
CONTINUOUS
 62
     7
 10
284.7143975284716
 20
500.8394504587541
 30
0.0
 40
17.50000000000003
 50
263.8955081861614
 51
276.1044918138386
  0
LINE
  5
131
  8
0
  6
CONTINUOUS
 62
     7
 10
270.5753829495673
 20
490.5274057178925
 30
0.0
 11
282.853412107376
 21
483.4386822785136
 31
0.0
  0
ARC
  5
132
  8
0
  6
CONTINUOUS
 62
     7
 10
284.7143975284716
 20
500.8394504587541
 30
0.0
 40
18.50000000000002
 50
263.2314565050074
 51
276.7685434949926
  0
LINE
  5
133
  8
0
  6
CONTINUOUS
 62
     7
 10
282.5340098583539
 20
482.468388714587
 30
0.0
 11
282.853412107376
 21
483.4386822785136
 31
0.0
  0
CIRCLE
  5
134
  8
0
  6
CONTINUOUS
 62
     7
 10
284.7143975284716
 20
500.8394504587541
 30
0.0
 40
12.0283640594111
  0
LINE
  5
135
  8
0
  6
CONTINUOUS
 62
     7
 10
282.5340098583539
 20
482.468388714587
 30
0.0
 11
269.8947851985894
 21
489.7656484742502
 31
0.0
  0
ARC
  5
136
  8
0
  6
CONTINUOUS
 62
     7
 10
284.7143975284716
 20
500.8394504587541
 30
0.0
 40
18.50000000000002
 50
323.2314565050074
 51
336.7685434949925
  0
CIRCLE
  5
137
  8
0
  6
CONTINUOUS
 62
     7
 10
284.7143975284716
 20
500.8394504587541
 30
0.0
 40
11.55723437509443
  0
CIRCLE
  5
138
  8
0
  6
CONTINUOUS
 62
     7
 10
284.7143975284716
 20
500.8394504587541
 30
0.0
 40
9.315499999999977
  0
ENDBLK
  8
0
  0
ENDSEC
  0
SECTION
  2
ENTITIES
  0
INSERT
  5
98
  8
0
  6
CENTER
 62
     7
  2
D_FRAME_VIEW_1713
 10
0.0
 20
0.0
 30
0.0
  0
TEXT
  5
9A
  8
0
  6
CONTINUOUS
 62
     7
 10
274.7658855864934
 20
465.5246886730844
 30
0.0
 40
3.0
  1
GSMRM-20-15
  0
LINE
  5
9B
  8
0
  6
CENTER
 62
     7
 10
161.1598602707354
 20
500.8394504587541
 30
0.0
 11
225.6598602707354
 21
500.8394504587541
 31
0.0
  0
INSERT
  5
10D
  8
0
  6
CENTER
 62
     7
  2
D_FRAME_VIEW_1868
 10
0.0
 20
0.0
 30
0.0
  0
INSERT
  5
139
  8
0
  6
CENTER
 62
     7
  2
D_FRAME_VIEW_1910
 10
0.0
 20
0.0
 30
0.0
  0
LINE
  5
13A
  8
0
  6
CENTER
 62
     1
 10
269.6558975284717
 20
500.8394504587541
 30
0.0
 11
299.7728975284716
 21
500.8394504587541
 31
0.0
  0
LINE
  5
13B
  8
0
  6
CENTER
 62
     1
 10
284.7143975284716
 20
485.7809504587541
 30
0.0
 11
284.7143975284716
 21
515.897950458754
 31
0.0
  0
LINE
  5
13C
  8
0
  6
CENTER
 62
     1
 10
110.1616057122111
 20
488.5239504587541
 30
0.0
 11
110.1616057122111
 21
513.1549504587541
 31
0.0
  0
LINE
  5
13D
  8
0
  6
CENTER
 62
     1
 10
97.84610571221106
 20
500.8394504587541
 30
0.0
 11
122.4771057122111
 21
500.8394504587541
 31
0.0
  0
POINT
  5
13E
  8
0
 62
     7
 10
193.4098602707354
 20
500.8394504587541
 30
0.0
  0
ENDSEC
  0
EOF
