  0
SECTION
  2
HEADER
  9
$ACADVER
  1
AC1006
  9
$DWGCODEPAGE
  3
ansi_932
  9
$INSBASE
 10
0.0
 20
0.0
 30
0.0
  9
$EXTMIN
 10
60.43439433277202
 20
460.4481000318337
  9
$EXTMAX
 10
263.6113698225237
 20
518.9208273045609
  9
$LIMMIN
 10
0.0
 20
0.0
  9
$LIMMAX
 10
12.0
 20
9.0
  9
$ORTHOMODE
 70
     0
  9
$REGENMODE
 70
     1
  9
$FILLMODE
 70
     1
  9
$QTEXTMODE
 70
     0
  9
$MIRRTEXT
 70
     1
  9
$DRAGMODE
 70
     2
  9
$LTSCALE
 40
1.0
  9
$OSMODE
 70
    37
  9
$ATTMODE
 70
     1
  9
$TEXTSIZE
 40
0.2
  9
$TRACEWID
 40
0.05
  9
$TEXTSTYLE
  7
STANDARD
  9
$CLAYER
  8
0
  9
$CELTYPE
  6
BYLAYER
  9
$CECOLOR
 62
   256
  9
$DIMSCALE
 40
1.0
  9
$DIMASZ
 40
3.0
  9
$DIMEXO
 40
0.0625
  9
$DIMDLI
 40
0.38
  9
$DIMRND
 40
0.0
  9
$DIMDLE
 40
0.0
  9
$DIMEXE
 40
1.5
  9
$DIMTP
 40
0.0
  9
$DIMTM
 40
0.0
  9
$DIMTXT
 40
3.0
  9
$DIMCEN
 40
0.09
  9
$DIMTSZ
 40
0.0
  9
$DIMTOL
 70
     0
  9
$DIMLIM
 70
     0
  9
$DIMTIH
 70
     1
  9
$DIMTOH
 70
     1
  9
$DIMSE1
 70
     0
  9
$DIMSE2
 70
     0
  9
$DIMTAD
 70
     1
  9
$DIMZIN
 70
     0
  9
$DIMBLK
  1

  9
$DIMASO
 70
     1
  9
$DIMSHO
 70
     1
  9
$DIMPOST
  1

  9
$DIMAPOST
  1

  9
$DIMALT
 70
     0
  9
$DIMALTD
 70
     2
  9
$DIMALTF
 40
25.4
  9
$DIMLFAC
 40
1.0
  9
$DIMTOFL
 70
     0
  9
$DIMTVP
 40
0.0
  9
$DIMTIX
 70
     0
  9
$DIMSOXD
 70
     0
  9
$DIMSAH
 70
     0
  9
$DIMBLK1
  1

  9
$DIMBLK2
  1

  9
$LUNITS
 70
     2
  9
$LUPREC
 70
     4
  9
$SKETCHINC
 40
0.1
  9
$FILLETRAD
 40
0.5
  9
$AUNITS
 70
     0
  9
$AUPREC
 70
     0
  9
$MENU
  1
.
  9
$ELEVATION
 40
0.0
  9
$THICKNESS
 40
0.0
  9
$LIMCHECK
 70
     0
  9
$CHAMFERA
 40
0.0
  9
$CHAMFERB
 40
0.0
  9
$SKPOLY
 70
     0
  9
$TDCREATE
 40
2459110.505437928
  9
$TDUPDATE
 40
2459110.505438136
  9
$TDINDWG
 40
0.0000000116
  9
$TDUSRTIMER
 40
0.0000000116
  9
$USRTIMER
 70
     1
  9
$ANGBASE
 50
0.0
  9
$ANGDIR
 70
     0
  9
$PDMODE
 70
     0
  9
$PDSIZE
 40
0.0
  9
$PLINEWID
 40
0.0
  9
$COORDS
 70
     1
  9
$SPLFRAME
 70
     0
  9
$SPLINETYPE
 70
     6
  9
$SPLINESEGS
 70
     8
  9
$ATTDIA
 70
     0
  9
$ATTREQ
 70
     1
  9
$HANDLING
 70
     1
  9
$HANDSEED
  5
148
  9
$SURFTAB1
 70
     6
  9
$SURFTAB2
 70
     6
  9
$SURFTYPE
 70
     6
  9
$SURFU
 70
     6
  9
$SURFV
 70
     6
  9
$UCSNAME
  2

  9
$UCSORG
 10
0.0
 20
0.0
 30
0.0
  9
$UCSXDIR
 10
1.0
 20
0.0
 30
0.0
  9
$UCSYDIR
 10
0.0
 20
1.0
 30
0.0
  9
$USERI1
 70
     0
  9
$USERI2
 70
     0
  9
$USERI3
 70
     0
  9
$USERI4
 70
     0
  9
$USERI5
 70
     0
  9
$USERR1
 40
0.0
  9
$USERR2
 40
0.0
  9
$USERR3
 40
0.0
  9
$USERR4
 40
0.0
  9
$USERR5
 40
0.0
  9
$WORLDVIEW
 70
     1
  0
ENDSEC
  0
SECTION
  2
TABLES
  0
TABLE
  2
VPORT
 70
     1
  0
VPORT
  2
*ACTIVE
 70
     0
 10
0.0
 20
0.0
 11
1.0
 21
1.0
 12
162.0228820776479
 22
489.6844636681973
 13
0.0
 23
0.0
 14
0.5
 24
0.5
 15
0.5
 25
0.5
 16
0.0
 26
0.0
 36
1.0
 17
0.0
 27
0.0
 37
0.0
 40
58.47272727272724
 41
1.6
 42
50.0
 43
0.0
 44
0.0
 50
0.0
 51
0.0
 71
     0
 72
   100
 73
     1
 74
     3
 75
     0
 76
     0
 77
     0
 78
     0
  0
ENDTAB
  0
TABLE
  2
LTYPE
 70
     2
  0
LTYPE
  2
CONTINUOUS
 70
     0
  3
Solid line
 72
    65
 73
     0
 40
0.0
  0
LTYPE
  2
CENTER
 70
     0
  3

 72
    65
 73
     0
 40
0.0
  0
ENDTAB
  0
TABLE
  2
LAYER
 70
     1
  0
LAYER
  2
0
 70
     0
 62
     7
  6
CONTINUOUS
  0
ENDTAB
  0
TABLE
  2
STYLE
 70
     2
  0
STYLE
  2
STANDARD
 70
     0
 40
0.0
 41
1.0
 50
0.0
 71
     0
 42
0.2
  3
txt
  4

  0
STYLE
  2
ＭＳ_ゴシック
 70
     0
 40
0.0
 41
1.0
 50
0.0
 71
     0
 42
0.2
  3
ＭＳ ゴシック.shx
  4

  0
ENDTAB
  0
TABLE
  2
VIEW
 70
     0
  0
ENDTAB
  0
TABLE
  2
UCS
 70
     0
  0
ENDTAB
  0
ENDSEC
  0
SECTION
  2
BLOCKS
  0
BLOCK
  8
0
  2
D_FRAME_VIEW_1713
 70
     0
 10
0.0
 20
0.0
 30
0.0
  0
CIRCLE
  5
70
  8
0
  6
CONTINUOUS
 62
     7
 10
77.43439433277202
 20
500.4208273045609
 30
0.0
 40
16.5
  0
CIRCLE
  5
71
  8
0
  6
CONTINUOUS
 62
     7
 10
77.43439433277202
 20
500.4208273045609
 30
0.0
 40
17.0
  0
CIRCLE
  5
72
  8
0
  6
CONTINUOUS
 62
     7
 10
77.43439433277202
 20
500.4208273045609
 30
0.0
 40
13.0585
  0
CIRCLE
  5
73
  8
0
  6
CONTINUOUS
 62
     7
 10
77.43439433277202
 20
500.4208273045609
 30
0.0
 40
12.0585
  0
ARC
  5
74
  8
0
  6
CONTINUOUS
 62
     7
 10
77.43439433277202
 20
500.4208273045609
 30
0.0
 40
18.5
 50
203.2314565050075
 51
216.7685434949926
  0
LINE
  5
75
  8
0
  6
CONTINUOUS
 62
     7
 10
60.43439433277202
 20
493.1235675448977
 30
0.0
 11
60.43439433277202
 21
496.2675153731018
 31
0.0
  0
ARC
  5
76
  8
0
  6
CONTINUOUS
 62
     7
 10
77.43439433277202
 20
500.4208273045609
 30
0.0
 40
17.5
 50
193.7291326754126
 51
226.2708673245876
  0
LINE
  5
77
  8
0
  6
CONTINUOUS
 62
     7
 10
65.33752069028753
 20
487.775051405955
 30
0.0
 11
62.61478200288976
 21
489.3470253200571
 31
0.0
  0
ARC
  5
78
  8
0
  6
CONTINUOUS
 62
     7
 10
77.43439433277202
 20
500.4208273045609
 30
0.0
 40
18.5
 50
143.2314565050074
 51
156.7685434949925
  0
LINE
  5
79
  8
0
  6
CONTINUOUS
 62
     7
 10
62.61478200288978
 20
511.4946292890648
 30
0.0
 11
65.33752069028755
 21
513.066603203167
 31
0.0
  0
ARC
  5
7A
  8
0
  6
CONTINUOUS
 62
     7
 10
77.43439433277202
 20
500.4208273045609
 30
0.0
 40
17.5
 50
133.7291326754123
 51
166.2708673245874
  0
LINE
  5
7B
  8
0
  6
CONTINUOUS
 62
     7
 10
60.43439433277202
 20
504.57413923602
 30
0.0
 11
60.43439433277202
 21
507.7180870642242
 31
0.0
  0
ARC
  5
7C
  8
0
  6
CONTINUOUS
 62
     7
 10
77.43439433277202
 20
500.4208273045609
 30
0.0
 40
18.5
 50
263.2314565050074
 51
276.7685434949926
  0
LINE
  5
7D
  8
0
  6
CONTINUOUS
 62
     7
 10
75.25400666265426
 20
482.0497655603939
 30
0.0
 11
72.5312679752565
 21
483.621739474496
 31
0.0
  0
ARC
  5
7E
  8
0
  6
CONTINUOUS
 62
     7
 10
77.43439433277202
 20
500.4208273045609
 30
0.0
 40
17.5
 50
253.7291326754124
 51
286.2708673245875
  0
LINE
  5
7F
  8
0
  6
CONTINUOUS
 62
     7
 10
82.33752069028752
 20
483.621739474496
 30
0.0
 11
79.61478200288977
 21
482.0497655603939
 31
0.0
  0
ARC
  5
80
  8
0
  6
CONTINUOUS
 62
     7
 10
77.43439433277202
 20
500.4208273045609
 30
0.0
 40
18.5
 50
23.23145650500748
 51
36.76854349499239
  0
LINE
  5
81
  8
0
  6
CONTINUOUS
 62
     7
 10
94.43439433277202
 20
507.7180870642242
 30
0.0
 11
94.43439433277202
 21
504.57413923602
 31
0.0
  0
ARC
  5
82
  8
0
  6
CONTINUOUS
 62
     7
 10
77.43439433277202
 20
500.4208273045609
 30
0.0
 40
17.5
 50
13.7291326754126
 51
46.27086732458734
  0
LINE
  5
83
  8
0
  6
CONTINUOUS
 62
     7
 10
89.53126797525657
 20
513.0666032031669
 30
0.0
 11
92.2540066626543
 21
511.4946292890647
 31
0.0
  0
LINE
  5
84
  8
0
  6
CONTINUOUS
 62
     7
 10
72.5312679752565
 20
483.621739474496
 30
0.0
 11
68.93439433277202
 21
485.6983954402255
 31
0.0
  0
LINE
  5
85
  8
0
  6
CONTINUOUS
 62
     7
 10
68.93439433277202
 20
485.6983954402255
 30
0.0
 11
65.33752069028753
 21
487.775051405955
 31
0.0
  0
LINE
  5
86
  8
0
  6
CONTINUOUS
 62
     7
 10
60.43439433277202
 20
496.2675153731019
 30
0.0
 11
60.43439433277202
 21
500.4208273045609
 31
0.0
  0
LINE
  5
87
  8
0
  6
CONTINUOUS
 62
     7
 10
60.43439433277202
 20
500.4208273045609
 30
0.0
 11
60.43439433277202
 21
504.57413923602
 31
0.0
  0
LINE
  5
88
  8
0
  6
CONTINUOUS
 62
     7
 10
65.33752069028756
 20
513.066603203167
 30
0.0
 11
68.93439433277202
 21
515.1432591688964
 31
0.0
  0
LINE
  5
89
  8
0
  6
CONTINUOUS
 62
     7
 10
68.93439433277202
 20
515.1432591688964
 30
0.0
 11
72.53126797525651
 21
517.2199151346259
 31
0.0
  0
ARC
  5
8A
  8
0
  6
CONTINUOUS
 62
     7
 10
77.43439433277202
 20
500.4208273045609
 30
0.0
 40
17.5
 50
73.72913267541281
 51
106.2708673245875
  0
LINE
  5
8B
  8
0
  6
CONTINUOUS
 62
     7
 10
94.43439433277202
 20
504.57413923602
 30
0.0
 11
94.43439433277202
 21
500.4208273045609
 31
0.0
  0
LINE
  5
8C
  8
0
  6
CONTINUOUS
 62
     7
 10
94.43439433277202
 20
500.4208273045609
 30
0.0
 11
94.43439433277202
 21
496.2675153731019
 31
0.0
  0
ARC
  5
8D
  8
0
  6
CONTINUOUS
 62
     7
 10
77.43439433277202
 20
500.4208273045609
 30
0.0
 40
17.49999999999999
 50
313.7291326754125
 51
346.2708673245874
  0
LINE
  5
8E
  8
0
  6
CONTINUOUS
 62
     7
 10
89.53126797525653
 20
487.775051405955
 30
0.0
 11
85.93439433277203
 21
485.6983954402255
 31
0.0
  0
LINE
  5
8F
  8
0
  6
CONTINUOUS
 62
     7
 10
85.93439433277203
 20
485.6983954402255
 30
0.0
 11
82.33752069028753
 21
483.621739474496
 31
0.0
  0
LINE
  5
90
  8
0
  6
CONTINUOUS
 62
     7
 10
82.33752069028743
 20
517.2199151346259
 30
0.0
 11
85.93439433277202
 21
515.1432591688964
 31
0.0
  0
LINE
  5
91
  8
0
  6
CONTINUOUS
 62
     7
 10
85.93439433277202
 20
515.1432591688964
 30
0.0
 11
89.53126797525657
 21
513.0666032031669
 31
0.0
  0
ARC
  5
92
  8
0
  6
CONTINUOUS
 62
     7
 10
77.43439433277202
 20
500.4208273045609
 30
0.0
 40
18.5
 50
83.2314565050076
 51
96.76854349499264
  0
LINE
  5
93
  8
0
  6
CONTINUOUS
 62
     7
 10
72.5312679752565
 20
517.2199151346259
 30
0.0
 11
75.25400666265423
 21
518.7918890487281
 31
0.0
  0
LINE
  5
94
  8
0
  6
CONTINUOUS
 62
     7
 10
79.61478200288973
 20
518.791889048728
 30
0.0
 11
82.33752069028743
 21
517.2199151346259
 31
0.0
  0
ARC
  5
95
  8
0
  6
CONTINUOUS
 62
     7
 10
77.43439433277202
 20
500.4208273045609
 30
0.0
 40
18.5
 50
323.2314565050074
 51
336.7685434949925
  0
LINE
  5
96
  8
0
  6
CONTINUOUS
 62
     7
 10
94.43439433277202
 20
496.2675153731019
 30
0.0
 11
94.43439433277202
 21
493.1235675448977
 31
0.0
  0
LINE
  5
97
  8
0
  6
CONTINUOUS
 62
     7
 10
92.25400666265426
 20
489.3470253200571
 30
0.0
 11
89.53126797525651
 21
487.775051405955
 31
0.0
  0
CIRCLE
  5
98
  8
0
  6
CONTINUOUS
 62
     7
 10
77.43439433277202
 20
500.4208273045609
 30
0.0
 40
11.56608577595462
  0
ENDBLK
  8
0
  0
BLOCK
  8
0
  2
D_FRAME_VIEW_1964
 70
     0
 10
0.0
 20
0.0
 30
0.0
  0
LINE
  5
A0
  8
0
  6
CONTINUOUS
 62
     7
 10
128.6127925164245
 20
483.9208273045609
 30
0.0
 11
128.6127925164245
 21
500.4208273045609
 31
0.0
  0
LINE
  5
A1
  8
0
  6
CONTINUOUS
 62
     7
 10
129.1127925164245
 20
517.4208273045609
 30
0.0
 11
129.1127925164245
 21
500.4208273045609
 31
0.0
  0
LINE
  5
A2
  8
0
  6
CONTINUOUS
 62
     7
 10
128.6127925164245
 20
500.4208273045609
 30
0.0
 11
128.6127925164245
 21
516.9208273045609
 31
0.0
  0
LINE
  5
A3
  8
0
  6
CONTINUOUS
 62
     7
 10
129.1127925164245
 20
500.4208273045609
 30
0.0
 11
129.1127925164245
 21
483.4208273045609
 31
0.0
  0
LINE
  5
A4
  8
0
  6
CONTINUOUS
 62
     7
 10
130.3627925164245
 20
483.4208273045609
 30
0.0
 11
130.3627925164245
 21
500.4208273045609
 31
0.0
  0
LINE
  5
A5
  8
0
  6
CONTINUOUS
 62
     7
 10
130.3627925164245
 20
500.4208273045609
 30
0.0
 11
130.3627925164245
 21
517.4208273045609
 31
0.0
  0
LINE
  5
A6
  8
0
  6
CONTINUOUS
 62
     7
 10
130.6127925164245
 20
517.1708273045608
 30
0.0
 11
130.6127925164245
 21
500.4208273045609
 31
0.0
  0
LINE
  5
A7
  8
0
  6
CONTINUOUS
 62
     7
 10
130.6127925164245
 20
500.4208273045609
 30
0.0
 11
130.6127925164245
 21
483.6708273045609
 31
0.0
  0
LINE
  5
A8
  8
0
  6
CONTINUOUS
 62
     7
 10
186.1127925164245
 20
493.1235675448977
 30
0.0
 11
186.1127925164245
 21
507.7180870642242
 31
0.0
  0
LINE
  5
A9
  8
0
  6
CONTINUOUS
 62
     7
 10
186.1127925164245
 20
507.7180870642242
 30
0.0
 11
187.1127925164245
 21
507.5095507439399
 31
0.0
  0
LINE
  5
AA
  8
0
  6
CONTINUOUS
 62
     7
 10
187.1127925164245
 20
507.5095507439399
 30
0.0
 11
187.1127925164245
 21
493.332103865182
 31
0.0
  0
LINE
  5
AB
  8
0
  6
CONTINUOUS
 62
     7
 10
186.1127925164245
 20
493.1235675448977
 30
0.0
 11
187.1127925164245
 21
493.332103865182
 31
0.0
  0
ARC
  5
AC
  8
0
  6
CONTINUOUS
 62
     7
 10
189.6114362013699
 20
499.14897296618
 30
0.0
 40
23.14349577565025
 50
158.2683380198179
 51
166.442899945653
  0
LINE
  5
AD
  8
0
  6
CONTINUOUS
 62
     7
 10
186.1127925164245
 20
507.7180870642242
 30
0.0
 11
168.1127925164245
 21
507.7180870642242
 31
0.0
  0
LINE
  5
AE
  8
0
  6
CONTINUOUS
 62
     7
 10
168.1127925164245
 20
493.1235675448977
 30
0.0
 11
186.1127925164245
 21
493.1235675448977
 31
0.0
  0
ARC
  5
AF
  8
0
  6
CONTINUOUS
 62
     7
 10
189.6057466472465
 20
501.6908719582926
 30
0.0
 40
23.13754053873051
 50
193.5560462640431
 51
201.7327157704872
  0
LINE
  5
B0
  8
0
  6
CONTINUOUS
 62
     7
 10
167.1127925164245
 20
504.5741392360199
 30
0.0
 11
167.1127925164245
 21
496.2675153731018
 31
0.0
  0
LINE
  5
B1
  8
0
  6
CONTINUOUS
 62
     7
 10
186.1127925164245
 20
489.347025320057
 30
0.0
 11
186.1127925164245
 21
493.1235675448976
 31
0.0
  0
LINE
  5
B2
  8
0
  6
CONTINUOUS
 62
     7
 10
186.1127925164245
 20
489.347025320057
 30
0.0
 11
168.1127925164245
 21
489.347025320057
 31
0.0
  0
LINE
  5
B3
  8
0
  6
CONTINUOUS
 62
     7
 10
168.1127925164245
 20
493.1235675448977
 30
0.0
 11
168.1127925164245
 21
489.347025320057
 31
0.0
  0
ARC
  5
B4
  8
0
  6
CONTINUOUS
 62
     7
 10
174.6119448195162
 20
484.1085775172484
 30
0.0
 40
8.347473632275356
 50
141.1304853712074
 51
153.945137902924
  0
LINE
  5
B5
  8
0
  6
CONTINUOUS
 62
     7
 10
167.1127925164245
 20
487.775051405955
 30
0.0
 11
167.1127925164245
 21
496.2675153731018
 31
0.0
  0
LINE
  5
B6
  8
0
  6
CONTINUOUS
 62
     7
 10
186.1127925164245
 20
507.7180870642242
 30
0.0
 11
186.1127925164245
 21
511.4946292890647
 31
0.0
  0
LINE
  5
B7
  8
0
  6
CONTINUOUS
 62
     7
 10
186.1127925164245
 20
511.4946292890647
 30
0.0
 11
187.1127925164245
 21
510.7328720454225
 31
0.0
  0
LINE
  5
B8
  8
0
  6
CONTINUOUS
 62
     7
 10
187.1127925164245
 20
510.7328720454225
 30
0.0
 11
187.1127925164245
 21
507.5095507439399
 31
0.0
  0
LINE
  5
B9
  8
0
  6
CONTINUOUS
 62
     7
 10
168.1127925164245
 20
511.4946292890647
 30
0.0
 11
168.1127925164245
 21
507.7180870642242
 31
0.0
  0
LINE
  5
BA
  8
0
  6
CONTINUOUS
 62
     7
 10
168.1127925164245
 20
511.4946292890647
 30
0.0
 11
186.1127925164245
 21
511.4946292890647
 31
0.0
  0
LINE
  5
BB
  8
0
  6
CONTINUOUS
 62
     7
 10
187.1127925164245
 20
493.332103865182
 30
0.0
 11
187.1127925164245
 21
490.1087825636993
 31
0.0
  0
LINE
  5
BC
  8
0
  6
CONTINUOUS
 62
     7
 10
186.1127925164245
 20
489.347025320057
 30
0.0
 11
187.1127925164245
 21
490.1087825636993
 31
0.0
  0
ARC
  5
BD
  8
0
  6
CONTINUOUS
 62
     7
 10
174.6083888481884
 20
516.7308149860609
 30
0.0
 40
8.343285465489663
 50
206.051632258868
 51
218.8727444669984
  0
LINE
  5
BE
  8
0
  6
CONTINUOUS
 62
     7
 10
167.1127925164245
 20
504.5741392360199
 30
0.0
 11
167.1127925164245
 21
513.0666032031669
 31
0.0
  0
LINE
  5
BF
  8
0
  6
CONTINUOUS
 62
     7
 10
155.6127925164245
 20
517.1708273045608
 30
0.0
 11
155.6127925164245
 21
483.6708273045609
 31
0.0
  0
LINE
  5
C0
  8
0
  6
CONTINUOUS
 62
     7
 10
156.6127925164245
 20
517.1708273045608
 30
0.0
 11
156.6127925164245
 21
483.6708273045609
 31
0.0
  0
LINE
  5
C1
  8
0
  6
CONTINUOUS
 62
     7
 10
154.6127925164245
 20
517.1708273045608
 30
0.0
 11
154.6127925164245
 21
483.6708273045609
 31
0.0
  0
LINE
  5
C2
  8
0
  6
CONTINUOUS
 62
     7
 10
157.1127925164245
 20
516.6708273045609
 30
0.0
 11
157.1127925164245
 21
484.1708273045609
 31
0.0
  0
LINE
  5
C3
  8
0
  6
CONTINUOUS
 62
     7
 10
155.1127925164245
 20
516.6708273045609
 30
0.0
 11
155.1127925164245
 21
484.1708273045609
 31
0.0
  0
LINE
  5
C4
  8
0
  6
CONTINUOUS
 62
     7
 10
162.6127925164245
 20
517.1708273045608
 30
0.0
 11
162.6127925164245
 21
483.6708273045609
 31
0.0
  0
LINE
  5
C5
  8
0
  6
CONTINUOUS
 62
     7
 10
163.1127925164245
 20
516.6708273045609
 30
0.0
 11
163.1127925164245
 21
484.1708273045609
 31
0.0
  0
LINE
  5
C6
  8
0
  6
CONTINUOUS
 62
     7
 10
158.6127925164245
 20
517.1708273045608
 30
0.0
 11
158.6127925164245
 21
483.6708273045609
 31
0.0
  0
LINE
  5
C7
  8
0
  6
CONTINUOUS
 62
     7
 10
159.1127925164245
 20
516.6708273045609
 30
0.0
 11
159.1127925164245
 21
484.1708273045609
 31
0.0
  0
LINE
  5
C8
  8
0
  6
CONTINUOUS
 62
     7
 10
157.6127925164245
 20
517.1708273045608
 30
0.0
 11
157.6127925164245
 21
483.6708273045609
 31
0.0
  0
LINE
  5
C9
  8
0
  6
CONTINUOUS
 62
     7
 10
160.6127925164245
 20
517.1708273045608
 30
0.0
 11
160.6127925164245
 21
483.6708273045609
 31
0.0
  0
LINE
  5
CA
  8
0
  6
CONTINUOUS
 62
     7
 10
161.1127925164245
 20
516.6708273045609
 30
0.0
 11
161.1127925164245
 21
484.1708273045609
 31
0.0
  0
LINE
  5
CB
  8
0
  6
CONTINUOUS
 62
     7
 10
163.6127925164245
 20
517.1708273045608
 30
0.0
 11
163.6127925164245
 21
483.6708273045609
 31
0.0
  0
LINE
  5
CC
  8
0
  6
CONTINUOUS
 62
     7
 10
161.6127925164245
 20
517.1708273045608
 30
0.0
 11
161.6127925164245
 21
483.6708273045609
 31
0.0
  0
LINE
  5
CD
  8
0
  6
CONTINUOUS
 62
     7
 10
159.6127925164245
 20
517.1708273045608
 30
0.0
 11
159.6127925164245
 21
483.6708273045609
 31
0.0
  0
LINE
  5
CE
  8
0
  6
CONTINUOUS
 62
     7
 10
186.1127925164245
 20
511.4946292890647
 30
0.0
 11
186.1127925164245
 21
518.791889048728
 31
0.0
  0
ARC
  5
CF
  8
0
  6
CONTINUOUS
 62
     7
 10
174.6119448195178
 20
513.5534412459182
 30
0.0
 40
8.347473632277396
 50
141.130485371208
 51
153.9451379029211
  0
LINE
  5
D0
  8
0
  6
CONTINUOUS
 62
     7
 10
186.1127925164245
 20
518.791889048728
 30
0.0
 11
168.1127925164245
 21
518.791889048728
 31
0.0
  0
LINE
  5
D1
  8
0
  6
CONTINUOUS
 62
     7
 10
167.1127925164245
 20
517.2199151346259
 30
0.0
 11
167.1127925164245
 21
513.0666032031669
 31
0.0
  0
LINE
  5
D2
  8
0
  6
CONTINUOUS
 62
     7
 10
186.1127925164245
 20
518.791889048728
 30
0.0
 11
187.1127925164245
 21
517.8215954848014
 31
0.0
  0
LINE
  5
D3
  8
0
  6
CONTINUOUS
 62
     7
 10
187.1127925164245
 20
517.8215954848014
 30
0.0
 11
187.1127925164245
 21
510.7328720454225
 31
0.0
  0
LINE
  5
D4
  8
0
  6
CONTINUOUS
 62
     7
 10
186.1127925164245
 20
482.0497655603938
 30
0.0
 11
186.1127925164245
 21
489.347025320057
 31
0.0
  0
LINE
  5
D5
  8
0
  6
CONTINUOUS
 62
     7
 10
168.1127925164245
 20
482.0497655603938
 30
0.0
 11
186.1127925164245
 21
482.0497655603938
 31
0.0
  0
ARC
  5
D6
  8
0
  6
CONTINUOUS
 62
     7
 10
174.608388848186
 20
487.2859512573887
 30
0.0
 40
8.34328546548697
 50
206.0516322588673
 51
218.8727444670015
  0
LINE
  5
D7
  8
0
  6
CONTINUOUS
 62
     7
 10
167.1127925164245
 20
487.775051405955
 30
0.0
 11
167.1127925164245
 21
483.6217394744959
 31
0.0
  0
LINE
  5
D8
  8
0
  6
CONTINUOUS
 62
     7
 10
186.1127925164245
 20
482.0497655603938
 30
0.0
 11
187.1127925164245
 21
483.0200591243204
 31
0.0
  0
LINE
  5
D9
  8
0
  6
CONTINUOUS
 62
     7
 10
187.1127925164245
 20
490.1087825636993
 30
0.0
 11
187.1127925164245
 21
483.0200591243204
 31
0.0
  0
LINE
  5
DA
  8
0
  6
CONTINUOUS
 62
     7
 10
167.1127925164245
 20
482.9208273045609
 30
0.0
 11
167.1127925164245
 21
483.6217394744959
 31
0.0
  0
LINE
  5
DB
  8
0
  6
CONTINUOUS
 62
     7
 10
168.1127925164245
 20
482.0497655603938
 30
0.0
 11
168.1127925164245
 21
481.9208273045609
 31
0.0
  0
LINE
  5
DC
  8
0
  6
CONTINUOUS
 62
     7
 10
168.1127925164245
 20
518.9208273045609
 30
0.0
 11
168.1127925164245
 21
518.791889048728
 31
0.0
  0
LINE
  5
DD
  8
0
  6
CONTINUOUS
 62
     7
 10
167.1127925164245
 20
517.2199151346259
 30
0.0
 11
167.1127925164245
 21
517.9208273045609
 31
0.0
  0
LINE
  5
DE
  8
0
  6
CONTINUOUS
 62
     7
 10
186.1127925164245
 20
481.9208273045609
 30
0.0
 11
186.1127925164245
 21
482.0497655603938
 31
0.0
  0
LINE
  5
DF
  8
0
  6
CONTINUOUS
 62
     7
 10
187.1127925164245
 20
483.0200591243204
 30
0.0
 11
187.1127925164245
 21
482.9208273045609
 31
0.0
  0
LINE
  5
E0
  8
0
  6
CONTINUOUS
 62
     7
 10
186.1127925164245
 20
518.791889048728
 30
0.0
 11
186.1127925164245
 21
518.9208273045609
 31
0.0
  0
LINE
  5
E1
  8
0
  6
CONTINUOUS
 62
     7
 10
187.1127925164245
 20
517.9208273045609
 30
0.0
 11
187.1127925164245
 21
517.8215954848014
 31
0.0
  0
LINE
  5
E2
  8
0
  6
CONTINUOUS
 62
     7
 10
129.1127925164245
 20
517.4208273045609
 30
0.0
 11
128.6127925164245
 21
516.9208273045609
 31
0.0
  0
LINE
  5
E3
  8
0
  6
CONTINUOUS
 62
     7
 10
128.6127925164245
 20
483.9208273045609
 30
0.0
 11
129.1127925164245
 21
483.4208273045609
 31
0.0
  0
LINE
  5
E4
  8
0
  6
CONTINUOUS
 62
     7
 10
129.1127925164245
 20
483.4208273045609
 30
0.0
 11
130.3627925164245
 21
483.4208273045609
 31
0.0
  0
LINE
  5
E5
  8
0
  6
CONTINUOUS
 62
     7
 10
130.3627925164245
 20
517.4208273045609
 30
0.0
 11
129.1127925164245
 21
517.4208273045609
 31
0.0
  0
LINE
  5
E6
  8
0
  6
CONTINUOUS
 62
     7
 10
130.3627925164245
 20
483.4208273045609
 30
0.0
 11
130.6127925164245
 21
483.6708273045609
 31
0.0
  0
LINE
  5
E7
  8
0
  6
CONTINUOUS
 62
     7
 10
130.6127925164245
 20
517.1708273045608
 30
0.0
 11
130.3627925164245
 21
517.4208273045609
 31
0.0
  0
LINE
  5
E8
  8
0
  6
CONTINUOUS
 62
     7
 10
155.6127925164245
 20
483.6708273045609
 30
0.0
 11
156.6127925164245
 21
483.6708273045609
 31
0.0
  0
LINE
  5
E9
  8
0
  6
CONTINUOUS
 62
     7
 10
156.6127925164245
 20
517.1708273045608
 30
0.0
 11
155.6127925164245
 21
517.1708273045608
 31
0.0
  0
LINE
  5
EA
  8
0
  6
CONTINUOUS
 62
     7
 10
130.6127925164245
 20
483.6708273045609
 30
0.0
 11
154.6127925164245
 21
483.6708273045609
 31
0.0
  0
LINE
  5
EB
  8
0
  6
CONTINUOUS
 62
     7
 10
154.6127925164245
 20
517.1708273045608
 30
0.0
 11
130.6127925164245
 21
517.1708273045608
 31
0.0
  0
LINE
  5
EC
  8
0
  6
CONTINUOUS
 62
     7
 10
156.6127925164245
 20
483.6708273045609
 30
0.0
 11
157.1127925164245
 21
484.1708273045609
 31
0.0
  0
LINE
  5
ED
  8
0
  6
CONTINUOUS
 62
     7
 10
157.1127925164245
 20
516.6708273045609
 30
0.0
 11
156.6127925164245
 21
517.1708273045608
 31
0.0
  0
LINE
  5
EE
  8
0
  6
CONTINUOUS
 62
     7
 10
154.6127925164245
 20
483.6708273045609
 30
0.0
 11
155.1127925164245
 21
484.1708273045609
 31
0.0
  0
LINE
  5
EF
  8
0
  6
CONTINUOUS
 62
     7
 10
155.1127925164245
 20
516.6708273045609
 30
0.0
 11
154.6127925164245
 21
517.1708273045608
 31
0.0
  0
LINE
  5
F0
  8
0
  6
CONTINUOUS
 62
     7
 10
162.6127925164245
 20
483.6708273045609
 30
0.0
 11
163.1127925164245
 21
484.1708273045609
 31
0.0
  0
LINE
  5
F1
  8
0
  6
CONTINUOUS
 62
     7
 10
163.1127925164245
 20
516.6708273045609
 30
0.0
 11
162.6127925164245
 21
517.1708273045608
 31
0.0
  0
LINE
  5
F2
  8
0
  6
CONTINUOUS
 62
     7
 10
158.6127925164245
 20
483.6708273045609
 30
0.0
 11
159.1127925164245
 21
484.1708273045609
 31
0.0
  0
LINE
  5
F3
  8
0
  6
CONTINUOUS
 62
     7
 10
159.1127925164245
 20
516.6708273045609
 30
0.0
 11
158.6127925164245
 21
517.1708273045608
 31
0.0
  0
LINE
  5
F4
  8
0
  6
CONTINUOUS
 62
     7
 10
157.6127925164245
 20
483.6708273045609
 30
0.0
 11
158.6127925164245
 21
483.6708273045609
 31
0.0
  0
LINE
  5
F5
  8
0
  6
CONTINUOUS
 62
     7
 10
158.6127925164245
 20
517.1708273045608
 30
0.0
 11
157.6127925164245
 21
517.1708273045608
 31
0.0
  0
LINE
  5
F6
  8
0
  6
CONTINUOUS
 62
     7
 10
160.6127925164245
 20
483.6708273045609
 30
0.0
 11
161.1127925164245
 21
484.1708273045609
 31
0.0
  0
LINE
  5
F7
  8
0
  6
CONTINUOUS
 62
     7
 10
161.1127925164245
 20
516.6708273045609
 30
0.0
 11
160.6127925164245
 21
517.1708273045608
 31
0.0
  0
LINE
  5
F8
  8
0
  6
CONTINUOUS
 62
     7
 10
163.6127925164245
 20
483.6708273045609
 30
0.0
 11
167.1127925164245
 21
483.6708273045609
 31
0.0
  0
LINE
  5
F9
  8
0
  6
CONTINUOUS
 62
     7
 10
167.1127925164245
 20
517.1708273045608
 30
0.0
 11
163.6127925164245
 21
517.1708273045608
 31
0.0
  0
LINE
  5
FA
  8
0
  6
CONTINUOUS
 62
     7
 10
161.6127925164245
 20
483.6708273045609
 30
0.0
 11
162.6127925164245
 21
483.6708273045609
 31
0.0
  0
LINE
  5
FB
  8
0
  6
CONTINUOUS
 62
     7
 10
162.6127925164245
 20
517.1708273045608
 30
0.0
 11
161.6127925164245
 21
517.1708273045608
 31
0.0
  0
LINE
  5
FC
  8
0
  6
CONTINUOUS
 62
     7
 10
159.6127925164245
 20
483.6708273045609
 30
0.0
 11
160.6127925164245
 21
483.6708273045609
 31
0.0
  0
LINE
  5
FD
  8
0
  6
CONTINUOUS
 62
     7
 10
160.6127925164245
 20
517.1708273045608
 30
0.0
 11
159.6127925164245
 21
517.1708273045608
 31
0.0
  0
LINE
  5
FE
  8
0
  6
CONTINUOUS
 62
     7
 10
155.6127925164245
 20
517.1708273045608
 30
0.0
 11
155.1127925164245
 21
516.6708273045609
 31
0.0
  0
LINE
  5
FF
  8
0
  6
CONTINUOUS
 62
     7
 10
155.1127925164245
 20
484.1708273045609
 30
0.0
 11
155.6127925164245
 21
483.6708273045609
 31
0.0
  0
LINE
  5
100
  8
0
  6
CONTINUOUS
 62
     7
 10
161.6127925164245
 20
517.1708273045608
 30
0.0
 11
161.1127925164245
 21
516.6708273045609
 31
0.0
  0
LINE
  5
101
  8
0
  6
CONTINUOUS
 62
     7
 10
161.1127925164245
 20
484.1708273045609
 30
0.0
 11
161.6127925164245
 21
483.6708273045609
 31
0.0
  0
LINE
  5
102
  8
0
  6
CONTINUOUS
 62
     7
 10
159.6127925164245
 20
517.1708273045608
 30
0.0
 11
159.1127925164245
 21
516.6708273045609
 31
0.0
  0
LINE
  5
103
  8
0
  6
CONTINUOUS
 62
     7
 10
159.1127925164245
 20
484.1708273045609
 30
0.0
 11
159.6127925164245
 21
483.6708273045609
 31
0.0
  0
LINE
  5
104
  8
0
  6
CONTINUOUS
 62
     7
 10
163.6127925164245
 20
517.1708273045608
 30
0.0
 11
163.1127925164245
 21
516.6708273045609
 31
0.0
  0
LINE
  5
105
  8
0
  6
CONTINUOUS
 62
     7
 10
163.1127925164245
 20
484.1708273045609
 30
0.0
 11
163.6127925164245
 21
483.6708273045609
 31
0.0
  0
LINE
  5
106
  8
0
  6
CONTINUOUS
 62
     7
 10
157.6127925164245
 20
517.1708273045608
 30
0.0
 11
157.1127925164245
 21
516.6708273045609
 31
0.0
  0
LINE
  5
107
  8
0
  6
CONTINUOUS
 62
     7
 10
157.1127925164245
 20
484.1708273045609
 30
0.0
 11
157.6127925164245
 21
483.6708273045609
 31
0.0
  0
LINE
  5
108
  8
0
  6
CONTINUOUS
 62
     7
 10
167.1127925164245
 20
482.9208273045609
 30
0.0
 11
168.1127925164245
 21
481.9208273045609
 31
0.0
  0
LINE
  5
109
  8
0
  6
CONTINUOUS
 62
     7
 10
168.1127925164245
 20
518.9208273045609
 30
0.0
 11
167.1127925164245
 21
517.9208273045609
 31
0.0
  0
LINE
  5
10A
  8
0
  6
CONTINUOUS
 62
     7
 10
168.1127925164245
 20
481.9208273045609
 30
0.0
 11
186.1127925164245
 21
481.9208273045609
 31
0.0
  0
LINE
  5
10B
  8
0
  6
CONTINUOUS
 62
     7
 10
186.1127925164245
 20
481.9208273045609
 30
0.0
 11
187.1127925164245
 21
482.9208273045609
 31
0.0
  0
LINE
  5
10C
  8
0
  6
CONTINUOUS
 62
     7
 10
186.1127925164245
 20
518.9208273045609
 30
0.0
 11
168.1127925164245
 21
518.9208273045609
 31
0.0
  0
LINE
  5
10D
  8
0
  6
CONTINUOUS
 62
     7
 10
187.1127925164245
 20
517.9208273045609
 30
0.0
 11
186.1127925164245
 21
518.9208273045609
 31
0.0
  0
ENDBLK
  8
0
  0
BLOCK
  8
0
  2
D_FRAME_VIEW_2005
 70
     0
 10
0.0
 20
0.0
 30
0.0
  0
ARC
  5
112
  8
0
  6
CONTINUOUS
 62
     7
 10
246.6113698225237
 20
500.4208273045609
 30
0.0
 40
18.50000000000002
 50
203.2314565050075
 51
216.7685434949925
  0
LINE
  5
113
  8
0
  6
CONTINUOUS
 62
     7
 10
229.6113698225237
 20
493.1235675448977
 30
0.0
 11
230.6113698225237
 21
493.332103865182
 31
0.0
  0
ARC
  5
114
  8
0
  6
CONTINUOUS
 62
     7
 10
246.6113698225237
 20
500.4208273045609
 30
0.0
 40
17.5
 50
203.8955081861615
 51
216.1044918138385
  0
LINE
  5
115
  8
0
  6
CONTINUOUS
 62
     7
 10
231.7917574926415
 20
489.347025320057
 30
0.0
 11
232.4723552436194
 21
490.1087825636993
 31
0.0
  0
LINE
  5
116
  8
0
  6
CONTINUOUS
 62
     7
 10
262.6113698225237
 20
493.332103865182
 30
0.0
 11
262.6113698225237
 21
507.5095507439399
 31
0.0
  0
LINE
  5
117
  8
0
  6
CONTINUOUS
 62
     7
 10
262.6113698225237
 20
507.5095507439399
 30
0.0
 11
263.6113698225237
 21
507.7180870642242
 31
0.0
  0
LINE
  5
118
  8
0
  6
CONTINUOUS
 62
     7
 10
263.6113698225237
 20
507.7180870642242
 30
0.0
 11
263.6113698225237
 21
493.1235675448977
 31
0.0
  0
LINE
  5
119
  8
0
  6
CONTINUOUS
 62
     7
 10
262.6113698225237
 20
493.332103865182
 30
0.0
 11
263.6113698225237
 21
493.1235675448977
 31
0.0
  0
LINE
  5
11A
  8
0
  6
CONTINUOUS
 62
     7
 10
229.6113698225237
 20
493.1235675448977
 30
0.0
 11
229.6113698225237
 21
507.7180870642242
 31
0.0
  0
LINE
  5
11B
  8
0
  6
CONTINUOUS
 62
     7
 10
229.6113698225237
 20
507.7180870642242
 30
0.0
 11
230.6113698225237
 21
507.5095507439399
 31
0.0
  0
LINE
  5
11C
  8
0
  6
CONTINUOUS
 62
     7
 10
230.6113698225237
 20
507.5095507439399
 30
0.0
 11
230.6113698225237
 21
493.332103865182
 31
0.0
  0
ARC
  5
11D
  8
0
  6
CONTINUOUS
 62
     7
 10
246.6113698225237
 20
500.4208273045609
 30
0.0
 40
17.50000000000002
 50
23.89550818616149
 51
36.10449181383866
  0
LINE
  5
11E
  8
0
  6
CONTINUOUS
 62
     7
 10
260.7503844014281
 20
510.7328720454225
 30
0.0
 11
261.430982152406
 21
511.4946292890647
 31
0.0
  0
ARC
  5
11F
  8
0
  6
CONTINUOUS
 62
     7
 10
246.6113698225237
 20
500.4208273045609
 30
0.0
 40
18.49999999999995
 50
23.23145650500754
 51
36.76854349499263
  0
ARC
  5
120
  8
0
  6
CONTINUOUS
 62
     7
 10
246.6113698225237
 20
500.4208273045609
 30
0.0
 40
18.49999999999999
 50
143.2314565050076
 51
156.7685434949925
  0
LINE
  5
121
  8
0
  6
CONTINUOUS
 62
     7
 10
231.7917574926414
 20
511.4946292890647
 30
0.0
 11
232.4723552436194
 21
510.7328720454225
 31
0.0
  0
ARC
  5
122
  8
0
  6
CONTINUOUS
 62
     7
 10
246.6113698225237
 20
500.4208273045609
 30
0.0
 40
17.5
 50
143.8955081861615
 51
156.1044918138385
  0
LINE
  5
123
  8
0
  6
CONTINUOUS
 62
     7
 10
260.7503844014281
 20
510.7328720454225
 30
0.0
 11
248.4723552436194
 21
517.8215954848014
 31
0.0
  0
LINE
  5
124
  8
0
  6
CONTINUOUS
 62
     7
 10
248.4723552436194
 20
517.8215954848014
 30
0.0
 11
248.7917574926415
 21
518.791889048728
 31
0.0
  0
LINE
  5
125
  8
0
  6
CONTINUOUS
 62
     7
 10
248.7917574926415
 20
518.791889048728
 30
0.0
 11
261.4309821524059
 21
511.4946292890647
 31
0.0
  0
LINE
  5
126
  8
0
  6
CONTINUOUS
 62
     7
 10
231.7917574926414
 20
511.4946292890647
 30
0.0
 11
244.430982152406
 21
518.791889048728
 31
0.0
  0
LINE
  5
127
  8
0
  6
CONTINUOUS
 62
     7
 10
244.430982152406
 20
518.791889048728
 30
0.0
 11
244.7503844014281
 21
517.8215954848014
 31
0.0
  0
LINE
  5
128
  8
0
  6
CONTINUOUS
 62
     7
 10
244.7503844014281
 20
517.8215954848014
 30
0.0
 11
232.4723552436194
 21
510.7328720454225
 31
0.0
  0
ARC
  5
129
  8
0
  6
CONTINUOUS
 62
     7
 10
246.6113698225237
 20
500.4208273045609
 30
0.0
 40
17.49999999999992
 50
83.89550818616138
 51
96.1044918138385
  0
ARC
  5
12A
  8
0
  6
CONTINUOUS
 62
     7
 10
246.6113698225237
 20
500.4208273045609
 30
0.0
 40
18.49999999999996
 50
83.23145650500737
 51
96.7685434949924
  0
LINE
  5
12B
  8
0
  6
CONTINUOUS
 62
     7
 10
248.4723552436194
 20
483.0200591243204
 30
0.0
 11
260.7503844014281
 21
490.1087825636993
 31
0.0
  0
LINE
  5
12C
  8
0
  6
CONTINUOUS
 62
     7
 10
260.7503844014281
 20
490.1087825636993
 30
0.0
 11
261.430982152406
 21
489.347025320057
 31
0.0
  0
LINE
  5
12D
  8
0
  6
CONTINUOUS
 62
     7
 10
261.4309821524059
 20
489.347025320057
 30
0.0
 11
248.7917574926415
 21
482.0497655603938
 31
0.0
  0
LINE
  5
12E
  8
0
  6
CONTINUOUS
 62
     7
 10
248.4723552436194
 20
483.0200591243204
 30
0.0
 11
248.7917574926415
 21
482.0497655603938
 31
0.0
  0
CIRCLE
  5
12F
  8
0
  6
CONTINUOUS
 62
     7
 10
246.6113698225237
 20
500.4208273045609
 30
0.0
 40
13.0585
  0
ARC
  5
130
  8
0
  6
CONTINUOUS
 62
     7
 10
246.6113698225237
 20
500.4208273045609
 30
0.0
 40
17.50000000000001
 50
323.8955081861614
 51
336.1044918138386
  0
ARC
  5
131
  8
0
  6
CONTINUOUS
 62
     7
 10
246.6113698225237
 20
500.4208273045609
 30
0.0
 40
17.50000000000002
 50
263.8955081861614
 51
276.1044918138386
  0
LINE
  5
132
  8
0
  6
CONTINUOUS
 62
     7
 10
232.4723552436194
 20
490.1087825636993
 30
0.0
 11
244.7503844014281
 21
483.0200591243204
 31
0.0
  0
ARC
  5
133
  8
0
  6
CONTINUOUS
 62
     7
 10
246.6113698225237
 20
500.4208273045609
 30
0.0
 40
18.50000000000002
 50
263.2314565050074
 51
276.7685434949926
  0
LINE
  5
134
  8
0
  6
CONTINUOUS
 62
     7
 10
244.430982152406
 20
482.0497655603938
 30
0.0
 11
244.7503844014281
 21
483.0200591243204
 31
0.0
  0
CIRCLE
  5
135
  8
0
  6
CONTINUOUS
 62
     7
 10
246.6113698225237
 20
500.4208273045609
 30
0.0
 40
12.0283640594111
  0
LINE
  5
136
  8
0
  6
CONTINUOUS
 62
     7
 10
244.430982152406
 20
482.0497655603938
 30
0.0
 11
231.7917574926415
 21
489.347025320057
 31
0.0
  0
ARC
  5
137
  8
0
  6
CONTINUOUS
 62
     7
 10
246.6113698225237
 20
500.4208273045609
 30
0.0
 40
18.50000000000002
 50
323.2314565050074
 51
336.7685434949925
  0
CIRCLE
  5
138
  8
0
  6
CONTINUOUS
 62
     7
 10
246.6113698225237
 20
500.4208273045609
 30
0.0
 40
11.56608577595461
  0
ENDBLK
  8
0
  0
ENDSEC
  0
SECTION
  2
ENTITIES
  0
INSERT
  5
99
  8
0
  6
CENTER
 62
     7
  2
D_FRAME_VIEW_1713
 10
0.0
 20
0.0
 30
0.0
  0
TEXT
  5
9B
  8
0
  6
CONTINUOUS
 62
     7
 10
241.6628578805455
 20
460.1060655188913
 30
0.0
 40
3.0
  1
GSMRM-20
  0
LINE
  5
9C
  8
0
  6
CENTER
 62
     7
 10
125.6127925164245
 20
500.4208273045609
 30
0.0
 11
190.1127925164245
 21
500.4208273045609
 31
0.0
  0
INSERT
  5
10E
  8
0
  6
CENTER
 62
     7
  2
D_FRAME_VIEW_1964
 10
0.0
 20
0.0
 30
0.0
  0
INSERT
  5
139
  8
0
  6
CENTER
 62
     7
  2
D_FRAME_VIEW_2005
 10
0.0
 20
0.0
 30
0.0
  0
POINT
  5
13A
  8
0
 62
     7
 10
157.8627925164245
 20
500.4208273045609
 30
0.0
  0
LINE
  5
13B
  8
0
  6
CENTER
 62
     1
 10
77.43439433277202
 20
485.3623273045609
 30
0.0
 11
77.43439433277202
 21
515.4793273045609
 31
0.0
  0
LINE
  5
13C
  8
0
  6
CENTER
 62
     1
 10
231.5528698225237
 20
500.4208273045609
 30
0.0
 11
261.6698698225237
 21
500.4208273045609
 31
0.0
  0
LINE
  5
13D
  8
0
  6
CENTER
 62
     1
 10
62.37589433277202
 20
500.4208273045609
 30
0.0
 11
92.49289433277202
 21
500.4208273045609
 31
0.0
  0
LINE
  5
13E
  8
0
  6
CENTER
 62
     1
 10
246.6113698225237
 20
485.3623273045609
 30
0.0
 11
246.6113698225237
 21
515.4793273045609
 31
0.0
  0
ENDSEC
  0
EOF
