  0
SECTION
  2
HEADER
  9
$ACADVER
  1
AC1004
  9
$INSBASE
 10
0.0
 20
0.0
  9
$EXTMIN
 10
47.74999999999999
 20
166.9313494203033
  9
$EXTMAX
 10
142.0161976201185
 20
266.3204419739358
  9
$LIMMIN
 10
0.0
 20
0.0
  9
$LIMMAX
 10
12.0
 20
9.0
  9
$ORTHOMODE
 70
     0
  9
$REGENMODE
 70
     1
  9
$FILLMODE
 70
     1
  9
$QTEXTMODE
 70
     0
  9
$DRAGMODE
 70
     2
  9
$LTSCALE
 40
1.0
  9
$OSMODE
 70
    37
  9
$ATTMODE
 70
     1
  9
$TEXTSIZE
 40
0.2
  9
$TRACEWID
 40
0.05
  9
$TEXTSTYLE
  7
STANDARD
  9
$CLAYER
  8
0
  9
$CELTYPE
  6
BYLAYER
  9
$CECOLOR
 62
   256
  9
$DIMSCALE
 40
1.0
  9
$DIMASZ
 40
3.0
  9
$DIMEXO
 40
0.0625
  9
$DIMDLI
 40
0.38
  9
$DIMRND
 40
0.0
  9
$DIMDLE
 40
0.0
  9
$DIMEXE
 40
1.5
  9
$DIMTP
 40
0.0
  9
$DIMTM
 40
0.0
  9
$DIMTXT
 40
3.0
  9
$DIMCEN
 40
0.09
  9
$DIMTSZ
 40
0.0
  9
$DIMTOL
 70
     0
  9
$DIMLIM
 70
     0
  9
$DIMTIH
 70
     1
  9
$DIMTOH
 70
     1
  9
$DIMSE1
 70
     0
  9
$DIMSE2
 70
     0
  9
$DIMTAD
 70
     1
  9
$DIMZIN
 70
     0
  9
$DIMBLK
  1

  9
$DIMASO
 70
     1
  9
$DIMSHO
 70
     1
  9
$DIMPOST
  1

  9
$DIMAPOST
  1

  9
$DIMALT
 70
     0
  9
$DIMALTD
 70
     2
  9
$DIMALTF
 40
25.4
  9
$DIMLFAC
 40
1.0
  9
$DIMTOFL
 70
     0
  9
$DIMTVP
 40
0.0
  9
$DIMTIX
 70
     0
  9
$DIMSOXD
 70
     0
  9
$DIMSAH
 70
     0
  9
$DIMBLK1
  1

  9
$DIMBLK2
  1

  9
$LUNITS
 70
     2
  9
$LUPREC
 70
     4
  9
$SKETCHINC
 40
0.1
  9
$FILLETRAD
 40
0.5
  9
$AUNITS
 70
     0
  9
$AUPREC
 70
     0
  9
$MENU
  1
.
  9
$ELEVATION
 40
0.0
  9
$THICKNESS
 40
0.0
  9
$LIMCHECK
 70
     0
  9
$CHAMFERA
 40
0.0
  9
$CHAMFERB
 40
0.0
  9
$SKPOLY
 70
     0
  9
$TDCREATE
 40
2459964.402295336
  9
$TDUPDATE
 40
2459964.402295405
  9
$TDINDWG
 40
0.0000000116
  9
$TDUSRTIMER
 40
0.0000000116
  9
$USRTIMER
 70
     1
  9
$ANGBASE
 50
0.0
  9
$ANGDIR
 70
     0
  9
$PDMODE
 70
     0
  9
$PDSIZE
 40
0.0
  9
$PLINEWID
 40
0.0
  9
$COORDS
 70
     1
  9
$SPLFRAME
 70
     0
  9
$SPLINETYPE
 70
     6
  9
$SPLINESEGS
 70
     8
  9
$ATTDIA
 70
     0
  9
$ATTREQ
 70
     1
  9
$SURFTAB1
 70
     6
  9
$SURFTAB2
 70
     6
  9
$SURFTYPE
 70
     6
  9
$SURFU
 70
     6
  9
$SURFV
 70
     6
  9
$UCSNAME
  2

  9
$UCSORG
 10
0.0
 20
0.0
 30
0.0
  9
$UCSXDIR
 10
1.0
 20
0.0
 30
0.0
  9
$UCSYDIR
 10
0.0
 20
1.0
 30
0.0
  9
$USERI1
 70
     0
  9
$USERI2
 70
     0
  9
$USERI3
 70
     0
  9
$USERI4
 70
     0
  9
$USERI5
 70
     0
  9
$USERR1
 40
0.0
  9
$USERR2
 40
0.0
  9
$USERR3
 40
0.0
  9
$USERR4
 40
0.0
  9
$USERR5
 40
0.0
  9
$WORLDVIEW
 70
     1
  0
ENDSEC
  0
SECTION
  2
TABLES
  0
TABLE
  2
LTYPE
 70
     2
  0
LTYPE
  2
CONTINUOUS
 70
     0
  3
Solid line
 72
    65
 73
     0
 40
0.0
  0
LTYPE
  2
CENTER
 70
     0
  3

 72
    65
 73
     0
 40
0.0
  0
ENDTAB
  0
TABLE
  2
LAYER
 70
     1
  0
LAYER
  2
0
 70
     0
 62
     7
  6
CONTINUOUS
  0
ENDTAB
  0
TABLE
  2
STYLE
 70
     2
  0
STYLE
  2
STANDARD
 70
     0
 40
0.0
 41
1.0
 50
0.0
 71
     0
 42
0.2
  3
txt
  4

  0
STYLE
  2
ＭＳ_ゴシック
 70
     0
 40
0.0
 41
1.0
 50
0.0
 71
     0
 42
0.2
  3
ＭＳ ゴシック.shx
  4

  0
ENDTAB
  0
TABLE
  2
VIEW
 70
     0
  0
ENDTAB
  0
ENDSEC
  0
SECTION
  2
BLOCKS
  0
BLOCK
  8
0
  2
D_FRAME_VIEW_3203
 70
     0
 10
0.0
 20
0.0
  0
LINE
  8
0
  6
CONTINUOUS
 62
     7
 10
81.12207402306959
 20
177.6813494203033
 11
84.05000000000001
 21
177.6813494203033
  0
LINE
  8
0
  6
CONTINUOUS
 62
     7
 10
81.12207402306959
 20
170.9313494203033
 11
81.12207402306959
 21
177.6813494203033
  0
LINE
  8
0
  6
CONTINUOUS
 62
     7
 10
84.05000000000001
 20
170.9313494203033
 11
81.12207402306959
 21
170.9313494203033
  0
LINE
  8
0
  6
CONTINUOUS
 62
     7
 10
57.25000000000002
 20
170.9313494203033
 11
57.25000000000002
 21
173.6813494203033
  0
LINE
  8
0
  6
CONTINUOUS
 62
     7
 10
66.39712432045131
 20
170.9313494203033
 11
57.25000000000002
 21
170.9313494203033
  0
LINE
  8
0
  6
CONTINUOUS
 62
     7
 10
66.39712432045131
 20
170.9313494203033
 11
66.39712432045131
 21
177.9313494203033
  0
LINE
  8
0
  6
CONTINUOUS
 62
     7
 10
66.39712432045131
 20
177.9313494203033
 11
65.75
 21
177.9313494203033
  0
LINE
  8
0
  6
CONTINUOUS
 62
     7
 10
66.39712432045131
 20
179.9313494203033
 11
65.75
 21
179.9313494203033
  0
LINE
  8
0
  6
CONTINUOUS
 62
     7
 10
66.39712432045131
 20
186.9313494203033
 11
66.39712432045131
 21
179.9313494203033
  0
LINE
  8
0
  6
CONTINUOUS
 62
     7
 10
66.39712432045131
 20
186.9313494203033
 11
57.25000000000002
 21
186.9313494203033
  0
LINE
  8
0
  6
CONTINUOUS
 62
     7
 10
57.25000000000002
 20
186.9313494203033
 11
57.25000000000002
 21
184.1813494203033
  0
LINE
  8
0
  6
CONTINUOUS
 62
     7
 10
84.05000000000001
 20
186.9313494203033
 11
81.12207402306957
 21
186.9313494203033
  0
LINE
  8
0
  6
CONTINUOUS
 62
     7
 10
81.12207402306957
 20
186.9313494203033
 11
81.12207402306959
 21
180.1813494203033
  0
LINE
  8
0
  6
CONTINUOUS
 62
     7
 10
81.12207402306959
 20
180.1813494203033
 11
84.05000000000001
 21
180.1813494203033
  0
ARC
  8
0
  6
CONTINUOUS
 62
     7
 10
73.75000000000001
 20
178.9313494203033
 40
4.750000000000009
 50
15.25752329045635
 51
77.84680253099211
  0
LINE
  8
0
  6
CONTINUOUS
 62
     7
 10
79.15
 20
180.1813494203033
 11
78.33257569495585
 21
180.1813494203033
  0
LINE
  8
0
  6
CONTINUOUS
 62
     7
 10
79.15
 20
186.9313494203033
 11
79.15
 21
180.1813494203033
  0
LINE
  8
0
  6
CONTINUOUS
 62
     7
 10
74.75000000000001
 20
186.9313494203033
 11
79.15
 21
186.9313494203033
  0
LINE
  8
0
  6
CONTINUOUS
 62
     7
 10
74.75000000000001
 20
183.574893325555
 11
74.75000000000001
 21
186.9313494203033
  0
LINE
  8
0
  6
CONTINUOUS
 62
     7
 10
79.15
 20
170.9313494203033
 11
74.75000000000001
 21
170.9313494203033
  0
LINE
  8
0
  6
CONTINUOUS
 62
     7
 10
79.15
 20
177.6813494203033
 11
79.15
 21
170.9313494203033
  0
LINE
  8
0
  6
CONTINUOUS
 62
     7
 10
78.33257569495585
 20
177.6813494203033
 11
79.15
 21
177.6813494203033
  0
ARC
  8
0
  6
CONTINUOUS
 62
     7
 10
73.75000000000001
 20
178.9313494203033
 40
4.750000000000002
 50
282.1531974690079
 51
344.7424767095437
  0
LINE
  8
0
  6
CONTINUOUS
 62
     7
 10
74.75000000000001
 20
170.9313494203033
 11
74.75000000000001
 21
174.2878055150516
  0
LINE
  8
0
  6
CONTINUOUS
 62
     7
 10
69.16742430504416
 20
180.1813494203033
 11
68.35000000000001
 21
180.1813494203033
  0
ARC
  8
0
  6
CONTINUOUS
 62
     7
 10
73.75000000000001
 20
178.9313494203033
 40
4.750000000000002
 50
102.1531974690079
 51
164.7424767095436
  0
LINE
  8
0
  6
CONTINUOUS
 62
     7
 10
72.75000000000001
 20
186.9313494203033
 11
72.75000000000001
 21
183.574893325555
  0
LINE
  8
0
  6
CONTINUOUS
 62
     7
 10
68.35000000000001
 20
186.9313494203033
 11
72.75000000000001
 21
186.9313494203033
  0
LINE
  8
0
  6
CONTINUOUS
 62
     7
 10
68.35000000000001
 20
180.1813494203033
 11
68.35000000000001
 21
186.9313494203033
  0
ARC
  8
0
  6
CONTINUOUS
 62
     7
 10
73.75000000000001
 20
178.9313494203033
 40
4.750000000000002
 50
195.2575232904564
 51
257.8468025309921
  0
LINE
  8
0
  6
CONTINUOUS
 62
     7
 10
69.16742430504416
 20
177.6813494203033
 11
68.35000000000001
 21
177.6813494203033
  0
LINE
  8
0
  6
CONTINUOUS
 62
     7
 10
68.35000000000001
 20
177.6813494203033
 11
68.35000000000001
 21
170.9313494203033
  0
LINE
  8
0
  6
CONTINUOUS
 62
     7
 10
68.35000000000001
 20
170.9313494203033
 11
72.75000000000001
 21
170.9313494203033
  0
LINE
  8
0
  6
CONTINUOUS
 62
     7
 10
72.75000000000001
 20
170.9313494203033
 11
72.75000000000001
 21
174.2878055150516
  0
CIRCLE
  8
0
  6
CONTINUOUS
 62
     7
 10
73.75000000000001
 20
178.9313494203033
 40
2.750000000000002
  0
LINE
  8
0
  6
CONTINUOUS
 62
     7
 10
51.85000000000001
 20
176.1813494203033
 11
53.45000000000001
 21
176.1813494203033
  0
LINE
  8
0
  6
CONTINUOUS
 62
     7
 10
51.85000000000001
 20
181.6813494203033
 11
53.45000000000001
 21
181.6813494203033
  0
LINE
  8
0
  6
CONTINUOUS
 62
     7
 10
55.29145262200612
 20
174.1813494203033
 11
57.25000000000001
 21
174.1813494203033
  0
LINE
  8
0
  6
CONTINUOUS
 62
     7
 10
57.25000000000001
 20
174.1813494203033
 11
57.25000000000001
 21
173.6813494203033
  0
LINE
  8
0
  6
CONTINUOUS
 62
     7
 10
64.75
 20
179.940076288094
 11
65.75
 21
179.9313494203033
  0
LINE
  8
0
  6
CONTINUOUS
 62
     7
 10
65.75
 20
177.9313494203033
 11
64.75
 21
177.9226225525125
  0
LINE
  8
0
  6
CONTINUOUS
 62
     7
 10
64.75000000000001
 20
177.8899103819861
 11
57.25000000000002
 21
177.8440807423957
  0
LINE
  8
0
  6
CONTINUOUS
 62
     7
 10
57.25000000000001
 20
180.0186180982109
 11
64.75000000000001
 21
179.9727884586205
  0
LINE
  8
0
  6
CONTINUOUS
 62
     7
 10
57.25000000000001
 20
183.6813494203033
 11
55.29145262200612
 21
183.6813494203033
  0
LINE
  8
0
  6
CONTINUOUS
 62
     7
 10
57.25000000000001
 20
184.1813494203033
 11
57.25000000000001
 21
183.6813494203033
  0
LINE
  8
0
  6
CONTINUOUS
 62
     7
 10
57.25000000000002
 20
177.8440807423957
 11
57.25000000000001
 21
180.0186180982109
  0
LINE
  8
0
  6
CONTINUOUS
 62
     7
 10
57.25000000000003
 20
174.1813494203033
 11
57.25000000000002
 21
177.8440807423957
  0
LINE
  8
0
  6
CONTINUOUS
 62
     7
 10
57.25000000000001
 20
180.0186180982109
 11
57.25000000000003
 21
183.6813494203033
  0
LINE
  8
0
  6
CONTINUOUS
 62
     7
 10
91.84258297613313
 20
174.9313494203033
 11
91.84258297613313
 21
177.9313494203033
  0
LINE
  8
0
  6
CONTINUOUS
 62
     7
 10
91.84258297613313
 20
179.9313494203033
 11
91.84258297613313
 21
182.9313494203033
  0
LINE
  8
0
  6
CONTINUOUS
 62
     7
 10
52.85053917687531
 20
181.6813494203033
 11
52.82654029045072
 21
178.9313494203033
  0
LINE
  8
0
  6
CONTINUOUS
 62
     7
 10
52.82654029045072
 20
178.9313494203033
 11
52.85053917687531
 21
176.1813494203033
  0
LINE
  8
0
  6
CONTINUOUS
 62
     7
 10
73.79407660664856
 20
178.9313494203033
 11
73.77007835989689
 21
181.6812761210471
  0
LINE
  8
0
  6
CONTINUOUS
 62
     7
 10
73.77007835989689
 20
176.1814227195595
 11
73.79407660664856
 21
178.9313494203033
  0
ENDBLK
  8
0
  0
BLOCK
  8
0
  2
D_FRAME_VIEW_1493
 70
     0
 10
0.0
 20
0.0
  0
LINE
  8
0
  6
CONTINUOUS
 62
     7
 10
93.19404891012861
 20
244.91855332585
 11
92.55492632593247
 21
243.5479505209874
  0
ARC
  8
0
  6
CONTINUOUS
 62
     7
 10
56.24999999999998
 20
234.1795580260643
 40
38.98909141526156
 50
18.23787044129155
 51
52.96438732375537
  0
ARC
  8
0
  6
CONTINUOUS
 62
     7
 10
91.39131987134932
 20
245.7591796822112
 40
1.989091415261551
 50
335.0000000000002
 51
18.23787044129211
  0
ARC
  8
0
  6
CONTINUOUS
 62
     7
 10
56.24999999999998
 20
234.1795580260643
 40
36.08945039485528
 50
13.16390582733743
 51
22.67025066066361
  0
ARC
  8
0
  6
CONTINUOUS
 62
     7
 10
56.24999999999998
 20
234.1795580260643
 40
36.01090858473844
 50
22.68731786810974
 51
54.72200487404603
  0
POLYLINE
  8
0
  6
CONTINUOUS
 62
     7
 66
     1
  0
VERTEX
  8
0
  6
CONTINUOUS
 62
     7
 10
89.1425882156739
 20
247.3932150696263
  0
VERTEX
  8
0
  6
CONTINUOUS
 62
     7
 10
89.16253819871889
 20
247.3990091499587
  0
VERTEX
  8
0
  6
CONTINUOUS
 62
     7
 10
89.1822473290394
 20
247.4056326095613
  0
VERTEX
  8
0
  6
CONTINUOUS
 62
     7
 10
89.20166499921493
 20
247.4130672661017
  0
VERTEX
  8
0
  6
CONTINUOUS
 62
     7
 10
89.22074060182503
 20
247.4212949372478
  0
VERTEX
  8
0
  6
CONTINUOUS
 62
     7
 10
89.23999435259628
 20
247.4305844332311
  0
VERTEX
  8
0
  6
CONTINUOUS
 62
     7
 10
89.25885070726028
 20
247.4406976487374
  0
VERTEX
  8
0
  6
CONTINUOUS
 62
     7
 10
89.27725862861399
 20
247.4516057953811
  0
VERTEX
  8
0
  6
CONTINUOUS
 62
     7
 10
89.29516707945443
 20
247.4632800847767
  0
VERTEX
  8
0
  6
CONTINUOUS
 62
     7
 10
89.3120746068497
 20
247.4753510762034
  0
VERTEX
  8
0
  6
CONTINUOUS
 62
     7
 10
89.32848032265927
 20
247.4881249822957
  0
VERTEX
  8
0
  6
CONTINUOUS
 62
     7
 10
89.34434248762233
 20
247.5015678949622
  0
VERTEX
  8
0
  6
CONTINUOUS
 62
     7
 10
89.359619362478
 20
247.5156459061114
  0
VERTEX
  8
0
  6
CONTINUOUS
 62
     7
 10
89.37471287649686
 20
247.5307848900773
  0
VERTEX
  8
0
  6
CONTINUOUS
 62
     7
 10
89.38915872023281
 20
247.5465696370217
  0
VERTEX
  8
0
  6
CONTINUOUS
 62
     7
 10
89.4029182589126
 20
247.5629560862598
  0
VERTEX
  8
0
  6
CONTINUOUS
 62
     7
 10
89.41595285776302
 20
247.5799001771072
  0
VERTEX
  8
0
  6
CONTINUOUS
 62
     7
 10
89.42791139434536
 20
247.5968869735324
  0
VERTEX
  8
0
  6
CONTINUOUS
 62
     7
 10
89.4391637362373
 20
247.614370952547
  0
VERTEX
  8
0
  6
CONTINUOUS
 62
     7
 10
89.4496817198173
 20
247.6323063011222
  0
VERTEX
  8
0
  6
CONTINUOUS
 62
     7
 10
89.45943718146376
 20
247.6506472062289
  0
VERTEX
  8
0
  6
CONTINUOUS
 62
     7
 10
89.4686684252424
 20
247.6699285903507
  0
VERTEX
  8
0
  6
CONTINUOUS
 62
     7
 10
89.47707475000995
 20
247.6896049462989
  0
VERTEX
  8
0
  6
CONTINUOUS
 62
     7
 10
89.48463428309412
 20
247.7096219072187
  0
VERTEX
  8
0
  6
CONTINUOUS
 62
     7
 10
89.49132515182262
 20
247.7299251062555
  0
VERTEX
  8
0
  6
CONTINUOUS
 62
     7
 10
89.4969863793412
 20
247.7499120161543
  0
VERTEX
  8
0
  6
CONTINUOUS
 62
     7
 10
89.50181667782434
 20
247.7701343082238
  0
VERTEX
  8
0
  6
CONTINUOUS
 62
     7
 10
89.5058046374864
 20
247.7905394312816
  0
VERTEX
  8
0
  6
CONTINUOUS
 62
     7
 10
89.50893884854183
 20
247.8110748341453
  0
VERTEX
  8
0
  6
CONTINUOUS
 62
     7
 10
89.51126711073692
 20
247.8323241416155
  0
VERTEX
  8
0
  6
CONTINUOUS
 62
     7
 10
89.51268625351605
 20
247.8536730872628
  0
VERTEX
  8
0
  6
CONTINUOUS
 62
     7
 10
89.51319363552633
 20
247.8750631317049
  0
VERTEX
  8
0
  6
CONTINUOUS
 62
     7
 10
89.51278661541485
 20
247.8964357355593
  0
VERTEX
  8
0
  6
CONTINUOUS
 62
     7
 10
89.51142290052138
 20
247.9182426783281
  0
VERTEX
  8
0
  6
CONTINUOUS
 62
     7
 10
89.50910551751552
 20
247.9399900126514
  0
VERTEX
  8
0
  6
CONTINUOUS
 62
     7
 10
89.50584245052517
 20
247.961615673416
  0
VERTEX
  8
0
  6
CONTINUOUS
 62
     7
 10
89.5016416836782
 20
247.9830575955085
  0
VERTEX
  8
0
  6
CONTINUOUS
 62
     7
 10
89.49632245621567
 20
248.0049768934809
  0
VERTEX
  8
0
  6
CONTINUOUS
 62
     7
 10
89.49001361870273
 20
248.0266560755759
  0
VERTEX
  8
0
  6
CONTINUOUS
 62
     7
 10
89.4827358887918
 20
248.048029494024
  0
VERTEX
  8
0
  6
CONTINUOUS
 62
     7
 10
89.47450998413522
 20
248.0690315010556
  0
SEQEND
  8
0
  6
CONTINUOUS
 62
     7
  0
ARC
  8
0
  6
CONTINUOUS
 62
     7
 10
56.25000000000001
 20
234.1795580260643
 40
34.20000000000002
 50
21.79027982642559
 51
21.85545059985984
  0
ARC
  8
0
  6
CONTINUOUS
 62
     7
 10
88.13112754968516
 20
246.9669035739372
 40
0.1499999999999987
 50
105.0000000000002
 51
201.8554505998607
  0
LINE
  8
0
  6
CONTINUOUS
 62
     7
 10
88.09230469291978
 20
247.1117924478806
 11
89.21914024069119
 21
247.4137271229086
  0
LINE
  8
0
  6
CONTINUOUS
 62
     7
 10
83.55000000000001
 20
210.6795580260643
 11
55.83292428320509
 21
210.6795580260643
  0
POLYLINE
  8
0
  6
CONTINUOUS
 62
     7
 66
     1
  0
VERTEX
  8
0
  6
CONTINUOUS
 62
     7
 10
86.17742205460233
 20
225.8584711796541
  0
VERTEX
  8
0
  6
CONTINUOUS
 62
     7
 10
86.19476329296162
 20
225.8751248543619
  0
VERTEX
  8
0
  6
CONTINUOUS
 62
     7
 10
86.21294383076538
 20
225.8909638090755
  0
VERTEX
  8
0
  6
CONTINUOUS
 62
     7
 10
86.23189587983876
 20
225.9059394497335
  0
VERTEX
  8
0
  6
CONTINUOUS
 62
     7
 10
86.25155165200682
 20
225.9200031822747
  0
VERTEX
  8
0
  6
CONTINUOUS
 62
     7
 10
86.2718433590947
 20
225.9331064126377
  0
VERTEX
  8
0
  6
CONTINUOUS
 62
     7
 10
86.29270321292745
 20
225.9452005467612
  0
VERTEX
  8
0
  6
CONTINUOUS
 62
     7
 10
86.31406342533019
 20
225.956236990584
  0
VERTEX
  8
0
  6
CONTINUOUS
 62
     7
 10
86.33593960719686
 20
225.9662128041683
  0
VERTEX
  8
0
  6
CONTINUOUS
 62
     7
 10
86.35833845331628
 20
225.9751414688153
  0
VERTEX
  8
0
  6
CONTINUOUS
 62
     7
 10
86.3811798246976
 20
225.9829995196543
  0
VERTEX
  8
0
  6
CONTINUOUS
 62
     7
 10
86.40438358235005
 20
225.9897634918143
  0
VERTEX
  8
0
  6
CONTINUOUS
 62
     7
 10
86.42786958728281
 20
225.9954099204244
  0
VERTEX
  8
0
  6
CONTINUOUS
 62
     7
 10
86.45155770050505
 20
225.9999153406136
  0
VERTEX
  8
0
  6
CONTINUOUS
 62
     7
 10
86.47536778302599
 20
226.0032562875112
  0
VERTEX
  8
0
  6
CONTINUOUS
 62
     7
 10
86.4993033893538
 20
226.0054241200925
  0
VERTEX
  8
0
  6
CONTINUOUS
 62
     7
 10
86.52338538073842
 20
226.0064310314682
  0
VERTEX
  8
0
  6
CONTINUOUS
 62
     7
 10
86.54753037614924
 20
226.0062814389598
  0
VERTEX
  8
0
  6
CONTINUOUS
 62
     7
 10
86.57165499455574
 20
226.0049797598892
  0
VERTEX
  8
0
  6
CONTINUOUS
 62
     7
 10
86.59567585492732
 20
226.0025304115779
  0
VERTEX
  8
0
  6
CONTINUOUS
 62
     7
 10
86.6195095762334
 20
225.9989378113477
  0
VERTEX
  8
0
  6
CONTINUOUS
 62
     7
 10
86.64307277744342
 20
225.9942063765203
  0
VERTEX
  8
0
  6
CONTINUOUS
 62
     7
 10
86.66636187569684
 20
225.9883279550251
  0
VERTEX
  8
0
  6
CONTINUOUS
 62
     7
 10
86.6894047527428
 20
225.9813064694597
  0
VERTEX
  8
0
  6
CONTINUOUS
 62
     7
 10
86.71212429804363
 20
225.9731737176637
  0
VERTEX
  8
0
  6
CONTINUOUS
 62
     7
 10
86.73444340106158
 20
225.9639614974768
  0
VERTEX
  8
0
  6
CONTINUOUS
 62
     7
 10
86.75628495125892
 20
225.9537016067388
  0
VERTEX
  8
0
  6
CONTINUOUS
 62
     7
 10
86.77757183809793
 20
225.9424258432895
  0
VERTEX
  8
0
  6
CONTINUOUS
 62
     7
 10
86.79822695104086
 20
225.9301660049684
  0
VERTEX
  8
0
  6
CONTINUOUS
 62
     7
 10
86.81824868269513
 20
225.916912568605
  0
VERTEX
  8
0
  6
CONTINUOUS
 62
     7
 10
86.83765994180226
 20
225.9026627167748
  0
VERTEX
  8
0
  6
CONTINUOUS
 62
     7
 10
86.85639860940013
 20
225.8874719686812
  0
VERTEX
  8
0
  6
CONTINUOUS
 62
     7
 10
86.8744025665266
 20
225.8713958435274
  0
VERTEX
  8
0
  6
CONTINUOUS
 62
     7
 10
86.89160969421953
 20
225.8544898605168
  0
VERTEX
  8
0
  6
CONTINUOUS
 62
     7
 10
86.90795787351674
 20
225.8368095388527
  0
VERTEX
  8
0
  6
CONTINUOUS
 62
     7
 10
86.92338498545611
 20
225.8184103977382
  0
VERTEX
  8
0
  6
CONTINUOUS
 62
     7
 10
86.93789179262244
 20
225.799276595719
  0
VERTEX
  8
0
  6
CONTINUOUS
 62
     7
 10
86.95149294936243
 20
225.7794048180853
  0
VERTEX
  8
0
  6
CONTINUOUS
 62
     7
 10
86.96414828346053
 20
225.7588679834957
  0
VERTEX
  8
0
  6
CONTINUOUS
 62
     7
 10
86.97581762270114
 20
225.7377390106092
  0
VERTEX
  8
0
  6
CONTINUOUS
 62
     7
 10
86.98646079486869
 20
225.7160908180844
  0
VERTEX
  8
0
  6
CONTINUOUS
 62
     7
 10
86.99603762774755
 20
225.69399632458
  0
VERTEX
  8
0
  6
CONTINUOUS
 62
     7
 10
87.00450794912219
 20
225.671528448755
  0
VERTEX
  8
0
  6
CONTINUOUS
 62
     7
 10
87.01186981670993
 20
225.6486634448052
  0
VERTEX
  8
0
  6
CONTINUOUS
 62
     7
 10
87.01813262922113
 20
225.6254016072695
  0
VERTEX
  8
0
  6
CONTINUOUS
 62
     7
 10
87.02328261189598
 20
225.6018250408772
  0
VERTEX
  8
0
  6
CONTINUOUS
 62
     7
 10
87.0273059899747
 20
225.5780158503578
  0
VERTEX
  8
0
  6
CONTINUOUS
 62
     7
 10
87.0301889886975
 20
225.5540561404405
  0
VERTEX
  8
0
  6
CONTINUOUS
 62
     7
 10
87.03191783330456
 20
225.530028015855
  0
VERTEX
  8
0
  6
CONTINUOUS
 62
     7
 10
87.0324787490361
 20
225.5060135813303
  0
VERTEX
  8
0
  6
CONTINUOUS
 62
     7
 10
87.03191051585378
 20
225.4828934519645
  0
VERTEX
  8
0
  6
CONTINUOUS
 62
     7
 10
87.0302660018615
 20
225.4597752948754
  0
VERTEX
  8
0
  6
CONTINUOUS
 62
     7
 10
87.02755561981402
 20
225.4367325171505
  0
VERTEX
  8
0
  6
CONTINUOUS
 62
     7
 10
87.02378978246605
 20
225.4138385258776
  0
VERTEX
  8
0
  6
CONTINUOUS
 62
     7
 10
87.01897890257231
 20
225.3911667281443
  0
VERTEX
  8
0
  6
CONTINUOUS
 62
     7
 10
87.01313339288757
 20
225.3687905310383
  0
SEQEND
  8
0
  6
CONTINUOUS
 62
     7
  0
LINE
  8
0
  6
CONTINUOUS
 62
     7
 10
84.05000000000001
 20
214.605084853077
 11
84.05000000000001
 21
210.6795580260643
  0
LINE
  8
0
  6
CONTINUOUS
 62
     7
 10
84.05000000000001
 20
210.6795580260643
 11
83.55000000000001
 21
210.6795580260643
  0
POLYLINE
  8
0
  6
CONTINUOUS
 62
     7
 10
0.0
 20
0.0
 30
0.0
 66
     1
 70
     8
  0
VERTEX
  8
0
  6
CONTINUOUS
 62
     7
 10
68.66705667832703
 20
215.6795389875964
 30
0.0
 70
    32
  0
VERTEX
  8
0
  6
CONTINUOUS
 62
     7
 10
68.66709475598779
 20
215.6795580260643
 30
0.0
 70
    32
  0
SEQEND
  8
0
  6
CONTINUOUS
 62
     7
  0
LINE
  8
0
  6
CONTINUOUS
 62
     7
 10
68.66709475598779
 20
215.6795580260643
 11
78.83290524401222
 21
215.6795580260643
  0
LINE
  8
0
  6
CONTINUOUS
 62
     7
 10
55.83292428320509
 20
210.6795580260643
 11
55.332943321673
 21
210.6795580260643
  0
POLYLINE
  8
0
  6
CONTINUOUS
 62
     7
 66
     1
  0
VERTEX
  8
0
  6
CONTINUOUS
 62
     7
 10
56.45127348726921
 20
229.6898334535721
  0
VERTEX
  8
0
  6
CONTINUOUS
 62
     7
 10
56.70131864082489
 20
229.3670012642072
  0
VERTEX
  8
0
  6
CONTINUOUS
 62
     7
 10
57.00058518430637
 20
229.089181780257
  0
SEQEND
  8
0
  6
CONTINUOUS
 62
     7
  0
POLYLINE
  8
0
  6
CONTINUOUS
 62
     7
 66
     1
  0
VERTEX
  8
0
  6
CONTINUOUS
 62
     7
 10
56.04409826869191
 20
230.5960046282412
  0
VERTEX
  8
0
  6
CONTINUOUS
 62
     7
 10
56.20065740002563
 20
230.0632522871275
  0
VERTEX
  8
0
  6
CONTINUOUS
 62
     7
 10
56.47095686438966
 20
229.5782034747603
  0
SEQEND
  8
0
  6
CONTINUOUS
 62
     7
  0
POLYLINE
  8
0
  6
CONTINUOUS
 62
     7
 66
     1
  0
VERTEX
  8
0
  6
CONTINUOUS
 62
     7
 10
54.89761843992137
 20
238.5010490775532
  0
VERTEX
  8
0
  6
CONTINUOUS
 62
     7
 10
54.80951650363746
 20
237.9528043613404
  0
VERTEX
  8
0
  6
CONTINUOUS
 62
     7
 10
54.84461114259989
 20
237.3986341593123
  0
SEQEND
  8
0
  6
CONTINUOUS
 62
     7
  0
POLYLINE
  8
0
  6
CONTINUOUS
 62
     7
 66
     1
  0
VERTEX
  8
0
  6
CONTINUOUS
 62
     7
 10
55.30484458642523
 20
239.2564022364455
  0
VERTEX
  8
0
  6
CONTINUOUS
 62
     7
 10
55.06953001923905
 20
238.8408005391414
  0
VERTEX
  8
0
  6
CONTINUOUS
 62
     7
 10
54.91754595063896
 20
238.3880345483103
  0
SEQEND
  8
0
  6
CONTINUOUS
 62
     7
  0
LINE
  8
0
  6
CONTINUOUS
 62
     7
 10
56.0440982686919
 20
230.5960046282412
 11
54.84461114259987
 21
237.3986341593123
  0
LINE
  8
0
  6
CONTINUOUS
 62
     7
 10
65.60045769049759
 20
224.891931107346
 11
65.41637823000086
 21
225.7170144190435
  0
LINE
  8
0
  6
CONTINUOUS
 62
     7
 10
65.71977954613867
 20
224.7567157663838
 11
66.51555527510145
 21
224.4714287035642
  0
ARC
  8
0
  6
CONTINUOUS
 62
     7
 10
53.02379897386062
 20
241.2291191553653
 40
3.000027117458798
 50
325.0010735921703
 51
8.3741245892532
  0
POLYLINE
  8
0
  6
CONTINUOUS
 62
     7
 66
     1
  0
VERTEX
  8
0
  6
CONTINUOUS
 62
     7
 10
64.17650090811435
 20
223.5303902975664
  0
VERTEX
  8
0
  6
CONTINUOUS
 62
     7
 10
64.19423626510672
 20
223.5193227987031
  0
VERTEX
  8
0
  6
CONTINUOUS
 62
     7
 10
64.21242634433793
 20
223.5090011720978
  0
VERTEX
  8
0
  6
CONTINUOUS
 62
     7
 10
64.23102351085673
 20
223.4994524662951
  0
VERTEX
  8
0
  6
CONTINUOUS
 62
     7
 10
64.25287035990081
 20
223.4894624483524
  0
VERTEX
  8
0
  6
CONTINUOUS
 62
     7
 10
64.27524023653757
 20
223.4805176855673
  0
VERTEX
  8
0
  6
CONTINUOUS
 62
     7
 10
64.29805317086989
 20
223.4726416146126
  0
VERTEX
  8
0
  6
CONTINUOUS
 62
     7
 10
64.32122919300053
 20
223.4658576721615
  0
VERTEX
  8
0
  6
CONTINUOUS
 62
     7
 10
64.3446883330324
 20
223.460189294887
  0
VERTEX
  8
0
  6
CONTINUOUS
 62
     7
 10
64.36835062106825
 20
223.4556599194621
  0
VERTEX
  8
0
  6
CONTINUOUS
 62
     7
 10
64.39213608721091
 20
223.4522929825598
  0
VERTEX
  8
0
  6
CONTINUOUS
 62
     7
 10
64.41605605526985
 20
223.4500964878134
  0
VERTEX
  8
0
  6
CONTINUOUS
 62
     7
 10
64.44012364280772
 20
223.4490594468764
  0
VERTEX
  8
0
  6
CONTINUOUS
 62
     7
 10
64.46425562545288
 20
223.4491775017626
  0
VERTEX
  8
0
  6
CONTINUOUS
 62
     7
 10
64.48836877883366
 20
223.450446294486
  0
VERTEX
  8
0
  6
CONTINUOUS
 62
     7
 10
64.51237987857844
 20
223.4528614670602
  0
VERTEX
  8
0
  6
CONTINUOUS
 62
     7
 10
64.53620570031552
 20
223.4564186614993
  0
VERTEX
  8
0
  6
CONTINUOUS
 62
     7
 10
64.55976301967328
 20
223.4611135198169
  0
VERTEX
  8
0
  6
CONTINUOUS
 62
     7
 10
64.5830623518923
 20
223.4669580210177
  0
VERTEX
  8
0
  6
CONTINUOUS
 62
     7
 10
64.60611718317753
 20
223.4739456789018
  0
VERTEX
  8
0
  6
CONTINUOUS
 62
     7
 10
64.62885040995505
 20
223.4820448120337
  0
VERTEX
  8
0
  6
CONTINUOUS
 62
     7
 10
64.65118492865086
 20
223.4912237389779
  0
VERTEX
  8
0
  6
CONTINUOUS
 62
     7
 10
64.67304363569103
 20
223.5014507782988
  0
VERTEX
  8
0
  6
CONTINUOUS
 62
     7
 10
64.69434942750158
 20
223.512694248561
  0
VERTEX
  8
0
  6
CONTINUOUS
 62
     7
 10
64.71502520050856
 20
223.524922468329
  0
VERTEX
  8
0
  6
CONTINUOUS
 62
     7
 10
64.73507882623957
 20
223.5381515329421
  0
VERTEX
  8
0
  6
CONTINUOUS
 62
     7
 10
64.7545231696144
 20
223.5523786348404
  0
VERTEX
  8
0
  6
CONTINUOUS
 62
     7
 10
64.77329595371081
 20
223.5675483238154
  0
VERTEX
  8
0
  6
CONTINUOUS
 62
     7
 10
64.79133490160662
 20
223.5836051496585
  0
VERTEX
  8
0
  6
CONTINUOUS
 62
     7
 10
64.80857773637962
 20
223.6004936621611
  0
VERTEX
  8
0
  6
CONTINUOUS
 62
     7
 10
64.82496218110761
 20
223.6181584111148
  0
VERTEX
  8
0
  6
CONTINUOUS
 62
     7
 10
64.84042595886842
 20
223.636543946311
  0
VERTEX
  8
0
  6
CONTINUOUS
 62
     7
 10
64.85497116685553
 20
223.6556680254015
  0
VERTEX
  8
0
  6
CONTINUOUS
 62
     7
 10
64.86861091446487
 20
223.6755322729112
  0
VERTEX
  8
0
  6
CONTINUOUS
 62
     7
 10
64.88130479904882
 20
223.6960637335785
  0
VERTEX
  8
0
  6
CONTINUOUS
 62
     7
 10
64.89301241795984
 20
223.7171894521421
  0
VERTEX
  8
0
  6
CONTINUOUS
 62
     7
 10
64.90369336855028
 20
223.7388364733405
  0
VERTEX
  8
0
  6
CONTINUOUS
 62
     7
 10
64.91330724817261
 20
223.7609318419121
  0
VERTEX
  8
0
  6
CONTINUOUS
 62
     7
 10
64.92181365417922
 20
223.7834026025958
  0
VERTEX
  8
0
  6
CONTINUOUS
 62
     7
 10
64.92920785107955
 20
223.8062633326121
  0
VERTEX
  8
0
  6
CONTINUOUS
 62
     7
 10
64.93550280407236
 20
223.8295226765809
  0
VERTEX
  8
0
  6
CONTINUOUS
 62
     7
 10
64.94068454428836
 20
223.8530984460515
  0
VERTEX
  8
0
  6
CONTINUOUS
 62
     7
 10
64.94473910285836
 20
223.8769084525734
  0
VERTEX
  8
0
  6
CONTINUOUS
 62
     7
 10
64.94765251091313
 20
223.9008705076958
  0
VERTEX
  8
0
  6
CONTINUOUS
 62
     7
 10
64.9494107995834
 20
223.9249024229682
  0
VERTEX
  8
0
  6
CONTINUOUS
 62
     7
 10
64.95
 20
223.9489220099401
  0
SEQEND
  8
0
  6
CONTINUOUS
 62
     7
  0
ARC
  8
0
  6
CONTINUOUS
 62
     7
 10
73.75000000000001
 20
238.1795580260643
 40
15.50000000000001
 50
242.1772155385757
 51
248.0
  0
ARC
  8
0
  6
CONTINUOUS
 62
     7
 10
73.75000000000001
 20
238.1795580260643
 40
15.5
 50
248.0
 51
251.1809366310121
  0
LINE
  8
0
  6
CONTINUOUS
 62
     7
 10
64.95
 20
224.2466910818725
 11
64.95
 21
223.9489220099401
  0
ARC
  8
0
  6
CONTINUOUS
 62
     7
 10
79.9179701172005
 20
231.1900238962055
 40
16.5
 50
199.8388326298475
 51
204.8856135356163
  0
ARC
  8
0
  6
CONTINUOUS
 62
     7
 10
65.75
 20
224.9036399787126
 40
0.1499999999999973
 50
184.4770138674041
 51
210.7957122475163
  0
ARC
  8
0
  6
CONTINUOUS
 62
     7
 10
65.75
 20
224.9036399787126
 40
0.15000000000001
 50
210.7957122475163
 51
258.3770841882897
  0
LINE
  8
0
  6
CONTINUOUS
 62
     7
 10
73.73376922743448
 20
260.7003090708912
 11
73.37175245198773
 21
261.6949419868948
  0
ARC
  8
0
  6
CONTINUOUS
 62
     7
 10
79.9179701172005
 20
231.1900238962055
 40
15.5097703100111
 50
146.7365015759379
 51
196.9089668739324
  0
ARC
  8
0
  6
CONTINUOUS
 62
     7
 10
79.9179701172005
 20
231.1900238962055
 40
15.50000000000001
 50
196.910210746312
 51
200.6768825171176
  0
LINE
  8
0
  6
CONTINUOUS
 62
     7
 10
68.75
 20
223.508157274943
 11
68.75
 21
215.6795580260643
  0
ARC
  8
0
  6
CONTINUOUS
 62
     7
 10
72.79407660664856
 20
260.3582889275655
 40
1.000000000000001
 50
0.0000000000003976
 51
20.00000000000009
  0
ARC
  8
0
  6
CONTINUOUS
 62
     7
 10
72.79407660664856
 20
260.3582889275655
 40
1.000000000000001
 50
270.0000000012629
 51
0.0000000000003979
  0
ARC
  8
0
  6
CONTINUOUS
 62
     7
 10
72.79407660664856
 20
260.3582889275655
 40
1.000000000000001
 50
264.897279244051
 51
270.0000000012629
  0
LINE
  8
0
  6
CONTINUOUS
 62
     7
 10
78.75000000000001
 20
215.6795580260643
 11
78.75000000000001
 21
223.5081572749431
  0
LINE
  8
0
  6
CONTINUOUS
 62
     7
 10
55.30484458642523
 20
239.2564022364455
 11
55.48130956245032
 21
239.5084203402155
  0
ARC
  8
0
  6
CONTINUOUS
 62
     7
 10
73.75000000000001
 20
238.1795580260643
 40
17.50000000000001
 50
231.8130159990287
 51
236.834649568713
  0
ARC
  8
0
  6
CONTINUOUS
 62
     7
 10
64.69583287096974
 20
228.2682885117269
 40
1.999999999999991
 50
190.8652038316456
 51
234.9999999999999
  0
LINE
  8
0
  6
CONTINUOUS
 62
     7
 10
63.54867999826764
 20
226.6299844231489
 11
63.66308003024899
 21
226.5498806583842
  0
LINE
  8
0
  6
CONTINUOUS
 62
     7
 10
57.00058518430637
 20
229.089181780257
 11
62.93097754293262
 21
224.424604261203
  0
ARC
  8
0
  6
CONTINUOUS
 62
     7
 10
62.5159271575469
 20
224.9115765698062
 40
2.0
 50
19.8388326298475
 51
55.00000000000001
  0
ARC
  8
0
  6
CONTINUOUS
 62
     7
 10
79.9179701172005
 20
231.1900238962055
 40
17.50000000000002
 50
146.7365015759379
 51
190.8652038316458
  0
POLYLINE
  8
0
  6
CONTINUOUS
 62
     7
 66
     1
  0
VERTEX
  8
0
  6
CONTINUOUS
 62
     7
 10
69.65492431364812
 20
264.0667291220075
  0
VERTEX
  8
0
  6
CONTINUOUS
 62
     7
 10
69.56966576406137
 20
264.0262151446738
  0
VERTEX
  8
0
  6
CONTINUOUS
 62
     7
 10
69.4935418827024
 20
263.9703990691573
  0
VERTEX
  8
0
  6
CONTINUOUS
 62
     7
 10
69.42926578709506
 20
263.9012702261371
  0
VERTEX
  8
0
  6
CONTINUOUS
 62
     7
 10
69.37912832996841
 20
263.8212924242375
  0
VERTEX
  8
0
  6
CONTINUOUS
 62
     7
 10
69.34491645138777
 20
263.7333161378689
  0
VERTEX
  8
0
  6
CONTINUOUS
 62
     7
 10
69.32784949074633
 20
263.6404769139843
  0
SEQEND
  8
0
  6
CONTINUOUS
 62
     7
  0
LINE
  8
0
  6
CONTINUOUS
 62
     7
 10
77.04687888193743
 20
263.5762559938103
 11
77.04697986922497
 21
263.5646839968518
  0
LINE
  8
0
  6
CONTINUOUS
 62
     7
 10
73.67057731194957
 20
262.3357739671033
 11
77.04697986922497
 21
263.5646839968518
  0
POLYLINE
  8
0
  6
CONTINUOUS
 62
     7
 66
     1
  0
VERTEX
  8
0
  6
CONTINUOUS
 62
     7
 10
73.67057731194957
 20
262.3357739671033
  0
VERTEX
  8
0
  6
CONTINUOUS
 62
     7
 10
73.5822021461647
 20
262.2933846973915
  0
VERTEX
  8
0
  6
CONTINUOUS
 62
     7
 10
73.50379567135981
 20
262.2345698938852
  0
VERTEX
  8
0
  6
CONTINUOUS
 62
     7
 10
73.43837071318434
 20
262.1615895580577
  0
VERTEX
  8
0
  6
CONTINUOUS
 62
     7
 10
73.38844127309791
 20
262.0772480122334
  0
VERTEX
  8
0
  6
CONTINUOUS
 62
     7
 10
73.35592592604131
 20
261.9847861414696
  0
VERTEX
  8
0
  6
CONTINUOUS
 62
     7
 10
73.34207409780312
 20
261.8877568601972
  0
VERTEX
  8
0
  6
CONTINUOUS
 62
     7
 10
73.3474180549278
 20
261.7898885889084
  0
VERTEX
  8
0
  6
CONTINUOUS
 62
     7
 10
73.37175245198775
 20
261.6949419868948
  0
SEQEND
  8
0
  6
CONTINUOUS
 62
     7
  0
LINE
  8
0
  6
CONTINUOUS
 62
     7
 10
69.24594319358617
 20
262.704283653518
 11
69.32784949074636
 21
263.6404769139843
  0
ARC
  8
0
  6
CONTINUOUS
 62
     7
 10
76.72858438779816
 20
261.3204419739358
 40
4.999999999999973
 50
89.99999999999994
 51
110.0
  0
ARC
  8
0
  6
CONTINUOUS
 62
     7
 10
76.72858438779816
 20
261.3204419739358
 40
4.99999999999998
 50
86.62421894554473
 51
90.00000000000001
  0
LINE
  8
0
  6
CONTINUOUS
 62
     7
 10
77.02310186051496
 20
266.3008327827078
 11
77.02300644767041
 21
266.3117660117699
  0
ARC
  8
0
  6
CONTINUOUS
 62
     7
 10
76.72858438779816
 20
261.3204419739358
 40
4.98909141526156
 50
52.9643873237556
 51
86.61573160756598
  0
POLYLINE
  8
0
  6
CONTINUOUS
 62
     7
 66
     1
  0
VERTEX
  8
0
  6
CONTINUOUS
 62
     7
 10
69.24594319358617
 20
262.704283653518
  0
VERTEX
  8
0
  6
CONTINUOUS
 62
     7
 10
69.24328329278298
 20
262.6805562881179
  0
VERTEX
  8
0
  6
CONTINUOUS
 62
     7
 10
69.2394722206616
 20
262.6569174783139
  0
VERTEX
  8
0
  6
CONTINUOUS
 62
     7
 10
69.23453060292472
 20
262.6334464132231
  0
VERTEX
  8
0
  6
CONTINUOUS
 62
     7
 10
69.22847906527504
 20
262.6102222819627
  0
VERTEX
  8
0
  6
CONTINUOUS
 62
     7
 10
69.22133823341525
 20
262.58732427365
  0
VERTEX
  8
0
  6
CONTINUOUS
 62
     7
 10
69.21312873304805
 20
262.5648315774021
  0
VERTEX
  8
0
  6
CONTINUOUS
 62
     7
 10
69.20387118987612
 20
262.5428233823362
  0
VERTEX
  8
0
  6
CONTINUOUS
 62
     7
 10
69.19348535215128
 20
262.5211613246904
  0
VERTEX
  8
0
  6
CONTINUOUS
 62
     7
 10
69.18202825895847
 20
262.4999674272125
  0
VERTEX
  8
0
  6
CONTINUOUS
 62
     7
 10
69.16954637176808
 20
262.4793109035396
  0
VERTEX
  8
0
  6
CONTINUOUS
 62
     7
 10
69.15608615205043
 20
262.4592609673081
  0
VERTEX
  8
0
  6
CONTINUOUS
 62
     7
 10
69.1416940612759
 20
262.4398868321547
  0
VERTEX
  8
0
  6
CONTINUOUS
 62
     7
 10
69.12641656091483
 20
262.4212577117161
  0
VERTEX
  8
0
  6
CONTINUOUS
 62
     7
 10
69.11030011243759
 20
262.4034428196289
  0
VERTEX
  8
0
  6
CONTINUOUS
 62
     7
 10
69.09332899164286
 20
262.3864392045338
  0
VERTEX
  8
0
  6
CONTINUOUS
 62
     7
 10
69.07550190906362
 20
262.3702320081518
  0
VERTEX
  8
0
  6
CONTINUOUS
 62
     7
 10
69.05688562701148
 20
262.3548711617897
  0
VERTEX
  8
0
  6
CONTINUOUS
 62
     7
 10
69.03754690779807
 20
262.3404065967536
  0
VERTEX
  8
0
  6
CONTINUOUS
 62
     7
 10
69.01755251373504
 20
262.3268882443501
  0
VERTEX
  8
0
  6
CONTINUOUS
 62
     7
 10
68.99696920713401
 20
262.3143660358855
  0
VERTEX
  8
0
  6
CONTINUOUS
 62
     7
 10
68.9758637503066
 20
262.3028899026662
  0
VERTEX
  8
0
  6
CONTINUOUS
 62
     7
 10
68.95422096153818
 20
262.2924625413891
  0
VERTEX
  8
0
  6
CONTINUOUS
 62
     7
 10
68.93203411029194
 20
262.2830700067337
  0
VERTEX
  8
0
  6
CONTINUOUS
 62
     7
 10
68.90938271824832
 20
262.2747373093043
  0
VERTEX
  8
0
  6
CONTINUOUS
 62
     7
 10
68.88634630708779
 20
262.267489459705
  0
VERTEX
  8
0
  6
CONTINUOUS
 62
     7
 10
68.8630043984908
 20
262.2613514685399
  0
VERTEX
  8
0
  6
CONTINUOUS
 62
     7
 10
68.83943651413779
 20
262.2563483464134
  0
VERTEX
  8
0
  6
CONTINUOUS
 62
     7
 10
68.81572217570924
 20
262.2525051039296
  0
SEQEND
  8
0
  6
CONTINUOUS
 62
     7
  0
LINE
  8
0
  6
CONTINUOUS
 62
     7
 10
55.29145262200612
 20
211.1795580260643
 11
55.29581605590149
 21
210.6795580260643
  0
LINE
  8
0
  6
CONTINUOUS
 62
     7
 10
55.29145262200612
 20
220.6795580260643
 11
55.29145262200612
 21
211.1795580260643
  0
LINE
  8
0
  6
CONTINUOUS
 62
     7
 10
55.25000000000001
 20
229.2440996819344
 11
55.25000000000001
 21
219.6795580260643
  0
LINE
  8
0
  6
CONTINUOUS
 62
     7
 10
55.29581605590149
 20
210.6795580260643
 11
55.332943321673
 21
210.6795580260643
  0
LINE
  8
0
  6
CONTINUOUS
 62
     7
 10
54.8751970176307
 20
231.8149272445604
 11
55.17471857398117
 21
230.1084597355142
  0
LINE
  8
0
  6
CONTINUOUS
 62
     7
 10
53.83791635952817
 20
237.7246379257603
 11
54.15257302629018
 21
235.9319409830873
  0
ARC
  8
0
  6
CONTINUOUS
 62
     7
 10
49.80344588137868
 20
232.9451221002938
 40
4.999999999999999
 50
358.4768879749952
 51
9.955228929528571
  0
LINE
  8
0
  6
CONTINUOUS
 62
     7
 10
54.69358571174708
 20
234.0065045976997
 11
54.72816158876467
 21
233.8095150673093
  0
ARC
  8
0
  6
CONTINUOUS
 62
     7
 10
59.79991272501668
 20
232.6793202115759
 40
4.999999999999997
 50
178.4768879749952
 51
189.9552289295285
  0
LINE
  8
0
  6
CONTINUOUS
 62
     7
 10
55.25000000000001
 20
229.2440996819343
 11
55.17471857398118
 21
230.1084597355142
  0
LINE
  8
0
  6
CONTINUOUS
 62
     7
 10
53.83791635952815
 20
237.7246379257603
 11
53.68200099368018
 21
238.3630845561702
  0
ARC
  8
0
  6
CONTINUOUS
 62
     7
 10
49.7688700043611
 20
233.1421116306842
 40
5.000000000000002
 50
9.95522892952863
 51
21.43356988406197
  0
ARC
  8
0
  6
CONTINUOUS
 62
     7
 10
59.07728873367616
 20
236.7963339501027
 40
4.999999999999991
 50
189.9552289295286
 51
201.4335698840619
  0
ARC
  8
0
  6
CONTINUOUS
 62
     7
 10
71.3265402904507
 20
243.9236810174071
 40
18.49999999999999
 50
97.80025015661482
 51
197.492008958325
  0
ARC
  8
0
  6
CONTINUOUS
 62
     7
 10
55.24999999999999
 20
215.1795580260643
 40
4.500000000000004
 50
89.5833190830827
 51
270.0000000000001
  0
LINE
  8
0
  6
CONTINUOUS
 62
     7
 10
55.29581605590149
 20
210.6795580260643
 11
55.25
 21
210.6795580260643
  0
ARC
  8
0
  6
CONTINUOUS
 62
     7
 10
56.25000000000001
 20
234.1795580260643
 40
34.20000000000002
 50
15.25484633502345
 51
21.7902798264256
  0
ARC
  8
0
  6
CONTINUOUS
 62
     7
 10
90.6921130708654
 20
243.5726856848223
 40
1.500000000000002
 50
195.2548463350234
 51
301.2503209888662
  0
ARC
  8
0
  6
CONTINUOUS
 62
     7
 10
91.25000000000001
 20
233.1795580260643
 40
4.000000000000004
 50
0.0
 51
90.0
  0
LINE
  8
0
  6
CONTINUOUS
 62
     9
 10
91.25000000000001
 20
236.1795580260643
 11
91.20705336665593
 21
236.1795580260643
  0
POLYLINE
  8
0
  6
CONTINUOUS
 62
     7
 66
     1
  0
VERTEX
  8
0
  6
CONTINUOUS
 62
     7
 10
87.08546283306802
 20
236.0782653220695
  0
VERTEX
  8
0
  6
CONTINUOUS
 62
     7
 10
87.09142415336247
 20
236.1122683136317
  0
VERTEX
  8
0
  6
CONTINUOUS
 62
     7
 10
87.09855507115005
 20
236.1460446831968
  0
VERTEX
  8
0
  6
CONTINUOUS
 62
     7
 10
87.10689093058062
 20
236.1797164415328
  0
VERTEX
  8
0
  6
CONTINUOUS
 62
     7
 10
87.11638865019052
 20
236.2130769427582
  0
VERTEX
  8
0
  6
CONTINUOUS
 62
     7
 10
87.12930353392096
 20
236.2526308717376
  0
VERTEX
  8
0
  6
CONTINUOUS
 62
     7
 10
87.14386360082409
 20
236.2916428706658
  0
VERTEX
  8
0
  6
CONTINUOUS
 62
     7
 10
87.16002770115101
 20
236.3300113843356
  0
VERTEX
  8
0
  6
CONTINUOUS
 62
     7
 10
87.17775468515292
 20
236.3676348575399
  0
VERTEX
  8
0
  6
CONTINUOUS
 62
     7
 10
87.19762555291044
 20
236.4055534613678
  0
VERTEX
  8
0
  6
CONTINUOUS
 62
     7
 10
87.21911601130799
 20
236.4426129270545
  0
VERTEX
  8
0
  6
CONTINUOUS
 62
     7
 10
87.24216310149139
 20
236.4787124428951
  0
VERTEX
  8
0
  6
CONTINUOUS
 62
     7
 10
87.26670386460646
 20
236.5137511971853
  0
VERTEX
  8
0
  6
CONTINUOUS
 62
     7
 10
87.29230480672545
 20
236.5471767185129
  0
VERTEX
  8
0
  6
CONTINUOUS
 62
     7
 10
87.31930603509453
 20
236.5795144947825
  0
VERTEX
  8
0
  6
CONTINUOUS
 62
     7
 10
87.34763245061403
 20
236.6106807904308
  0
VERTEX
  8
0
  6
CONTINUOUS
 62
     7
 10
87.37720895418431
 20
236.6405918698945
  0
VERTEX
  8
0
  6
CONTINUOUS
 62
     7
 10
87.40895306727329
 20
236.6700553797919
  0
VERTEX
  8
0
  6
CONTINUOUS
 62
     7
 10
87.44196290143644
 20
236.6981338975255
  0
VERTEX
  8
0
  6
CONTINUOUS
 62
     7
 10
87.4761428749089
 20
236.7247520513454
  0
VERTEX
  8
0
  6
CONTINUOUS
 62
     7
 10
87.51139740592585
 20
236.749834469502
  0
VERTEX
  8
0
  6
CONTINUOUS
 62
     7
 10
87.54681661654087
 20
236.7728108218556
  0
VERTEX
  8
0
  6
CONTINUOUS
 62
     7
 10
87.58319462097998
 20
236.7942841078518
  0
VERTEX
  8
0
  6
CONTINUOUS
 62
     7
 10
87.62043287048321
 20
236.8142008169083
  0
VERTEX
  8
0
  6
CONTINUOUS
 62
     7
 10
87.65843281629058
 20
236.8325074384427
  0
VERTEX
  8
0
  6
CONTINUOUS
 62
     7
 10
87.69832673692885
 20
236.8496555665819
  0
VERTEX
  8
0
  6
CONTINUOUS
 62
     7
 10
87.73895400987247
 20
236.86506592515
  0
VERTEX
  8
0
  6
CONTINUOUS
 62
     7
 10
87.78019968213749
 20
236.8786993013099
  0
VERTEX
  8
0
  6
CONTINUOUS
 62
     7
 10
87.82194880073996
 20
236.8905164822247
  0
VERTEX
  8
0
  6
CONTINUOUS
 62
     7
 10
87.86286023479964
 20
236.9002227400098
  0
VERTEX
  8
0
  6
CONTINUOUS
 62
     7
 10
87.90417164298441
 20
236.9082061763601
  0
VERTEX
  8
0
  6
CONTINUOUS
 62
     7
 10
87.94577451949033
 20
236.9144490819944
  0
VERTEX
  8
0
  6
CONTINUOUS
 62
     7
 10
87.98756035851346
 20
236.9189337476312
  0
VERTEX
  8
0
  6
CONTINUOUS
 62
     7
 10
88.03072468074274
 20
236.9217045158376
  0
VERTEX
  8
0
  6
CONTINUOUS
 62
     7
 10
88.07400418036572
 20
236.9226069483709
  0
VERTEX
  8
0
  6
CONTINUOUS
 62
     7
 10
88.11727933881531
 20
236.9216415208151
  0
VERTEX
  8
0
  6
CONTINUOUS
 62
     7
 10
88.16043063752446
 20
236.9188087087543
  0
SEQEND
  8
0
  6
CONTINUOUS
 62
     7
  0
POLYLINE
  8
0
  6
CONTINUOUS
 62
     7
 66
     1
  0
VERTEX
  8
0
  6
CONTINUOUS
 62
     7
 10
58.55855875123272
 20
248.3087291829565
  0
VERTEX
  8
0
  6
CONTINUOUS
 62
     7
 10
58.54678343926857
 20
248.2762779456461
  0
VERTEX
  8
0
  6
CONTINUOUS
 62
     7
 10
58.5338956511221
 20
248.2442529859088
  0
VERTEX
  8
0
  6
CONTINUOUS
 62
     7
 10
58.51983939265298
 20
248.2125402840414
  0
VERTEX
  8
0
  6
CONTINUOUS
 62
     7
 10
58.50469297450138
 20
248.1813358654925
  0
VERTEX
  8
0
  6
CONTINUOUS
 62
     7
 10
58.48510582918753
 20
248.144625495596
  0
VERTEX
  8
0
  6
CONTINUOUS
 62
     7
 10
58.46399259989595
 20
248.1087345056754
  0
VERTEX
  8
0
  6
CONTINUOUS
 62
     7
 10
58.44141144609497
 20
248.0737557625073
  0
VERTEX
  8
0
  6
CONTINUOUS
 62
     7
 10
58.41742052725296
 20
248.0397821328679
  0
VERTEX
  8
0
  6
CONTINUOUS
 62
     7
 10
58.39126704617187
 20
248.0058901378095
  0
VERTEX
  8
0
  6
CONTINUOUS
 62
     7
 10
58.36366776744438
 20
247.9731254676168
  0
VERTEX
  8
0
  6
CONTINUOUS
 62
     7
 10
58.33470219920702
 20
247.9415764697478
  0
VERTEX
  8
0
  6
CONTINUOUS
 62
     7
 10
58.30444984959626
 20
247.9113314916605
  0
VERTEX
  8
0
  6
CONTINUOUS
 62
     7
 10
58.27343356244695
 20
247.8828593360541
  0
VERTEX
  8
0
  6
CONTINUOUS
 62
     7
 10
58.24122714748923
 20
247.8557015573697
  0
VERTEX
  8
0
  6
CONTINUOUS
 62
     7
 10
58.20791910342664
 20
247.8299275782174
  0
VERTEX
  8
0
  6
CONTINUOUS
 62
     7
 10
58.17359792896269
 20
247.8056068212072
  0
VERTEX
  8
0
  6
CONTINUOUS
 62
     7
 10
58.13721979547881
 20
247.7821032356188
  0
VERTEX
  8
0
  6
CONTINUOUS
 62
     7
 10
58.09983567143328
 20
247.7601833912092
  0
VERTEX
  8
0
  6
CONTINUOUS
 62
     7
 10
58.06155277465615
 20
247.7399049170627
  0
VERTEX
  8
0
  6
CONTINUOUS
 62
     7
 10
58.02247832297748
 20
247.7213254422634
  0
VERTEX
  8
0
  6
CONTINUOUS
 62
     7
 10
57.9836074080426
 20
247.7048486337074
  0
VERTEX
  8
0
  6
CONTINUOUS
 62
     7
 10
57.94405327025009
 20
247.6900185493536
  0
VERTEX
  8
0
  6
CONTINUOUS
 62
     7
 10
57.90392225319793
 20
247.676870774026
  0
VERTEX
  8
0
  6
CONTINUOUS
 62
     7
 10
57.8633207004841
 20
247.6654408925484
  0
VERTEX
  8
0
  6
CONTINUOUS
 62
     7
 10
57.82105511693971
 20
247.6554807896261
  0
VERTEX
  8
0
  6
CONTINUOUS
 62
     7
 10
57.77836908287855
 20
247.6473594009418
  0
VERTEX
  8
0
  6
CONTINUOUS
 62
     7
 10
57.73538261412813
 20
247.6410953822252
  0
VERTEX
  8
0
  6
CONTINUOUS
 62
     7
 10
57.69221572651598
 20
247.6367073892061
  0
VERTEX
  8
0
  6
CONTINUOUS
 62
     7
 10
57.65024035509081
 20
247.6342527872568
  0
VERTEX
  8
0
  6
CONTINUOUS
 62
     7
 10
57.60817025084885
 20
247.6335642879915
  0
VERTEX
  8
0
  6
CONTINUOUS
 62
     7
 10
57.56611534633148
 20
247.6346404898125
  0
VERTEX
  8
0
  6
CONTINUOUS
 62
     7
 10
57.52418557408008
 20
247.6374799911223
  0
VERTEX
  8
0
  6
CONTINUOUS
 62
     7
 10
57.48119587604539
 20
247.6422467230062
  0
VERTEX
  8
0
  6
CONTINUOUS
 62
     7
 10
57.43841718350533
 20
247.6488734066907
  0
VERTEX
  8
0
  6
CONTINUOUS
 62
     7
 10
57.39596711668705
 20
247.6573388196356
  0
VERTEX
  8
0
  6
CONTINUOUS
 62
     7
 10
57.35396329581779
 20
247.6676217393008
  0
SEQEND
  8
0
  6
CONTINUOUS
 62
     7
  0
POLYLINE
  8
0
  6
CONTINUOUS
 62
     7
 66
     1
  0
VERTEX
  8
0
  6
CONTINUOUS
 62
     7
 10
66.66804966641224
 20
228.6035962347807
  0
VERTEX
  8
0
  6
CONTINUOUS
 62
     7
 10
66.67407756576901
 20
228.5696049829036
  0
VERTEX
  8
0
  6
CONTINUOUS
 62
     7
 10
66.67892889370425
 20
228.5354266601426
  0
VERTEX
  8
0
  6
CONTINUOUS
 62
     7
 10
66.68261216772154
 20
228.5009345254682
  0
VERTEX
  8
0
  6
CONTINUOUS
 62
     7
 10
66.68509719410036
 20
228.4663374972187
  0
VERTEX
  8
0
  6
CONTINUOUS
 62
     7
 10
66.6864894136192
 20
228.4247518116492
  0
VERTEX
  8
0
  6
CONTINUOUS
 62
     7
 10
66.68615031565703
 20
228.3831126879652
  0
VERTEX
  8
0
  6
CONTINUOUS
 62
     7
 10
66.68408383440271
 20
228.3415296308886
  0
VERTEX
  8
0
  6
CONTINUOUS
 62
     7
 10
66.68029390404507
 20
228.3001121451412
  0
VERTEX
  8
0
  6
CONTINUOUS
 62
     7
 10
66.67459032256065
 20
228.2576840758951
  0
VERTEX
  8
0
  6
CONTINUOUS
 62
     7
 10
66.66707098115289
 20
228.2155093997979
  0
VERTEX
  8
0
  6
CONTINUOUS
 62
     7
 10
66.65776056215878
 20
228.1737043820607
  0
VERTEX
  8
0
  6
CONTINUOUS
 62
     7
 10
66.64668374791536
 20
228.1323852878948
  0
VERTEX
  8
0
  6
CONTINUOUS
 62
     7
 10
66.63405893311621
 20
228.0922195342644
  0
VERTEX
  8
0
  6
CONTINUOUS
 62
     7
 10
66.61974624894019
 20
228.0525970005346
  0
VERTEX
  8
0
  6
CONTINUOUS
 62
     7
 10
66.60378762620776
 20
228.0136220578007
  0
VERTEX
  8
0
  6
CONTINUOUS
 62
     7
 10
66.58622499573934
 20
227.9753990771587
  0
VERTEX
  8
0
  6
CONTINUOUS
 62
     7
 10
66.56647240079421
 20
227.9368553082172
  0
VERTEX
  8
0
  6
CONTINUOUS
 62
     7
 10
66.54505672187736
 20
227.8991801040888
  0
VERTEX
  8
0
  6
CONTINUOUS
 62
     7
 10
66.52204199781119
 20
227.8624769819393
  0
VERTEX
  8
0
  6
CONTINUOUS
 62
     7
 10
66.49749226741817
 20
227.8268494589348
  0
VERTEX
  8
0
  6
CONTINUOUS
 62
     7
 10
66.47206747189423
 20
227.7931446666845
  0
VERTEX
  8
0
  6
CONTINUOUS
 62
     7
 10
66.445227625918
 20
227.7605243679977
  0
VERTEX
  8
0
  6
CONTINUOUS
 62
     7
 10
66.41704703333491
 20
227.7290725520347
  0
VERTEX
  8
0
  6
CONTINUOUS
 62
     7
 10
66.38759999799045
 20
227.6988732079559
  0
VERTEX
  8
0
  6
CONTINUOUS
 62
     7
 10
66.35597698039639
 20
227.6691147140286
  0
VERTEX
  8
0
  6
CONTINUOUS
 62
     7
 10
66.32307048485478
 20
227.6407383680834
  0
VERTEX
  8
0
  6
CONTINUOUS
 62
     7
 10
66.28897512025623
 20
227.6138203343699
  0
VERTEX
  8
0
  6
CONTINUOUS
 62
     7
 10
66.25378549549137
 20
227.5884367771376
  0
VERTEX
  8
0
  6
CONTINUOUS
 62
     7
 10
66.21866105847852
 20
227.5653233437808
  0
VERTEX
  8
0
  6
CONTINUOUS
 62
     7
 10
66.18257152909779
 20
227.5436920338056
  0
VERTEX
  8
0
  6
CONTINUOUS
 62
     7
 10
66.14561281252152
 20
227.5235965996634
  0
VERTEX
  8
0
  6
CONTINUOUS
 62
     7
 10
66.10788081392201
 20
227.5050907938061
  0
VERTEX
  8
0
  6
CONTINUOUS
 62
     7
 10
66.06826727738101
 20
227.4877240556933
  0
VERTEX
  8
0
  6
CONTINUOUS
 62
     7
 10
66.02790650105835
 20
227.4720735858369
  0
VERTEX
  8
0
  6
CONTINUOUS
 62
     7
 10
65.98691095832892
 20
227.4581798150916
  0
VERTEX
  8
0
  6
CONTINUOUS
 62
     7
 10
65.94539312256755
 20
227.446083174312
  0
SEQEND
  8
0
  6
CONTINUOUS
 62
     7
  0
POLYLINE
  8
0
  6
CONTINUOUS
 62
     7
 66
     1
  0
VERTEX
  8
0
  6
CONTINUOUS
 62
     7
 10
67.78620102601649
 20
239.0684868629392
  0
VERTEX
  8
0
  6
CONTINUOUS
 62
     7
 10
67.82077855398829
 20
239.0449895479452
  0
VERTEX
  8
0
  6
CONTINUOUS
 62
     7
 10
67.85434549337758
 20
239.0200671280941
  0
VERTEX
  8
0
  6
CONTINUOUS
 62
     7
 10
67.8870657697634
 20
238.9935728719668
  0
VERTEX
  8
0
  6
CONTINUOUS
 62
     7
 10
67.9186451937258
 20
238.965722767712
  0
VERTEX
  8
0
  6
CONTINUOUS
 62
     7
 10
67.94853236198706
 20
238.9370548974679
  0
VERTEX
  8
0
  6
CONTINUOUS
 62
     7
 10
67.97723517589085
 20
238.9071444937165
  0
VERTEX
  8
0
  6
CONTINUOUS
 62
     7
 10
68.00468176993398
 20
238.8760683754338
  0
VERTEX
  8
0
  6
CONTINUOUS
 62
     7
 10
68.03080027861327
 20
238.8439033615961
  0
VERTEX
  8
0
  6
CONTINUOUS
 62
     7
 10
68.0562498137581
 20
238.8097097821085
  0
VERTEX
  8
0
  6
CONTINUOUS
 62
     7
 10
68.08024613295149
 20
238.7744225183749
  0
VERTEX
  8
0
  6
CONTINUOUS
 62
     7
 10
68.10272538996092
 20
238.7381373638471
  0
VERTEX
  8
0
  6
CONTINUOUS
 62
     7
 10
68.12362373855389
 20
238.7009501119767
  0
VERTEX
  8
0
  6
CONTINUOUS
 62
     7
 10
68.14216634008628
 20
238.6644489429513
  0
VERTEX
  8
0
  6
CONTINUOUS
 62
     7
 10
68.15921825974768
 20
238.6271773757367
  0
VERTEX
  8
0
  6
CONTINUOUS
 62
     7
 10
68.17473739773737
 20
238.5892288661727
  0
VERTEX
  8
0
  6
CONTINUOUS
 62
     7
 10
68.18868165425462
 20
238.5506968700988
  0
VERTEX
  8
0
  6
CONTINUOUS
 62
     7
 10
68.20135726455588
 20
238.5105045879779
  0
VERTEX
  8
0
  6
CONTINUOUS
 62
     7
 10
68.2123412323917
 20
238.469764235288
  0
VERTEX
  8
0
  6
CONTINUOUS
 62
     7
 10
68.22160489044369
 20
238.4285845139768
  0
VERTEX
  8
0
  6
CONTINUOUS
 62
     7
 10
68.22911957139348
 20
238.3870741259924
  0
VERTEX
  8
0
  6
CONTINUOUS
 62
     7
 10
68.23471338238254
 20
238.3466237155835
  0
VERTEX
  8
0
  6
CONTINUOUS
 62
     7
 10
68.23865534320055
 20
238.3059318256595
  0
VERTEX
  8
0
  6
CONTINUOUS
 62
     7
 10
68.24093612664477
 20
238.2651008592006
  0
VERTEX
  8
0
  6
CONTINUOUS
 62
     7
 10
68.24154640551248
 20
238.224233219187
  0
VERTEX
  8
0
  6
CONTINUOUS
 62
     7
 10
68.24042446305234
 20
238.1822077871465
  0
VERTEX
  8
0
  6
CONTINUOUS
 62
     7
 10
68.23753352103112
 20
238.1402176160801
  0
VERTEX
  8
0
  6
CONTINUOUS
 62
     7
 10
68.23288233523152
 20
238.0983751037368
  0
VERTEX
  8
0
  6
CONTINUOUS
 62
     7
 10
68.22647966143623
 20
238.0567926478657
  0
VERTEX
  8
0
  6
CONTINUOUS
 62
     7
 10
68.21855627079655
 20
238.0165661453357
  0
VERTEX
  8
0
  6
CONTINUOUS
 62
     7
 10
68.20898049869513
 20
237.9766566974525
  0
VERTEX
  8
0
  6
CONTINUOUS
 62
     7
 10
68.19777810969529
 20
237.9371660165284
  0
VERTEX
  8
0
  6
CONTINUOUS
 62
     7
 10
68.18497486836037
 20
237.8981958148757
  0
VERTEX
  8
0
  6
CONTINUOUS
 62
     7
 10
68.17013914334434
 20
237.8586868128207
  0
VERTEX
  8
0
  6
CONTINUOUS
 62
     7
 10
68.15363312499095
 20
237.8198002926968
  0
VERTEX
  8
0
  6
CONTINUOUS
 62
     7
 10
68.1355035197791
 20
237.7816409226783
  0
VERTEX
  8
0
  6
CONTINUOUS
 62
     7
 10
68.11579703418765
 20
237.7443133709394
  0
SEQEND
  8
0
  6
CONTINUOUS
 62
     7
  0
POLYLINE
  8
0
  6
CONTINUOUS
 62
     7
 66
     1
  0
VERTEX
  8
0
  6
CONTINUOUS
 62
     7
 10
71.32654029045074
 20
258.3891571588966
  0
VERTEX
  8
0
  6
CONTINUOUS
 62
     7
 10
71.32566605540727
 20
258.3473604489105
  0
VERTEX
  8
0
  6
CONTINUOUS
 62
     7
 10
71.32304622087354
 20
258.3056351220908
  0
VERTEX
  8
0
  6
CONTINUOUS
 62
     7
 10
71.31864700779616
 20
258.2637637832203
  0
VERTEX
  8
0
  6
CONTINUOUS
 62
     7
 10
71.31248933203672
 20
258.2221107958841
  0
VERTEX
  8
0
  6
CONTINUOUS
 62
     7
 10
71.30472415149848
 20
258.1814316663185
  0
VERTEX
  8
0
  6
CONTINUOUS
 62
     7
 10
71.29527184906357
 20
258.141069087644
  0
VERTEX
  8
0
  6
CONTINUOUS
 62
     7
 10
71.284157709788
 20
258.1011251699563
  0
VERTEX
  8
0
  6
CONTINUOUS
 62
     7
 10
71.27140701872783
 20
258.0617020233505
  0
VERTEX
  8
0
  6
CONTINUOUS
 62
     7
 10
71.25659068026177
 20
258.0217350891208
  0
VERTEX
  8
0
  6
CONTINUOUS
 62
     7
 10
71.24006562287451
 20
257.9823912612061
  0
VERTEX
  8
0
  6
CONTINUOUS
 62
     7
 10
71.2218774125641
 20
257.9437762584156
  0
VERTEX
  8
0
  6
CONTINUOUS
 62
     7
 10
71.20207161532866
 20
257.9059957995584
  0
VERTEX
  8
0
  6
CONTINUOUS
 62
     7
 10
71.1815581837768
 20
257.8705647039252
  0
VERTEX
  8
0
  6
CONTINUOUS
 62
     7
 10
71.15958675840227
 20
257.835964210377
  0
VERTEX
  8
0
  6
CONTINUOUS
 62
     7
 10
71.13621278867245
 20
257.8022805264759
  0
VERTEX
  8
0
  6
CONTINUOUS
 62
     7
 10
71.1114917240547
 20
257.7695998597841
  0
VERTEX
  8
0
  6
CONTINUOUS
 62
     7
 10
71.08468727214404
 20
257.7370789127443
  0
VERTEX
  8
0
  6
CONTINUOUS
 62
     7
 10
71.05650183505797
 20
257.705678195826
  0
VERTEX
  8
0
  6
CONTINUOUS
 62
     7
 10
71.02701096458026
 20
257.6754809547891
  0
VERTEX
  8
0
  6
CONTINUOUS
 62
     7
 10
70.99629021249469
 20
257.6465704353941
  0
VERTEX
  8
0
  6
CONTINUOUS
 62
     7
 10
70.96541225164256
 20
257.6198481982638
  0
VERTEX
  8
0
  6
CONTINUOUS
 62
     7
 10
70.9334321069452
 20
257.5943798000847
  0
VERTEX
  8
0
  6
CONTINUOUS
 62
     7
 10
70.90043058080951
 20
257.5702288359673
  0
VERTEX
  8
0
  6
CONTINUOUS
 62
     7
 10
70.86648847564234
 20
257.5474589010223
  0
VERTEX
  8
0
  6
CONTINUOUS
 62
     7
 10
70.83063192902594
 20
257.5255111503899
  0
VERTEX
  8
0
  6
CONTINUOUS
 62
     7
 10
70.79384148853678
 20
257.505066212127
  0
VERTEX
  8
0
  6
CONTINUOUS
 62
     7
 10
70.7562161876
 20
257.486177959218
  0
VERTEX
  8
0
  6
CONTINUOUS
 62
     7
 10
70.7178550596407
 20
257.468900264647
  0
VERTEX
  8
0
  6
CONTINUOUS
 62
     7
 10
70.6798028880853
 20
257.4536364556549
  0
VERTEX
  8
0
  6
CONTINUOUS
 62
     7
 10
70.6411166694859
 20
257.4399311306986
  0
VERTEX
  8
0
  6
CONTINUOUS
 62
     7
 10
70.60189573935205
 20
257.4278180782929
  0
VERTEX
  8
0
  6
CONTINUOUS
 62
     7
 10
70.56223943319331
 20
257.4173310869523
  0
VERTEX
  8
0
  6
CONTINUOUS
 62
     7
 10
70.52102428104439
 20
257.4082552281237
  0
VERTEX
  8
0
  6
CONTINUOUS
 62
     7
 10
70.4794214792187
 20
257.4009192231153
  0
VERTEX
  8
0
  6
CONTINUOUS
 62
     7
 10
70.43754424800504
 20
257.3953409069513
  0
VERTEX
  8
0
  6
CONTINUOUS
 62
     7
 10
70.39550580769212
 20
257.3915381146559
  0
SEQEND
  8
0
  6
CONTINUOUS
 62
     7
  0
POLYLINE
  8
0
  6
CONTINUOUS
 62
     7
 66
     1
  0
VERTEX
  8
0
  6
CONTINUOUS
 62
     7
 10
79.16886273950252
 20
224.7674020990543
  0
VERTEX
  8
0
  6
CONTINUOUS
 62
     7
 10
79.15401599297604
 20
224.8064828279388
  0
VERTEX
  8
0
  6
CONTINUOUS
 62
     7
 10
79.14081447871824
 20
224.8461512845826
  0
VERTEX
  8
0
  6
CONTINUOUS
 62
     7
 10
79.1292080784404
 20
224.886621688177
  0
VERTEX
  8
0
  6
CONTINUOUS
 62
     7
 10
79.11931389229457
 20
224.9275483714692
  0
VERTEX
  8
0
  6
CONTINUOUS
 62
     7
 10
79.11127497216772
 20
224.968174291449
  0
VERTEX
  8
0
  6
CONTINUOUS
 62
     7
 10
79.10491890627515
 20
225.0091387175397
  0
VERTEX
  8
0
  6
CONTINUOUS
 62
     7
 10
79.10026050183613
 20
225.0503375029607
  0
VERTEX
  8
0
  6
CONTINUOUS
 62
     7
 10
79.09731456606997
 20
225.0916665009316
  0
VERTEX
  8
0
  6
CONTINUOUS
 62
     7
 10
79.09608015879843
 20
225.1342734951455
  0
VERTEX
  8
0
  6
CONTINUOUS
 62
     7
 10
79.09666346785664
 20
225.1769428526187
  0
VERTEX
  8
0
  6
CONTINUOUS
 62
     7
 10
79.09906184814982
 20
225.2195594832549
  0
VERTEX
  8
0
  6
CONTINUOUS
 62
     7
 10
79.10327265458315
 20
225.2620082969576
  0
VERTEX
  8
0
  6
CONTINUOUS
 62
     7
 10
79.10901965508364
 20
225.3025439034913
  0
VERTEX
  8
0
  6
CONTINUOUS
 62
     7
 10
79.11642963293413
 20
225.3428555632813
  0
VERTEX
  8
0
  6
CONTINUOUS
 62
     7
 10
79.12548347020487
 20
225.3828425743318
  0
VERTEX
  8
0
  6
CONTINUOUS
 62
     7
 10
79.13616204896618
 20
225.4224042346469
  0
VERTEX
  8
0
  6
CONTINUOUS
 62
     7
 10
79.14883214282303
 20
225.4625982560961
  0
VERTEX
  8
0
  6
CONTINUOUS
 62
     7
 10
79.16320230942752
 20
225.5022709444154
  0
VERTEX
  8
0
  6
CONTINUOUS
 62
     7
 10
79.17923368279621
 20
225.5413168132837
  0
VERTEX
  8
0
  6
CONTINUOUS
 62
     7
 10
79.19688739694566
 20
225.5796303763798
  0
VERTEX
  8
0
  6
CONTINUOUS
 62
     7
 10
79.21550661748988
 20
225.6159738909314
  0
VERTEX
  8
0
  6
CONTINUOUS
 62
     7
 10
79.2356174614383
 20
225.6515677515868
  0
VERTEX
  8
0
  6
CONTINUOUS
 62
     7
 10
79.25716883325164
 20
225.6863227248719
  0
VERTEX
  8
0
  6
CONTINUOUS
 62
     7
 10
79.28010963739062
 20
225.7201495773124
  0
VERTEX
  8
0
  6
CONTINUOUS
 62
     7
 10
79.30513347639634
 20
225.7539312761225
  0
VERTEX
  8
0
  6
CONTINUOUS
 62
     7
 10
79.331586170145
 20
225.7866694343694
  0
VERTEX
  8
0
  6
CONTINUOUS
 62
     7
 10
79.35939607761897
 20
225.8182770033178
  0
VERTEX
  8
0
  6
CONTINUOUS
 62
     7
 10
79.38849155780052
 20
225.8486669342325
  0
VERTEX
  8
0
  6
CONTINUOUS
 62
     7
 10
79.41805499340877
 20
225.8770738858477
  0
VERTEX
  8
0
  6
CONTINUOUS
 62
     7
 10
79.44879012559487
 20
225.9042733544304
  0
VERTEX
  8
0
  6
CONTINUOUS
 62
     7
 10
79.48061750947849
 20
225.9301968000785
  0
VERTEX
  8
0
  6
CONTINUOUS
 62
     7
 10
79.51345770017936
 20
225.9547756828901
  0
VERTEX
  8
0
  6
CONTINUOUS
 62
     7
 10
79.54827184725725
 20
225.9786301404059
  0
VERTEX
  8
0
  6
CONTINUOUS
 62
     7
 10
79.58409717756928
 20
226.0010166496752
  0
VERTEX
  8
0
  6
CONTINUOUS
 62
     7
 10
79.62083539620936
 20
226.0218762612848
  0
VERTEX
  8
0
  6
CONTINUOUS
 62
     7
 10
79.65838820827142
 20
226.0411500258215
  0
SEQEND
  8
0
  6
CONTINUOUS
 62
     7
  0
ARC
  8
0
  6
CONTINUOUS
 62
     7
 10
73.75000000000001
 20
237.4043619784823
 40
14.76836162756942
 50
250.2107374031045
 51
289.7892625968955
  0
ENDBLK
  8
0
  0
BLOCK
  8
0
  2
D_FRAME_VIEW_10870
 70
     0
 10
0.0
 20
0.0
  0
LINE
  8
0
  6
CONTINUOUS
 62
     7
 10
128.3161976201185
 20
218.6795580260643
 11
129.150172216334
 21
218.6795580260643
  0
LINE
  8
0
  6
CONTINUOUS
 62
     7
 10
130.0161976201184
 20
218.1795580260643
 11
129.150172216334
 21
218.6795580260643
  0
ARC
  8
0
  6
CONTINUOUS
 62
     7
 10
128.3161976201185
 20
217.6795580260643
 40
1.000000000000001
 50
90.0
 51
180.0
  0
LINE
  8
0
  6
CONTINUOUS
 62
     7
 10
127.3161976201184
 20
211.6795580260643
 11
127.3161976201184
 21
217.6795580260643
  0
ARC
  8
0
  6
CONTINUOUS
 62
     7
 10
128.3161976201185
 20
211.6795580260643
 40
1.000000000000001
 50
180.0
 51
270.0
  0
LINE
  8
0
  6
CONTINUOUS
 62
     7
 10
131.7161976201185
 20
210.6795580260643
 11
128.3161976201185
 21
210.6795580260643
  0
LINE
  8
0
  6
CONTINUOUS
 62
     7
 10
130.8822230239029
 20
218.6795580260643
 11
130.0161976201184
 21
218.1795580260643
  0
LINE
  8
0
  6
CONTINUOUS
 62
     7
 10
130.8822230239029
 20
218.6795580260643
 11
131.7161976201185
 21
218.6795580260643
  0
ARC
  8
0
  6
CONTINUOUS
 62
     7
 10
131.7161976201185
 20
211.6795580260643
 40
1.000000000000001
 50
270.0
 51
0.0
  0
ARC
  8
0
  6
CONTINUOUS
 62
     7
 10
131.7161976201185
 20
217.6795580260643
 40
1.000000000000001
 50
0.0
 51
90.0
  0
LINE
  8
0
  6
CONTINUOUS
 62
     7
 10
132.7161976201185
 20
217.6795580260643
 11
132.7161976201185
 21
211.6795580260643
  0
ARC
  8
0
  6
CONTINUOUS
 62
     7
 10
130.0161976201184
 20
236.1795580260643
 40
1.000000000000001
 50
0.0
 51
89.99999999999983
  0
ARC
  8
0
  6
CONTINUOUS
 62
     7
 10
130.0161976201184
 20
236.1795580260643
 40
1.000000000000001
 50
89.99999999999999
 51
180.0
  0
LINE
  8
0
  6
CONTINUOUS
 62
     7
 10
140.0161976201185
 20
264.8464225450679
 11
140.0161976201185
 21
250.6484177697529
  0
LINE
  8
0
  6
CONTINUOUS
 62
     7
 10
120.0161976201185
 20
250.6484177697529
 11
120.0161976201185
 21
264.8464225450679
  0
LINE
  8
0
  6
CONTINUOUS
 62
     7
 10
138.0161976201184
 20
210.6795580260643
 11
137.988271643188
 21
213.8795580260643
  0
LINE
  8
0
  6
CONTINUOUS
 62
     7
 10
132.7161976201185
 20
213.8795580260643
 11
137.988271643188
 21
213.8795580260643
  0
LINE
  8
0
  6
CONTINUOUS
 62
     7
 10
127.3161976201184
 20
213.8795580260643
 11
122.0441235970489
 21
213.8795580260643
  0
LINE
  8
0
  6
CONTINUOUS
 62
     7
 10
122.0161976201184
 20
210.6795580260643
 11
122.0441235970489
 21
213.8795580260643
  0
LINE
  8
0
  6
CONTINUOUS
 62
     7
 10
120.5161976201185
 20
210.6795580260643
 11
122.0161976201184
 21
210.6795580260643
  0
LINE
  8
0
  6
CONTINUOUS
 62
     7
 10
138.0161976201184
 20
210.6795580260643
 11
139.5161976201185
 21
210.6795580260643
  0
LINE
  8
0
  6
CONTINUOUS
 62
     7
 10
120.5161976201185
 20
210.6795580260643
 11
120.0161976201185
 21
210.6795580260643
  0
LINE
  8
0
  6
CONTINUOUS
 62
     7
 10
140.0161976201185
 20
210.6795580260643
 11
139.5161976201185
 21
210.6795580260643
  0
LINE
  8
0
  6
CONTINUOUS
 62
     7
 10
138.0161976201184
 20
210.6795580260643
 11
131.7161976201185
 21
210.6795580260643
  0
LINE
  8
0
  6
CONTINUOUS
 62
     7
 10
122.0161976201184
 20
210.6795580260643
 11
128.3161976201185
 21
210.6795580260643
  0
LINE
  8
0
  6
CONTINUOUS
 62
     7
 10
130.0161976201239
 20
266.3117660117699
 11
131.2661976201184
 21
266.3008327827078
  0
LINE
  8
0
  6
CONTINUOUS
 62
     7
 10
130.0161976201239
 20
266.3117660117699
 11
130.0161976201239
 21
266.3204419739358
  0
LINE
  8
0
  6
CONTINUOUS
 62
     7
 10
128.7661976201184
 20
266.3008327827078
 11
130.0161976201239
 21
266.3117660117699
  0
LINE
  8
0
  6
CONTINUOUS
 62
     7
 10
140.0161976201185
 20
265.7375176907307
 11
140.0161976201185
 21
264.8464225450679
  0
LINE
  8
0
  6
CONTINUOUS
 62
     7
 10
120.0161976201185
 20
264.846422545068
 11
120.0161976201185
 21
265.7375176907307
  0
LINE
  8
0
  6
CONTINUOUS
 62
     7
 10
130.0161976201185
 20
263.5646839968518
 11
131.266209083979
 21
263.5762560202731
  0
LINE
  8
0
  6
CONTINUOUS
 62
     7
 10
128.7661890147664
 20
263.5762559938103
 11
130.0161976201185
 21
263.5646839968518
  0
LINE
  8
0
  6
CONTINUOUS
 62
     7
 10
130.0161976201184
 20
239.954831640198
 11
130.0161976201185
 21
239.3928395869102
  0
LINE
  8
0
  6
CONTINUOUS
 62
     7
 10
120.0161976201184
 20
235.3457261240305
 11
129.0161976201184
 21
235.3457261240305
  0
LINE
  8
0
  6
CONTINUOUS
 62
     7
 10
131.0161976201184
 20
235.3457261240305
 11
140.0161976201185
 21
235.3457261240305
  0
LINE
  8
0
  6
CONTINUOUS
 62
     7
 10
141.5415835181756
 20
250.614584738464
 11
139.971535820671
 21
250.6943521167821
  0
LINE
  8
0
  6
CONTINUOUS
 62
     7
 10
120.0608619908741
 20
250.6943522473709
 11
118.490811722061
 21
250.6145847384641
  0
ARC
  8
0
  6
CONTINUOUS
 62
     7
 10
118.5161976201185
 20
250.1152298192794
 40
0.499999999999968
 50
92.90953120267085
 51
180.0000000000004
  0
ARC
  8
0
  6
CONTINUOUS
 62
     7
 10
141.5161976201185
 20
250.1152298192793
 40
0.5000000000000004
 50
0.0000000000608281
 51
87.09046879732875
  0
LINE
  8
0
  6
CONTINUOUS
 62
     7
 10
139.5205608878677
 20
266.2374986522627
 11
130.0161976201184
 21
266.3204419739358
  0
LINE
  8
0
  6
CONTINUOUS
 62
     7
 10
130.0161976201184
 20
266.3204419739358
 11
120.5118343523693
 21
266.2374986522628
  0
ARC
  8
0
  6
CONTINUOUS
 62
     7
 10
139.5161976201185
 20
265.7375176907307
 40
0.5000000000000004
 50
0.0
 51
89.49999999998899
  0
ARC
  8
0
  6
CONTINUOUS
 62
     7
 10
120.5161976201185
 20
265.7375176907307
 40
0.5000000000000014
 50
90.4999999999983
 51
180.0
  0
ENDBLK
  8
0
  0
ENDSEC
  0
SECTION
  2
ENTITIES
  0
INSERT
  8
0
  6
CONTINUOUS
 62
     7
  2
D_FRAME_VIEW_3203
 10
0.0
 20
0.0
 30
0.0
  0
LINE
  8
0
  6
CENTER
 62
     1
 10
130.0161976201184
 20
265.695650651963
 11
130.0161976201184
 21
209.5632986700667
  0
LINE
  8
0
  6
CENTER
 62
     1
 10
73.75000000000001
 20
220.6795580260643
 11
73.75000000000001
 21
255.6795580260643
  0
LINE
  8
0
  6
CENTER
 62
     1
 10
69.0
 20
178.9313494203033
 11
78.50000000000001
 21
178.9313494203033
  0
LINE
  8
0
  6
CENTER
 62
     1
 10
56.24999999999999
 20
238.1795580260643
 11
91.25000000000003
 21
238.1795580260643
  0
LINE
  8
0
  6
CENTER
 62
     1
 10
56.24999999999999
 20
238.1795580260643
 11
91.25000000000003
 21
238.1795580260643
  0
LINE
  8
0
  6
CENTER
 62
     1
 10
73.75000000000001
 20
174.1813494203033
 11
73.75000000000001
 21
183.6813494203033
  0
LINE
  8
0
  6
CENTER
 62
     1
 10
73.75000000000001
 20
220.6795580260643
 11
73.75000000000001
 21
255.6795580260643
  0
LINE
  8
0
  6
CENTER
 62
     1
 10
47.74999999999999
 20
178.9313494203033
 11
98.25000000000001
 21
178.9313494203033
  0
LINE
  8
0
  6
CONTINUOUS
 62
     7
 10
140.0161976201185
 20
242.3199416202231
 11
140.0161976201185
 21
210.6795580260643
  0
LINE
  8
0
  6
CONTINUOUS
 62
     7
 10
140.0161976201185
 20
237.1795580260643
 11
130.0161976201184
 21
237.1795580260643
  0
LINE
  8
0
  6
CONTINUOUS
 62
     7
 10
120.0161976201184
 20
237.1795580260643
 11
130.0161976201184
 21
237.1795580260643
  0
LINE
  8
0
  6
CONTINUOUS
 62
     7
 10
129.0161976201184
 20
218.6795580260643
 11
129.0161976201184
 21
236.1795580260643
  0
LINE
  8
0
  6
CONTINUOUS
 62
     7
 10
140.0161976201185
 20
241.1528441219163
 11
130.0161976201184
 21
241.2401127998239
  0
LINE
  8
0
  6
CONTINUOUS
 62
     7
 10
120.0161976201185
 20
210.6795580260643
 11
120.0161976201183
 21
242.3199416202295
  0
LINE
  8
0
  6
CONTINUOUS
 62
     7
 10
131.0161976201184
 20
236.1795580260643
 11
131.0161976201184
 21
218.6795580260643
  0
LINE
  8
0
  6
CONTINUOUS
 62
     7
 10
130.0161976201184
 20
241.2401127998239
 11
120.0161976201183
 21
241.1528441219163
  0
INSERT
  8
0
  6
CONTINUOUS
 62
     7
  2
D_FRAME_VIEW_1493
 10
0.0
 20
0.0
 30
0.0
  0
LINE
  8
0
  6
CONTINUOUS
 62
     7
 10
93.75000000000001
 20
218.6795580260643
 11
95.25000000000001
 21
218.6795580260643
  0
LINE
  8
0
  6
CONTINUOUS
 62
     7
 10
93.75000000000003
 20
176.2313494203033
 11
93.75
 21
177.9313494203033
  0
LINE
  8
0
  6
CONTINUOUS
 62
     7
 10
84.05000000000001
 20
188.9313494203033
 11
84.05000000000001
 21
168.9313494203033
  0
LINE
  8
0
  6
CONTINUOUS
 62
     7
 10
95.25000000000001
 20
176.2313494203033
 11
93.75000000000003
 21
176.2313494203033
  0
ARC
  8
0
  6
CONTINUOUS
 62
     7
 10
66.12138029084836
 20
240.2401127998239
 40
1.000000000000006
 50
318.9665745232121
 51
146.7365015759378
  0
LINE
  8
0
  6
CONTINUOUS
 62
     7
 10
79.56006222049645
 20
223.7991494065827
 11
79.16886273950252
 21
224.7674020990543
  0
LINE
  8
0
  6
CONTINUOUS
 62
     7
 10
93.28659745786022
 20
190.9313494203033
 11
89.00552014097117
 21
190.9313494203033
  0
LINE
  8
0
  6
CONTINUOUS
 62
     7
 10
52.86362947856144
 20
174.6813494203033
 11
52.9138089683583
 21
168.9313494203033
  0
LINE
  8
0
  6
CONTINUOUS
 62
     7
 10
55.74999999999999
 20
174.6813494203033
 11
50.74999999999999
 21
174.6813494203033
  0
LINE
  8
0
  6
CONTINUOUS
 62
     7
 10
50.74999999999999
 20
183.1813494203033
 11
55.74999999999999
 21
183.1813494203033
  0
LINE
  8
0
  6
CONTINUOUS
 62
     7
 10
95.25000000000001
 20
210.6795580260643
 11
90.25000000000003
 21
210.6795580260643
  0
LINE
  8
0
  6
CONTINUOUS
 62
     7
 10
88.1604306375242
 20
236.9188087087543
 11
89.20075095145384
 21
236.8277924748497
  0
LINE
  8
0
  6
CONTINUOUS
 62
     7
 10
50.74999999999999
 20
177.8813494203033
 11
50.74999999999999
 21
174.6813494203033
  0
ARC
  8
0
  6
CONTINUOUS
 62
     7
 10
79.91797011720048
 20
231.1900238962055
 40
13.5
 50
150.9545721220923
 51
191.0454278779101
  0
LINE
  8
0
  6
CONTINUOUS
 62
     7
 10
55.74999999999999
 20
174.6813494203033
 11
55.74999999999999
 21
183.1813494203033
  0
LINE
  8
0
  6
CONTINUOUS
 62
     7
 10
65.9453931225679
 20
227.4460831743121
 11
64.93668241494935
 21
227.1757999548091
  0
LINE
  8
0
  6
CONTINUOUS
 62
     7
 10
80.75000000000001
 20
215.6795580260643
 11
82.36034277829381
 21
215.6795580260643
  0
LINE
  8
0
  6
CONTINUOUS
 62
     7
 10
71.32654029045074
 20
259.4334513274183
 11
71.32654029045074
 21
258.3891571588966
  0
LINE
  8
0
  6
CONTINUOUS
 62
     7
 10
52.9138089683583
 20
188.9313494203033
 11
52.86362947856144
 21
183.1813494203033
  0
LINE
  8
0
  6
CONTINUOUS
 62
     7
 10
95.25000000000001
 20
210.6795580260643
 11
95.25000000000001
 21
233.1795580260643
  0
ARC
  8
0
  6
CONTINUOUS
 62
     7
 10
73.75000000000001
 20
238.1795580260643
 40
15.50977031001111
 50
290.0910331260675
 51
356.3032623898757
  0
ARC
  8
0
  6
CONTINUOUS
 62
     7
 10
71.32654029045072
 20
243.9236810174071
 40
13.49999999999998
 50
93.95457212209239
 51
161.0454278779068
  0
LINE
  8
0
  6
CONTINUOUS
 62
     7
 10
95.25000000000001
 20
181.6313494203033
 11
95.25000000000001
 21
176.2313494203033
  0
LINE
  8
0
  6
CONTINUOUS
 62
     7
 10
57.35396329581727
 20
247.6676217393009
 11
56.34525258819961
 21
247.9379049588037
  0
ARC
  8
0
  6
CONTINUOUS
 62
     7
 10
71.3265402904507
 20
243.9236810174071
 40
15.49999999999999
 50
84.89727924405146
 51
188.3751981814229
  0
ARC
  8
0
  6
CONTINUOUS
 62
     7
 10
56.25000000000001
 20
234.1795580260643
 40
32.0
 50
324.6812270969884
 51
344.0179325770952
  0
LINE
  8
0
  6
CONTINUOUS
 62
     7
 10
91.25000000000001
 20
237.1795580260643
 11
89.22749899270882
 21
237.1795580260643
  0
LINE
  8
0
  6
CONTINUOUS
 62
     7
 10
93.38259300355857
 20
179.9313494203033
 11
93.28659745786022
 21
190.9313494203033
  0
ARC
  8
0
  6
CONTINUOUS
 62
     7
 10
73.75000000000001
 20
238.1795580260643
 40
13.50000000000001
 50
295.9545721220908
 51
351.0454278779115
  0
LINE
  8
0
  6
CONTINUOUS
 62
     7
 10
89.0055201409711
 20
166.9313494203033
 11
93.28659745786024
 21
166.9313494203033
  0
LINE
  8
0
  6
CONTINUOUS
 62
     7
 10
50.74999999999999
 20
183.1813494203033
 11
50.74999999999999
 21
179.9813494203033
  0
LINE
  8
0
  6
CONTINUOUS
 62
     7
 10
93.75000000000001
 20
210.6795580260643
 11
93.75000000000001
 21
218.6795580260643
  0
LINE
  8
0
  6
CONTINUOUS
 62
     7
 10
80.75000000000001
 20
215.6795580260643
 11
80.75000000000001
 21
222.1405430937189
  0
LINE
  8
0
  6
CONTINUOUS
 62
     7
 10
55.3372686779076
 20
168.9313494203033
 11
55.28708918811073
 21
174.6813494203033
  0
LINE
  8
0
  6
CONTINUOUS
 62
     7
 10
93.75
 20
179.9313494203033
 11
93.75000000000003
 21
181.6313494203033
  0
LINE
  8
0
  6
CONTINUOUS
 62
     7
 10
66.91038224260036
 20
239.6372502311546
 11
67.78620102601623
 21
239.0684868629394
  0
LINE
  8
0
  6
CONTINUOUS
 62
     7
 10
93.75000000000003
 20
181.6313494203033
 11
95.25000000000001
 21
181.6313494203033
  0
LINE
  8
0
  6
CONTINUOUS
 62
     7
 10
55.28708918811073
 20
183.1813494203033
 11
55.3372686779076
 21
188.9313494203033
  0
LINE
  8
0
  6
CONTINUOUS
 62
     7
 10
93.28659745786024
 20
166.9313494203033
 11
93.38259300355858
 21
177.9313494203033
  0
ARC
  8
0
  6
CONTINUOUS
 62
     7
 10
73.75000000000001
 20
238.1795580260643
 40
17.50000000000002
 50
293.5781784782018
 51
315.2461773020825
  0
LINE
  8
0
  6
CONTINUOUS
 62
     7
 10
93.30405119344175
 20
168.9313494203033
 11
52.9138089683583
 21
168.9313494203033
  0
LINE
  8
0
  6
CONTINUOUS
 62
     7
 10
93.30405119344174
 20
188.9313494203033
 11
52.9138089683583
 21
188.9313494203033
  0
LINE
  8
0
  6
CONTINUOUS
 62
     7
 10
134.0161976201184
 20
235.3457261240305
 11
134.0161976201184
 21
213.8795580260643
  0
LINE
  8
0
  6
CONTINUOUS
 62
     7
 10
89.00552014097117
 20
190.9313494203033
 11
88.9449510882883
 21
188.9313494203033
  0
LINE
  8
0
  6
CONTINUOUS
 62
     7
 10
89.65
 20
220.6795580260643
 11
88.54163978493507
 21
220.6795580260643
  0
LINE
  8
0
  6
CONTINUOUS
 62
     7
 10
90.25000000000003
 20
210.6795580260643
 11
89.65
 21
220.6795580260643
  0
LINE
  8
0
  6
CONTINUOUS
 62
     7
 10
69.65492247115252
 20
264.0667284513946
 11
75.01848367116983
 21
266.0189050778653
  0
LINE
  8
0
  6
CONTINUOUS
 62
     7
 10
126.0161976201184
 20
235.3457261240305
 11
126.0161976201184
 21
213.8795580260643
  0
LINE
  8
0
  6
CONTINUOUS
 62
     7
 10
93.75
 20
177.9313494203033
 11
84.05000000000005
 21
177.9313494203033
  0
LINE
  8
0
  6
CONTINUOUS
 62
     7
 10
93.75
 20
179.9313494203033
 11
84.05000000000005
 21
179.9313494203033
  0
LINE
  8
0
  6
CONTINUOUS
 62
     7
 10
88.9449510882882
 20
168.9313494203033
 11
89.0055201409711
 21
166.9313494203033
  0
ARC
  8
0
  6
CONTINUOUS
 62
     7
 10
56.25000000000001
 20
234.1795580260643
 40
35.00000000000001
 50
322.5878415327015
 51
337.3119088491289
  0
LINE
  8
0
  6
CONTINUOUS
 62
     7
 10
118.0161976201185
 20
242.3306971281262
 11
118.0161976201185
 21
250.1152298192794
  0
ARC
  8
0
  6
CONTINUOUS
 62
     7
 10
89.84588950011651
 20
244.8111951390893
 40
2.989091415261571
 50
299.4556515604763
 51
334.9999999999999
  0
LINE
  8
0
  6
CONTINUOUS
 62
     7
 10
128.7661976201184
 20
266.3008327827078
 11
128.7661976201184
 21
242.2728862731816
  0
LINE
  8
0
  6
CONTINUOUS
 62
     7
 10
131.2661976201184
 20
242.2728862731384
 11
131.2661976201184
 21
266.3008327827078
  0
LINE
  8
0
  6
CONTINUOUS
 62
     7
 10
91.49791053690227
 20
250.8449128728761
 11
88.68629253311933
 21
249.8215676093722
  0
LINE
  8
0
  6
CONTINUOUS
 62
     7
 10
50.75000000000001
 20
179.9813494203033
 11
51.85000000000001
 21
179.9813494203033
  0
LINE
  8
0
  6
CONTINUOUS
 62
     7
 10
131.2661976201184
 20
242.2728862731384
 11
142.0161976201184
 21
242.3306971281282
  0
LINE
  8
0
  6
CONTINUOUS
 62
     7
 10
50.75000000000001
 20
177.8813494203033
 11
51.85000000000001
 21
177.8813494203033
  0
LINE
  8
0
  6
CONTINUOUS
 62
     7
 10
118.0161976201185
 20
242.3306971281262
 11
128.7661976201184
 21
242.2728862731816
  0
LINE
  8
0
  6
CONTINUOUS
 62
     7
 10
51.85000000000001
 20
177.8813494203033
 11
51.85000000000001
 21
176.1813494203033
  0
LINE
  8
0
  6
CONTINUOUS
 62
     7
 10
142.0161976201184
 20
250.1152298192794
 11
142.0161976201184
 21
242.3306971281282
  0
LINE
  8
0
  6
CONTINUOUS
 62
     7
 10
84.05000000000001
 20
182.9313494203033
 11
91.86289306393972
 21
182.9313494203033
  0
LINE
  8
0
  6
CONTINUOUS
 62
     7
 10
84.05000000000001
 20
174.9313494203033
 11
91.86289306393972
 21
174.9313494203033
  0
LINE
  8
0
  6
CONTINUOUS
 62
     7
 10
51.85000000000001
 20
181.6813494203033
 11
51.85000000000001
 21
179.9813494203033
  0
INSERT
  8
0
  6
CONTINUOUS
 62
     7
  2
D_FRAME_VIEW_10870
 10
0.0
 20
0.0
 30
0.0
  0
TEXT
  8
0
  6
CONTINUOUS
 62
     7
 10
118.9807490308866
 20
176.9795454545455
 40
3.0
  1
ＧＴＦ－ＴＭ
  0
ENDSEC
  0
EOF
