  0
SECTION
  2
HEADER
  9
$ACADVER
  1
AC1004
  9
$INSBASE
 10
0.0
 20
0.0
  9
$EXTMIN
 10
38.42872903725385
 20
156.0942182461247
  9
$EXTMAX
 10
123.8019100186957
 20
251.9558936668464
  9
$LIMMIN
 10
0.0
 20
0.0
  9
$LIMMAX
 10
12.0
 20
9.0
  9
$ORTHOMODE
 70
     0
  9
$REGENMODE
 70
     1
  9
$FILLMODE
 70
     1
  9
$QTEXTMODE
 70
     0
  9
$DRAGMODE
 70
     2
  9
$LTSCALE
 40
1.0
  9
$OSMODE
 70
    37
  9
$ATTMODE
 70
     1
  9
$TEXTSIZE
 40
0.2
  9
$TRACEWID
 40
0.05
  9
$TEXTSTYLE
  7
STANDARD
  9
$CLAYER
  8
0
  9
$CELTYPE
  6
BYLAYER
  9
$CECOLOR
 62
   256
  9
$DIMSCALE
 40
1.0
  9
$DIMASZ
 40
3.0
  9
$DIMEXO
 40
0.0625
  9
$DIMDLI
 40
0.38
  9
$DIMRND
 40
0.0
  9
$DIMDLE
 40
0.0
  9
$DIMEXE
 40
1.5
  9
$DIMTP
 40
0.0
  9
$DIMTM
 40
0.0
  9
$DIMTXT
 40
3.0
  9
$DIMCEN
 40
0.09
  9
$DIMTSZ
 40
0.0
  9
$DIMTOL
 70
     0
  9
$DIMLIM
 70
     0
  9
$DIMTIH
 70
     1
  9
$DIMTOH
 70
     1
  9
$DIMSE1
 70
     0
  9
$DIMSE2
 70
     0
  9
$DIMTAD
 70
     1
  9
$DIMZIN
 70
     0
  9
$DIMBLK
  1

  9
$DIMASO
 70
     1
  9
$DIMSHO
 70
     1
  9
$DIMPOST
  1

  9
$DIMAPOST
  1

  9
$DIMALT
 70
     0
  9
$DIMALTD
 70
     2
  9
$DIMALTF
 40
25.4
  9
$DIMLFAC
 40
1.0
  9
$DIMTOFL
 70
     0
  9
$DIMTVP
 40
0.0
  9
$DIMTIX
 70
     0
  9
$DIMSOXD
 70
     0
  9
$DIMSAH
 70
     0
  9
$DIMBLK1
  1

  9
$DIMBLK2
  1

  9
$LUNITS
 70
     2
  9
$LUPREC
 70
     4
  9
$SKETCHINC
 40
0.1
  9
$FILLETRAD
 40
0.5
  9
$AUNITS
 70
     0
  9
$AUPREC
 70
     0
  9
$MENU
  1
.
  9
$ELEVATION
 40
0.0
  9
$THICKNESS
 40
0.0
  9
$LIMCHECK
 70
     0
  9
$CHAMFERA
 40
0.0
  9
$CHAMFERB
 40
0.0
  9
$SKPOLY
 70
     0
  9
$TDCREATE
 40
2459884.715411354
  9
$TDUPDATE
 40
2459884.715411586
  9
$TDINDWG
 40
0.0000000116
  9
$TDUSRTIMER
 40
0.0000000116
  9
$USRTIMER
 70
     1
  9
$ANGBASE
 50
0.0
  9
$ANGDIR
 70
     0
  9
$PDMODE
 70
     0
  9
$PDSIZE
 40
0.0
  9
$PLINEWID
 40
0.0
  9
$COORDS
 70
     1
  9
$SPLFRAME
 70
     0
  9
$SPLINETYPE
 70
     6
  9
$SPLINESEGS
 70
     8
  9
$ATTDIA
 70
     0
  9
$ATTREQ
 70
     1
  9
$SURFTAB1
 70
     6
  9
$SURFTAB2
 70
     6
  9
$SURFTYPE
 70
     6
  9
$SURFU
 70
     6
  9
$SURFV
 70
     6
  9
$UCSNAME
  2

  9
$UCSORG
 10
0.0
 20
0.0
 30
0.0
  9
$UCSXDIR
 10
1.0
 20
0.0
 30
0.0
  9
$UCSYDIR
 10
0.0
 20
1.0
 30
0.0
  9
$USERI1
 70
     0
  9
$USERI2
 70
     0
  9
$USERI3
 70
     0
  9
$USERI4
 70
     0
  9
$USERI5
 70
     0
  9
$USERR1
 40
0.0
  9
$USERR2
 40
0.0
  9
$USERR3
 40
0.0
  9
$USERR4
 40
0.0
  9
$USERR5
 40
0.0
  9
$WORLDVIEW
 70
     1
  0
ENDSEC
  0
SECTION
  2
TABLES
  0
TABLE
  2
LTYPE
 70
     1
  0
LTYPE
  2
CONTINUOUS
 70
     0
  3
Solid line
 72
    65
 73
     0
 40
0.0
  0
ENDTAB
  0
TABLE
  2
LAYER
 70
     1
  0
LAYER
  2
0
 70
     0
 62
     7
  6
CONTINUOUS
  0
ENDTAB
  0
TABLE
  2
STYLE
 70
     2
  0
STYLE
  2
STANDARD
 70
     0
 40
0.0
 41
1.0
 50
0.0
 71
     0
 42
0.2
  3
txt
  4

  0
STYLE
  2
ＭＳ_ゴシック
 70
     0
 40
0.0
 41
1.0
 50
0.0
 71
     0
 42
0.2
  3
ＭＳ ゴシック.shx
  4

  0
ENDTAB
  0
TABLE
  2
VIEW
 70
     0
  0
ENDTAB
  0
ENDSEC
  0
SECTION
  2
BLOCKS
  0
BLOCK
  8
0
  2
D_FRAME_VIEW_10348
 70
     0
 10
0.0
 20
0.0
  0
ENDBLK
  8
0
  0
BLOCK
  8
0
  2
D_FRAME_VIEW_11117
 70
     0
 10
0.0
 20
0.0
  0
ENDBLK
  8
0
  0
ENDSEC
  0
SECTION
  2
ENTITIES
  0
INSERT
  8
0
  6
CONTINUOUS
 62
     7
  2
D_FRAME_VIEW_10348
 10
0.0
 20
0.0
 30
0.0
  0
INSERT
  8
0
  6
CONTINUOUS
 62
     7
  2
D_FRAME_VIEW_11117
 10
0.0
 20
0.0
 30
0.0
  0
LINE
  8
0
  6
CONTINUOUS
 62
     7
 10
94.0696129851253
 20
181.8618280440479
 11
94.0696129851253
 21
178.4618280440479
  0
LINE
  8
0
  6
CONTINUOUS
 62
     7
 10
86.06961298512532
 20
178.4618280440479
 11
86.06961298512532
 21
179.2958026402635
  0
LINE
  8
0
  6
CONTINUOUS
 62
     7
 10
67.56961298512532
 20
190.1618280440479
 11
67.56961298512532
 21
170.161828044048
  0
LINE
  8
0
  6
CONTINUOUS
 62
     7
 10
93.0696129851253
 20
177.4618280440479
 11
87.0696129851253
 21
177.4618280440479
  0
ARC
  8
0
  6
CONTINUOUS
 62
     7
 10
87.06961298512532
 20
181.8618280440479
 40
1.000000000000001
 50
90.00000000000006
 51
180.0
  0
LINE
  8
0
  6
CONTINUOUS
 62
     7
 10
62.40973892213506
 20
191.7900234154594
 11
62.40506462801578
 21
191.8129855441396
  0
LINE
  8
0
  6
CONTINUOUS
 62
     7
 10
59.5814971377729
 20
168.161828044048
 11
58.55196178832763
 21
168.161828044048
  0
LINE
  8
0
  6
CONTINUOUS
 62
     7
 10
94.0696129851253
 20
170.661828044048
 11
94.0696129851253
 21
170.161828044048
  0
LINE
  8
0
  6
CONTINUOUS
 62
     7
 10
60.9520999426355
 20
192.1618280440479
 11
61.46228191287565
 21
192.1618280440479
  0
LINE
  8
0
  6
CONTINUOUS
 62
     7
 10
61.59053975159608
 20
168.1655612317664
 11
62.2678105034699
 21
168.3239364971692
  0
ARC
  8
0
  6
CONTINUOUS
 62
     7
 10
93.0696129851253
 20
178.4618280440479
 40
1.000000000000006
 50
270.0
 51
274.0
  0
LINE
  8
0
  6
CONTINUOUS
 62
     7
 10
62.4762847380405
 20
181.4118280440479
 11
39.44613047528517
 21
181.4118280440479
  0
LINE
  8
0
  6
CONTINUOUS
 62
     7
 10
54.63394119191023
 20
192.1618280440479
 11
58.5519617883277
 21
192.1618280440479
  0
LINE
  8
0
  6
CONTINUOUS
 62
     7
 10
39.9027484661217
 20
190.1618280440479
 11
54.10075324143673
 21
190.1618280440479
  0
LINE
  8
0
  6
CONTINUOUS
 62
     7
 10
86.06961298512532
 20
181.0278534478324
 11
86.06961298512532
 21
181.8618280440479
  0
LINE
  8
0
  6
CONTINUOUS
 62
     7
 10
58.55196178832758
 20
168.161828044048
 11
54.63394119191022
 21
168.161828044048
  0
ARC
  8
0
  6
CONTINUOUS
 62
     7
 10
93.0696129851253
 20
178.4618280440479
 40
1.000000000000001
 50
274.0
 51
0.0
  0
LINE
  8
0
  6
CONTINUOUS
 62
     7
 10
62.4101588884611
 20
169.911828044048
 11
62.45884877286176
 21
169.911828044048
  0
LINE
  8
0
  6
CONTINUOUS
 62
     7
 10
59.58149713777293
 20
192.1618280440479
 11
60.9520999426355
 21
192.1618280440479
  0
LINE
  8
0
  6
CONTINUOUS
 62
     7
 10
61.46228191287565
 20
168.161828044048
 11
61.59053975159608
 21
168.1655612317664
  0
LINE
  8
0
  6
CONTINUOUS
 62
     7
 10
62.26781050346877
 20
191.9997195909274
 11
61.59053975159571
 21
192.1580948563295
  0
LINE
  8
0
  6
CONTINUOUS
 62
     7
 10
90.48743820293971
 20
184.161828044048
 11
69.4034448871591
 21
184.161828044048
  0
LINE
  8
0
  6
CONTINUOUS
 62
     7
 10
62.52297708177504
 20
190.1618280440479
 11
94.0696129851253
 21
190.1618280440479
  0
LINE
  8
0
  6
CONTINUOUS
 62
     7
 10
94.0696129851253
 20
188.1618280440479
 11
90.86961298512531
 21
188.1339020671175
  0
LINE
  8
0
  6
CONTINUOUS
 62
     7
 10
90.86961298512531
 20
182.8618280440479
 11
90.86961298512531
 21
188.1339020671175
  0
LINE
  8
0
  6
CONTINUOUS
 62
     7
 10
62.26781050346989
 20
168.3239364971693
 11
62.40510815770067
 21
168.5108482344795
  0
ARC
  8
0
  6
CONTINUOUS
 62
     7
 10
87.06961298512532
 20
178.4618280440479
 40
1.000000000000001
 50
180.0
 51
269.9999999999998
  0
LINE
  8
0
  6
CONTINUOUS
 62
     7
 10
69.4034448871591
 20
181.161828044048
 11
86.06961298512532
 21
181.161828044048
  0
LINE
  8
0
  6
CONTINUOUS
 62
     7
 10
62.40510815770067
 20
168.5108482344795
 11
62.40975468695111
 21
168.5337297587057
  0
ARC
  8
0
  6
CONTINUOUS
 62
     7
 10
93.0696129851253
 20
181.8618280440479
 40
1.000000000000001
 50
0.0000000000001137
 51
89.9999999999999
  0
LINE
  8
0
  6
CONTINUOUS
 62
     7
 10
60.95209994263549
 20
168.161828044048
 11
59.5814971377729
 21
168.161828044048
  0
LINE
  8
0
  6
CONTINUOUS
 62
     7
 10
86.06961298512532
 20
179.161828044048
 11
69.4034448871591
 21
179.161828044048
  0
LINE
  8
0
  6
CONTINUOUS
 62
     7
 10
62.45884877286176
 20
169.911828044048
 11
62.52297708177504
 21
169.911828044048
  0
LINE
  8
0
  6
CONTINUOUS
 62
     7
 10
58.5519617883277
 20
192.1618280440479
 11
59.58149713777293
 21
192.1618280440479
  0
LINE
  8
0
  6
CONTINUOUS
 62
     7
 10
62.47628473803262
 20
178.9118280440479
 11
39.44613047528514
 21
178.9118280440479
  0
LINE
  8
0
  6
CONTINUOUS
 62
     7
 10
61.46228191287566
 20
168.161828044048
 11
60.95209994263551
 21
168.161828044048
  0
LINE
  8
0
  6
CONTINUOUS
 62
     7
 10
61.59053975159571
 20
192.1580948563295
 11
61.46228191287565
 21
192.1618280440479
  0
LINE
  8
0
  6
CONTINUOUS
 62
     7
 10
54.10075324143676
 20
170.161828044048
 11
39.90274846612173
 21
170.161828044048
  0
LINE
  8
0
  6
CONTINUOUS
 62
     7
 10
87.06961298512532
 20
182.8618280440479
 11
93.0696129851253
 21
182.8618280440479
  0
LINE
  8
0
  6
CONTINUOUS
 62
     7
 10
62.40385980429636
 20
168.658321086938
 11
62.40295789056466
 21
168.661828044048
  0
LINE
  8
0
  6
CONTINUOUS
 62
     7
 10
90.48743820293971
 20
176.161828044048
 11
69.4034448871591
 21
176.161828044048
  0
LINE
  8
0
  6
CONTINUOUS
 62
     7
 10
94.0696129851253
 20
170.161828044048
 11
62.52297708177502
 21
170.161828044048
  0
LINE
  8
0
  6
CONTINUOUS
 62
     7
 10
62.4211417687215
 20
191.6658411450846
 11
62.40970279009723
 21
191.7900224438873
  0
LINE
  8
0
  6
CONTINUOUS
 62
     7
 10
103.0651610879109
 20
170.8363803561352
 11
104.5505631910233
 21
171.0451400075753
  0
LINE
  8
0
  6
CONTINUOUS
 62
     7
 10
110.8696129851253
 20
190.6618280440479
 11
96.0696129851253
 21
190.6618280440479
  0
LINE
  8
0
  6
CONTINUOUS
 62
     7
 10
119.0379118620112
 20
192.2679279602743
 11
121.0184479994943
 21
192.5462741621944
  0
ARC
  8
0
  6
CONTINUOUS
 62
     7
 10
117.4853991998392
 20
192.5366847488197
 40
2.699999999999991
 50
8.0
 51
94.0
  0
LINE
  8
0
  6
CONTINUOUS
 62
     7
 10
54.13458627272566
 20
191.6872139421051
 11
54.05427378305382
 21
190.1064328965327
  0
LINE
  8
0
  6
CONTINUOUS
 62
     7
 10
94.06961298512529
 20
181.8618280440479
 11
94.0696129851253
 21
190.6618280440479
  0
LINE
  8
0
  6
CONTINUOUS
 62
     7
 10
62.40295789056464
 20
211.1502037034745
 11
62.40385980434127
 21
211.1515074407225
  0
LINE
  8
0
  6
CONTINUOUS
 62
     7
 10
96.0696129851253
 20
170.6618280440479
 11
94.06961298512529
 21
170.6618280440479
  0
LINE
  8
0
  6
CONTINUOUS
 62
     7
 10
107.6099171469704
 20
190.6618280440479
 11
119.0379118620112
 21
192.2679279602743
  0
ARC
  8
0
  6
CONTINUOUS
 62
     7
 10
114.8696129851253
 20
172.661828044048
 40
1.000000000000001
 50
270.0000000000001
 51
0.0000000000000568
  0
LINE
  8
0
  6
CONTINUOUS
 62
     7
 10
94.06961298512529
 20
190.6618280440479
 11
96.0696129851253
 21
190.6618280440479
  0
LINE
  8
0
  6
CONTINUOUS
 62
     7
 10
69.40344488715908
 20
170.161828044048
 11
69.4034448871591
 21
179.1618280440479
  0
LINE
  8
0
  6
CONTINUOUS
 62
     7
 10
116.5849614909415
 20
177.0369577832518
 11
115.8696129851253
 21
178.204300449353
  0
ARC
  8
0
  6
CONTINUOUS
 62
     7
 10
117.4853991998392
 20
192.5366847488197
 40
3.500000000000008
 50
8.000000000000163
 51
94.00000000000013
  0
LINE
  8
0
  6
CONTINUOUS
 62
     7
 10
94.8696129851253
 20
190.6618280440479
 11
94.8696129851253
 21
191.1440373114762
  0
ARC
  8
0
  6
CONTINUOUS
 62
     7
 10
99.36961298512533
 20
171.6618280440479
 40
1.000000000000001
 50
270.0000000000001
 51
0.0000000000000568
  0
LINE
  8
0
  6
CONTINUOUS
 62
     7
 10
39.90274846612171
 20
170.161828044048
 11
39.01165332045892
 21
170.161828044048
  0
LINE
  8
0
  6
CONTINUOUS
 62
     7
 10
90.86961298512531
 20
177.4618280440479
 11
90.86961298512531
 21
172.1897540209783
  0
ARC
  8
0
  6
CONTINUOUS
 62
     7
 10
103.3696129851253
 20
174.7242221246546
 40
2.999999999999989
 50
156.5
 51
179.9999999999999
  0
LINE
  8
0
  6
CONTINUOUS
 62
     7
 10
115.8696129851253
 20
172.661828044048
 11
115.8696129851253
 21
185.6618280440479
  0
LINE
  8
0
  6
CONTINUOUS
 62
     7
 10
110.3696129851253
 20
174.661828044048
 11
110.3696129851253
 21
176.8077260777983
  0
LINE
  8
0
  6
CONTINUOUS
 62
     7
 10
100.61843276197
 20
175.9204693314304
 11
103.2428426503923
 21
181.9561988542116
  0
ARC
  8
0
  6
CONTINUOUS
 62
     7
 10
107.3696129851253
 20
180.161828044048
 40
4.500000000000005
 50
311.8103148957784
 51
156.5000000000003
  0
LINE
  8
0
  6
CONTINUOUS
 62
     7
 10
100.3696129851253
 20
174.7242221246546
 11
100.3696129851253
 21
171.6618280440479
  0
ARC
  8
0
  6
CONTINUOUS
 62
     7
 10
113.3696129851253
 20
174.661828044048
 40
2.999999999999989
 50
180.0
 51
270.0
  0
LINE
  8
0
  6
CONTINUOUS
 62
     7
 10
94.0696129851253
 20
172.161828044048
 11
90.86961298512531
 21
172.1897540209783
  0
LINE
  8
0
  6
CONTINUOUS
 62
     7
 10
39.01165332045892
 20
190.1618280440479
 11
39.90274846612171
 21
190.1618280440479
  0
ARC
  8
0
  6
CONTINUOUS
 62
     7
 10
102.9259879869509
 20
171.8266484248768
 40
1.0
 50
188.0
 51
277.9999999999998
  0
LINE
  8
0
  6
CONTINUOUS
 62
     7
 10
116.9978452041039
 20
175.8869813919841
 11
117.4240480846637
 21
172.8543903200562
  0
ARC
  8
0
  6
CONTINUOUS
 62
     7
 10
118.4143161534053
 20
172.9935634210162
 40
1.0
 50
187.9999999999998
 51
278.0
  0
LINE
  8
0
  6
CONTINUOUS
 62
     7
 10
94.06961298512529
 20
170.6618280440479
 11
94.0696129851253
 21
178.4618280440479
  0
LINE
  8
0
  6
CONTINUOUS
 62
     7
 10
121.0184479994943
 20
192.5462741621944
 11
123.8019100186957
 21
172.740912787363
  0
LINE
  8
0
  6
CONTINUOUS
 62
     7
 10
121.0184479994943
 20
192.5462741621944
 11
120.9513374404347
 21
193.0237906021799
  0
ARC
  8
0
  6
CONTINUOUS
 62
     7
 10
97.5696129851253
 20
191.1440373114762
 40
3.500000000000007
 50
94.0
 51
180.0
  0
LINE
  8
0
  6
CONTINUOUS
 62
     7
 10
94.06961298512529
 20
191.1440373114762
 11
94.06961298512529
 21
190.6618280440479
  0
LINE
  8
0
  6
CONTINUOUS
 62
     7
 10
54.05481499359956
 20
170.2065666509622
 11
54.13458627272549
 21
168.6364421459905
  0
ARC
  8
0
  6
CONTINUOUS
 62
     7
 10
114.0270409978792
 20
175.4694620891039
 40
3.000000000000003
 50
8.000000000000115
 51
31.5
  0
LINE
  8
0
  6
CONTINUOUS
 62
     7
 10
101.9357199182093
 20
171.6874753239167
 11
101.1643568465774
 21
177.1760087687716
  0
LINE
  8
0
  6
CONTINUOUS
 62
     7
 10
123.8019100186957
 20
172.740912787363
 11
121.8213738812125
 21
172.4625665854429
  0
ARC
  8
0
  6
CONTINUOUS
 62
     7
 10
54.63394119191029
 20
168.661828044048
 40
0.499999999999995
 50
182.9095312026708
 51
270.0000000000011
  0
ARC
  8
0
  6
CONTINUOUS
 62
     7
 10
104.1330438881431
 20
174.0159442138
 40
2.999999999999987
 50
278.0
 51
8.0
  0
ARC
  8
0
  6
CONTINUOUS
 62
     7
 10
110.8696129851253
 20
185.6618280440479
 40
4.99999999999999
 50
0.000000000000008
 51
90.0
  0
LINE
  8
0
  6
CONTINUOUS
 62
     7
 10
113.3696129851253
 20
171.661828044048
 11
114.8696129851253
 21
171.661828044048
  0
ARC
  8
0
  6
CONTINUOUS
 62
     7
 10
97.5696129851253
 20
191.1440373114762
 40
2.699999999999994
 50
94.0
 51
179.9999999999999
  0
LINE
  8
0
  6
CONTINUOUS
 62
     7
 10
117.2412515417347
 20
196.0281589247291
 11
97.32546532702085
 21
194.6355114873856
  0
ARC
  8
0
  6
CONTINUOUS
 62
     7
 10
54.63394119191033
 20
191.661828044048
 40
0.5000000000000004
 50
90.00000000005943
 51
177.0904687973289
  0
LINE
  8
0
  6
CONTINUOUS
 62
     7
 10
62.40970279009723
 20
191.7900224438873
 11
62.40607499854661
 21
191.8083145950481
  0
LINE
  8
0
  6
CONTINUOUS
 62
     7
 10
62.40510104005692
 20
168.5108296356014
 11
62.40972265957642
 21
168.5337221164679
  0
LINE
  8
0
  6
CONTINUOUS
 62
     7
 10
62.42114117368298
 20
168.6578140346926
 11
62.47628473803262
 21
178.9118280440479
  0
LINE
  8
0
  6
CONTINUOUS
 62
     7
 10
62.47628473804049
 20
181.4118280440479
 11
62.42114117368202
 21
191.6658420535771
  0
LINE
  8
0
  6
CONTINUOUS
 62
     7
 10
107.1038480943678
 20
174.4334635166802
 11
106.8051968106666
 21
176.5584778182785
  0
LINE
  8
0
  6
CONTINUOUS
 62
     7
 10
90.48743820293971
 20
170.161828044048
 11
90.48743820293971
 21
176.161828044048
  0
LINE
  8
0
  6
CONTINUOUS
 62
     7
 10
90.48743820293971
 20
184.161828044048
 11
90.48743820293971
 21
190.1618280440479
  0
LINE
  8
0
  6
CONTINUOUS
 62
     7
 10
97.38127050601616
 20
193.8374602471778
 11
117.29705672073
 21
195.2301076845212
  0
LINE
  8
0
  6
CONTINUOUS
 62
     7
 10
96.0696129851253
 20
170.661828044048
 11
99.36961298512533
 21
170.661828044048
  0
ARC
  8
0
  6
CONTINUOUS
 62
     7
 10
109.3092002453121
 20
180.2974571976391
 40
4.5
 50
106.4763112020962
 51
236.1896851042216
  0
LINE
  8
0
  6
CONTINUOUS
 62
     7
 10
121.8213738812125
 20
172.4625665854429
 11
118.5534892543653
 21
172.0032953522746
  0
LINE
  8
0
  6
CONTINUOUS
 62
     7
 10
120.1591229854414
 20
192.9124521214119
 11
120.2262335445011
 21
192.4349356814264
  0
LINE
  8
0
  6
CONTINUOUS
 62
     7
 10
38.51167235892683
 20
189.6661913117972
 11
38.42872903725385
 21
180.1618280440479
  0
LINE
  8
0
  6
CONTINUOUS
 62
     7
 10
38.42872903725385
 20
180.1618280440479
 11
38.51167235892682
 21
170.6574647762988
  0
LINE
  8
0
  6
CONTINUOUS
 62
     7
 10
62.40972265957642
 20
168.5337221164679
 11
62.42114176872137
 21
168.6578149430113
  0
ARC
  8
0
  6
CONTINUOUS
 62
     7
 10
39.01165332045892
 20
189.6618280440479
 40
0.5000000000000004
 50
89.99999999999966
 51
179.499999999989
  0
ARC
  8
0
  6
CONTINUOUS
 62
     7
 10
39.01165332045892
 20
170.661828044048
 40
0.5000000000000013
 50
180.4999999999985
 51
269.9999999999997
  0
ARC
  8
0
  6
CONTINUOUS
 62
     7
 10
79.84553103247706
 20
236.9558936668465
 40
0.15000000000001
 50
11.62291581171026
 51
59.20428775248418
  0
LINE
  8
0
  6
CONTINUOUS
 62
     7
 10
59.83061768533962
 20
209.5118447567179
 11
61.2012204902022
 21
210.150967340914
  0
POLYLINE
  8
0
  6
CONTINUOUS
 62
     7
 66
     1
  0
VERTEX
  8
0
  6
CONTINUOUS
 62
     7
 10
66.36113646287934
 20
247.7883477162075
  0
VERTEX
  8
0
  6
CONTINUOUS
 62
     7
 10
65.90837047204825
 20
247.6363636476074
  0
VERTEX
  8
0
  6
CONTINUOUS
 62
     7
 10
65.49276877474412
 20
247.4010490804212
  0
SEQEND
  8
0
  6
CONTINUOUS
 62
     7
  0
ARC
  8
0
  6
CONTINUOUS
 62
     7
 10
60.8254899937825
 20
231.3793533763958
 40
15.5
 50
81.62480181857711
 51
181.9102107463123
  0
ARC
  8
0
  6
CONTINUOUS
 62
     7
 10
73.55914711498413
 20
222.787923549646
 40
16.5
 50
65.1143864643837
 51
70.1611673701525
  0
ARC
  8
0
  6
CONTINUOUS
 62
     7
 10
60.8254899937825
 20
231.3793533763958
 40
18.49999999999999
 50
72.5079910416751
 51
172.1997498433852
  0
ARC
  8
0
  6
CONTINUOUS
 62
     7
 10
60.8254899937825
 20
231.3793533763958
 40
15.49999999999999
 50
181.9102107463124
 51
185.1027207559483
  0
ARC
  8
0
  6
CONTINUOUS
 62
     7
 10
44.39088208362413
 20
229.9118170601979
 40
1.000000000000001
 50
250.0000000000002
 51
270.0
  0
LINE
  8
0
  6
CONTINUOUS
 62
     7
 10
75.65998923093267
 20
245.7053084825401
 11
80.32456674998662
 21
239.7749161239138
  0
ARC
  8
0
  6
CONTINUOUS
 62
     7
 10
67.3459852089063
 20
228.9558936668465
 40
14.76725491672704
 50
340.2091923872744
 51
19.79080761272536
  0
ARC
  8
0
  6
CONTINUOUS
 62
     7
 10
63.52005185582435
 20
249.6820946929859
 40
3.000027117458828
 50
261.6258754107474
 51
304.9989264078296
  0
ARC
  8
0
  6
CONTINUOUS
 62
     7
 10
73.55914711498413
 20
222.787923549646
 40
17.5
 50
79.13479616835423
 51
123.2634984240621
  0
ARC
  8
0
  6
CONTINUOUS
 62
     7
 10
79.83759444138347
 20
240.1899665092996
 40
2.0
 50
215.0
 51
250.1611673701526
  0
LINE
  8
0
  6
CONTINUOUS
 62
     7
 10
94.0696129851253
 20
242.4558936668464
 11
94.0696129851253
 21
246.8729693836414
  0
ARC
  8
0
  6
CONTINUOUS
 62
     7
 10
66.56961298512532
 20
228.9558936668465
 40
17.5
 50
33.16535043128681
 51
38.18698400097128
  0
ARC
  8
0
  6
CONTINUOUS
 62
     7
 10
44.39088208362413
 20
229.9118170601979
 40
0.9999999999999939
 50
359.9999999987371
 51
5.102720755949065
  0
ARC
  8
0
  6
CONTINUOUS
 62
     7
 10
76.48088249946274
 20
238.0100607958767
 40
2.000000000000021
 50
35.00000000000006
 51
79.13479616835434
  0
ARC
  8
0
  6
CONTINUOUS
 62
     7
 10
61.17648532636738
 20
212.0137805959811
 40
1.500000000000001
 50
315.881641702756
 51
324.8500753284781
  0
LINE
  8
0
  6
CONTINUOUS
 62
     7
 10
94.0696129851253
 20
247.3729503451735
 11
94.0696129851253
 21
247.410077610945
  0
ARC
  8
0
  6
CONTINUOUS
 62
     7
 10
70.56961298512532
 20
246.4558936668465
 40
38.98909141526152
 50
217.0356126762447
 51
251.7621295587085
  0
LINE
  8
0
  6
CONTINUOUS
 62
     7
 10
57.63737856330903
 20
214.6135889739267
 11
57.335443888281
 21
213.4867534261553
  0
POLYLINE
  8
0
  6
CONTINUOUS
 62
     7
 66
     1
  0
VERTEX
  8
0
  6
CONTINUOUS
 62
     7
 10
67.3505368518773
 20
247.8612825242466
  0
VERTEX
  8
0
  6
CONTINUOUS
 62
     7
 10
66.79636664984922
 20
247.896377163209
  0
VERTEX
  8
0
  6
CONTINUOUS
 62
     7
 10
66.2481219336364
 20
247.8082752269251
  0
SEQEND
  8
0
  6
CONTINUOUS
 62
     7
  0
ARC
  8
0
  6
CONTINUOUS
 62
     7
 10
44.39088208362413
 20
229.9118170601979
 40
0.9999999999999939
 50
270.0
 51
359.9999999987371
  0
LINE
  8
0
  6
CONTINUOUS
 62
     7
 10
79.99245524480578
 20
236.9861141207078
 11
80.27774230762542
 21
236.190338391745
  0
ARC
  8
0
  6
CONTINUOUS
 62
     7
 10
64.50905821136571
 20
236.5845133759981
 40
0.9999999999999807
 50
123.263498424062
 51
144.9999999999993
  0
LINE
  8
0
  6
CONTINUOUS
 62
     7
 10
65.49276877474412
 20
247.4010490804212
 11
65.24075067097408
 21
247.2245841043961
  0
POLYLINE
  8
0
  6
CONTINUOUS
 62
     7
 66
     1
  0
VERTEX
  8
0
  6
CONTINUOUS
 62
     7
 10
81.21878071362322
 20
238.5293927587321
  0
VERTEX
  8
0
  6
CONTINUOUS
 62
     7
 10
81.22713655956775
 20
238.5161590441672
  0
VERTEX
  8
0
  6
CONTINUOUS
 62
     7
 10
81.23507431431953
 20
238.5026704041342
  0
VERTEX
  8
0
  6
CONTINUOUS
 62
     7
 10
81.24261477131286
 20
238.4888852950459
  0
VERTEX
  8
0
  6
CONTINUOUS
 62
     7
 10
81.24971854489459
 20
238.4748701559897
  0
VERTEX
  8
0
  6
CONTINUOUS
 62
     7
 10
81.25842583126966
 20
238.4560118721989
  0
VERTEX
  8
0
  6
CONTINUOUS
 62
     7
 10
81.26634930328977
 20
238.4367916579264
  0
VERTEX
  8
0
  6
CONTINUOUS
 62
     7
 10
81.27346949407654
 20
238.4172596106083
  0
VERTEX
  8
0
  6
CONTINUOUS
 62
     7
 10
81.27976693675164
 20
238.3974658276803
  0
VERTEX
  8
0
  6
CONTINUOUS
 62
     7
 10
81.28537977524012
 20
238.3768415618076
  0
VERTEX
  8
0
  6
CONTINUOUS
 62
     7
 10
81.29011040310058
 20
238.355977176389
  0
VERTEX
  8
0
  6
CONTINUOUS
 62
     7
 10
81.29394707075613
 20
238.3349300546049
  0
VERTEX
  8
0
  6
CONTINUOUS
 62
     7
 10
81.29687802862989
 20
238.3137575796355
  0
VERTEX
  8
0
  6
CONTINUOUS
 62
     7
 10
81.2988531897528
 20
238.2930820556394
  0
VERTEX
  8
0
  6
CONTINUOUS
 62
     7
 10
81.29996892731064
 20
238.2723244060069
  0
VERTEX
  8
0
  6
CONTINUOUS
 62
     7
 10
81.30022345373784
 20
238.2515383516626
  0
VERTEX
  8
0
  6
CONTINUOUS
 62
     7
 10
81.29961498146878
 20
238.2307776135314
  0
VERTEX
  8
0
  6
CONTINUOUS
 62
     7
 10
81.29808562911408
 20
238.2094597370045
  0
VERTEX
  8
0
  6
CONTINUOUS
 62
     7
 10
81.29564432226576
 20
238.1882072572348
  0
VERTEX
  8
0
  6
CONTINUOUS
 62
     7
 10
81.29229897249493
 20
238.1670782140239
  0
VERTEX
  8
0
  6
CONTINUOUS
 62
     7
 10
81.28805749137273
 20
238.1461306471732
  0
VERTEX
  8
0
  6
CONTINUOUS
 62
     7
 10
81.28307802970458
 20
238.1259662776538
  0
VERTEX
  8
0
  6
CONTINUOUS
 62
     7
 10
81.27726026540711
 20
238.1060088975041
  0
VERTEX
  8
0
  6
CONTINUOUS
 62
     7
 10
81.27062030575274
 20
238.086309803151
  0
VERTEX
  8
0
  6
CONTINUOUS
 62
     7
 10
81.26317425801395
 20
238.0669202910214
  0
VERTEX
  8
0
  6
CONTINUOUS
 62
     7
 10
81.25467465381658
 20
238.0473097567678
  0
VERTEX
  8
0
  6
CONTINUOUS
 62
     7
 10
81.24533603764803
 20
238.0280628381569
  0
VERTEX
  8
0
  6
CONTINUOUS
 62
     7
 10
81.2351851028741
 20
238.0092316898074
  0
VERTEX
  8
0
  6
CONTINUOUS
 62
     7
 10
81.22424854286062
 20
237.9908684663379
  0
VERTEX
  8
0
  6
CONTINUOUS
 62
     7
 10
81.21287373725507
 20
237.973487086489
  0
VERTEX
  8
0
  6
CONTINUOUS
 62
     7
 10
81.20077621890779
 20
237.9565786401959
  0
VERTEX
  8
0
  6
CONTINUOUS
 62
     7
 10
81.18798818871304
 20
237.940186208822
  0
VERTEX
  8
0
  6
CONTINUOUS
 62
     7
 10
81.17454184756502
 20
237.9243528737308
  0
VERTEX
  8
0
  6
CONTINUOUS
 62
     7
 10
81.16002790080266
 20
237.9086597182659
  0
VERTEX
  8
0
  6
CONTINUOUS
 62
     7
 10
81.14484247219298
 20
237.8935875524052
  0
VERTEX
  8
0
  6
CONTINUOUS
 62
     7
 10
81.12902803559771
 20
237.8791767557691
  0
VERTEX
  8
0
  6
CONTINUOUS
 62
     7
 10
81.11262706487865
 20
237.8654677079781
  0
VERTEX
  8
0
  6
CONTINUOUS
 62
     7
 10
81.09613764274937
 20
237.8528304544052
  0
VERTEX
  8
0
  6
CONTINUOUS
 62
     7
 10
81.07912274132524
 20
237.840878822601
  0
VERTEX
  8
0
  6
CONTINUOUS
 62
     7
 10
81.06162702035763
 20
237.8296428015953
  0
VERTEX
  8
0
  6
CONTINUOUS
 62
     7
 10
81.04369513959789
 20
237.819152380418
  0
VERTEX
  8
0
  6
CONTINUOUS
 62
     7
 10
81.02480213673752
 20
237.8091477169993
  0
VERTEX
  8
0
  6
CONTINUOUS
 62
     7
 10
81.00548104458636
 20
237.7999514097323
  0
VERTEX
  8
0
  6
CONTINUOUS
 62
     7
 10
80.98578531718996
 20
237.7915874958705
  0
VERTEX
  8
0
  6
CONTINUOUS
 62
     7
 10
80.96576840859383
 20
237.7840800126673
  0
VERTEX
  8
0
  6
CONTINUOUS
 62
     7
 10
80.94602529171952
 20
237.7776139993086
  0
VERTEX
  8
0
  6
CONTINUOUS
 62
     7
 10
80.92601333683832
 20
237.7719687743167
  0
VERTEX
  8
0
  6
CONTINUOUS
 62
     7
 10
80.90578459698486
 20
237.7671578446533
  0
VERTEX
  8
0
  6
CONTINUOUS
 62
     7
 10
80.8853911251938
 20
237.7631947172799
  0
VERTEX
  8
0
  6
CONTINUOUS
 62
     7
 10
80.86425174500114
 20
237.7600079893481
  0
VERTEX
  8
0
  6
CONTINUOUS
 62
     7
 10
80.84297601370785
 20
237.7577255797952
  0
VERTEX
  8
0
  6
CONTINUOUS
 62
     7
 10
80.82162230717147
 20
237.7563524763762
  0
VERTEX
  8
0
  6
CONTINUOUS
 62
     7
 10
80.80024900124955
 20
237.7558936668464
  0
SEQEND
  8
0
  6
CONTINUOUS
 62
     7
  0
ARC
  8
0
  6
CONTINUOUS
 62
     7
 10
79.84553103247706
 20
236.9558936668465
 40
0.1499999999999973
 50
59.20428775248413
 51
85.52298613259582
  0
LINE
  8
0
  6
CONTINUOUS
 62
     7
 10
44.04886194029846
 20
228.972124439412
 11
43.05422902429481
 21
229.3341412148587
  0
LINE
  8
0
  6
CONTINUOUS
 62
     7
 10
41.18448701433783
 20
225.6589137976215
 11
41.17291499091659
 21
225.65901478514
  0
POLYLINE
  8
0
  6
CONTINUOUS
 62
     7
 66
     1
  0
VERTEX
  8
0
  6
CONTINUOUS
 62
     7
 10
75.65998923093267
 20
245.7053084825401
  0
VERTEX
  8
0
  6
CONTINUOUS
 62
     7
 10
75.38216974698243
 20
246.0045750260216
  0
VERTEX
  8
0
  6
CONTINUOUS
 62
     7
 10
75.05933755761752
 20
246.2546201795772
  0
SEQEND
  8
0
  6
CONTINUOUS
 62
     7
  0
ARC
  8
0
  6
CONTINUOUS
 62
     7
 10
64.50905821136571
 20
236.5845133759981
 40
1.000000000000008
 50
180.0
 51
214.9999999999998
  0
ARC
  8
0
  6
CONTINUOUS
 62
     7
 10
43.42872903725385
 20
225.9773092790483
 40
4.989091415261551
 50
183.3842683924341
 51
217.0356126762447
  0
ARC
  8
0
  6
CONTINUOUS
 62
     7
 10
43.42872903725385
 20
225.9773092790483
 40
5.000000000000008
 50
180.0000000000001
 51
183.3757810544554
  0
LINE
  8
0
  6
CONTINUOUS
 62
     7
 10
38.43740499941969
 20
225.6828872191761
 11
38.44833822848183
 21
225.6827918063315
  0
ARC
  8
0
  6
CONTINUOUS
 62
     7
 10
43.42872903725385
 20
225.9773092790483
 40
4.999999999999999
 50
159.9999999999999
 51
180.0
  0
LINE
  8
0
  6
CONTINUOUS
 62
     7
 10
42.04488735767168
 20
233.4599504732603
 11
40.79138317182889
 21
233.3502830673168
  0
LINE
  8
0
  6
CONTINUOUS
 62
     7
 10
75.5050713292553
 20
247.4558936668464
 11
85.06961298512533
 21
247.4558936668464
  0
ARC
  8
0
  6
CONTINUOUS
 62
     7
 10
70.56961298512533
 20
246.4558936668464
 40
34.20000000000001
 50
248.1445494001401
 51
248.2097201735744
  0
ARC
  8
0
  6
CONTINUOUS
 62
     7
 10
61.17648532636738
 20
212.0137805959811
 40
1.500000000000009
 50
325.3307089921541
 51
328.749679011134
  0
ARC
  8
0
  6
CONTINUOUS
 62
     7
 10
73.55914711498413
 20
222.787923549646
 40
15.50000000000001
 50
69.3231174828824
 51
123.9498185975486
  0
POLYLINE
  8
0
  6
CONTINUOUS
 62
     7
 66
     1
  0
VERTEX
  8
0
  6
CONTINUOUS
 62
     7
 10
75.17096753642939
 20
246.2349368024568
  0
VERTEX
  8
0
  6
CONTINUOUS
 62
     7
 10
74.68591872406213
 20
246.5052362668208
  0
VERTEX
  8
0
  6
CONTINUOUS
 62
     7
 10
74.15316638294841
 20
246.6617953981546
  0
SEQEND
  8
0
  6
CONTINUOUS
 62
     7
  0
ARC
  8
0
  6
CONTINUOUS
 62
     7
 10
70.56961298512532
 20
246.4558936668465
 40
36.0109085847384
 50
215.2779951016368
 51
247.3126821318902
  0
ARC
  8
0
  6
CONTINUOUS
 62
     7
 10
66.56961298512532
 20
228.9558936668465
 40
15.50000000000001
 50
273.699071063165
 51
341.1809366310119
  0
LINE
  8
0
  6
CONTINUOUS
 62
     7
 10
79.03215659214615
 20
237.2895154368456
 11
79.85723990384365
 21
237.1054359763489
  0
ARC
  8
0
  6
CONTINUOUS
 62
     7
 10
64.50905821136571
 20
236.5845133759981
 40
1.000000000000001
 50
144.9999999999992
 51
180.0
  0
LINE
  8
0
  6
CONTINUOUS
 62
     7
 10
84.06961298512532
 20
247.4144410448403
 11
93.5696129851253
 21
247.4144410448403
  0
LINE
  8
0
  6
CONTINUOUS
 62
     7
 10
40.79138317182889
 20
233.3502830673168
 11
38.73026593332443
 21
227.6874099956764
  0
ARC
  8
0
  6
CONTINUOUS
 62
     7
 10
59.93797587210032
 20
212.8600041667299
 40
2.989091415261552
 50
295.0000000000001
 51
320.7692106150125
  0
ARC
  8
0
  6
CONTINUOUS
 62
     7
 10
57.78226743725239
 20
214.5747661171613
 40
0.1500000000000038
 50
68.14454940014143
 51
164.9999999999991
  0
ARC
  8
0
  6
CONTINUOUS
 62
     7
 10
64.50905821136571
 20
236.5845133759981
 40
1.000000000000015
 50
214.9999999999998
 51
286.5756555768309
  0
LINE
  8
0
  6
CONTINUOUS
 62
     7
 10
67.02453308784592
 20
248.8679773068941
 11
74.6407112756754
 21
247.5311750928653
  0
LINE
  8
0
  6
CONTINUOUS
 62
     7
 10
94.0696129851253
 20
218.6558936668465
 11
90.14408615811266
 21
218.6558936668465
  0
LINE
  8
0
  6
CONTINUOUS
 62
     7
 10
84.06961298512532
 20
247.4144410448403
 11
84.06961298512532
 21
247.4188044787357
  0
ARC
  8
0
  6
CONTINUOUS
 62
     7
 10
66.56961298512532
 20
228.9558936668465
 40
15.5
 50
18.81906336898787
 51
22.00000000000001
  0
ARC
  8
0
  6
CONTINUOUS
 62
     7
 10
66.56961298512532
 20
228.9558936668465
 40
15.5
 50
22.00000000000011
 51
27.82278446142425
  0
LINE
  8
0
  6
CONTINUOUS
 62
     7
 10
74.15316638294841
 20
246.6617953981546
 11
67.35053685187731
 21
247.8612825242466
  0
LINE
  8
0
  6
CONTINUOUS
 62
     7
 10
78.11918658804072
 20
239.1572136685788
 11
78.19929035280548
 21
239.0428136365975
  0
LINE
  8
0
  6
CONTINUOUS
 62
     7
 10
42.41339704408637
 20
229.0353163548969
 11
41.18448701433783
 21
225.6589137976215
  0
LINE
  8
0
  6
CONTINUOUS
 62
     7
 10
74.64071127567541
 20
247.5311750928653
 11
75.50507132925532
 21
247.4558936668464
  0
LINE
  8
0
  6
CONTINUOUS
 62
     7
 10
62.4101588884611
 20
211.1605224039952
 11
62.40295789056464
 21
211.1502037034745
  0
LINE
  8
0
  6
CONTINUOUS
 62
     7
 10
94.0696129851253
 20
247.3729503451735
 11
94.0696129851253
 21
246.8729693836414
  0
LINE
  8
0
  6
CONTINUOUS
 62
     7
 10
80.50247992931712
 20
237.7558936668464
 11
80.80024900124955
 21
237.7558936668464
  0
ARC
  8
0
  6
CONTINUOUS
 62
     7
 10
58.98999132897844
 20
211.3145737954972
 40
1.989091415261575
 50
251.7621295587089
 51
295.0000000000001
  0
LINE
  8
0
  6
CONTINUOUS
 62
     7
 10
110.8696129851253
 20
213.4558936668465
 11
96.0696129851253
 21
213.4558936668465
  0
LINE
  8
0
  6
CONTINUOUS
 62
     7
 10
97.32546532702086
 20
218.9558936668464
 11
94.06961298512529
 21
218.9558936668464
  0
LINE
  8
0
  6
CONTINUOUS
 62
     7
 10
121.0184479994943
 20
238.9558936668465
 11
120.9513374404347
 21
238.9558936668465
  0
ARC
  8
0
  6
CONTINUOUS
 62
     7
 10
89.56961298512532
 20
247.4558936668465
 40
4.499999999999997
 50
359.9999999999998
 51
180.4166809169172
  0
LINE
  8
0
  6
CONTINUOUS
 62
     7
 10
104.3819444446359
 20
216.9558936668465
 11
119.0379118620112
 21
216.9558936668465
  0
LINE
  8
0
  6
CONTINUOUS
 62
     7
 10
94.0696129851253
 20
215.4558936668465
 11
94.0696129851253
 21
218.9558936668464
  0
LINE
  8
0
  6
CONTINUOUS
 62
     7
 10
104.3819444446359
 20
240.1558936668465
 11
100.0778099494363
 21
240.1558936668465
  0
LINE
  8
0
  6
CONTINUOUS
 62
     7
 10
100.0778099494363
 20
240.9558936668464
 11
100.0778099494363
 21
240.1558936668465
  0
ARC
  8
0
  6
CONTINUOUS
 62
     7
 10
61.17648532636738
 20
212.0137805959811
 40
1.500000000000003
 50
328.749679011134
 51
74.7451536649765
  0
LINE
  8
0
  6
CONTINUOUS
 62
     7
 10
94.06961298512529
 20
238.9558936668465
 11
97.32546532702086
 21
238.9558936668465
  0
LINE
  8
0
  6
CONTINUOUS
 62
     7
 10
121.8213738812125
 20
216.9558936668464
 11
119.0379118620112
 21
216.9558936668465
  0
ARC
  8
0
  6
CONTINUOUS
 62
     7
 10
96.0696129851253
 20
215.4558936668465
 40
1.200000000000007
 50
180.0
 51
270.0
  0
LINE
  8
0
  6
CONTINUOUS
 62
     7
 10
94.86961298512531
 20
242.4558936668464
 11
94.86961298512531
 21
238.9558936668465
  0
LINE
  8
0
  6
CONTINUOUS
 62
     7
 10
110.8696129851253
 20
214.2558936668465
 11
115.8696129851253
 21
214.2558936668465
  0
LINE
  8
0
  6
CONTINUOUS
 62
     7
 10
96.0696129851253
 20
244.4558936668464
 11
115.8696129851253
 21
244.4558936668464
  0
LINE
  8
0
  6
CONTINUOUS
 62
     7
 10
100.0778099494363
 20
217.7558936668465
 11
100.0778099494363
 21
216.9558936668464
  0
POLYLINE
  8
0
  6
CONTINUOUS
 62
     7
 66
     1
  0
VERTEX
  8
0
  6
CONTINUOUS
 62
     7
 10
121.8213738812125
 20
216.9558936668464
  0
VERTEX
  8
0
  6
CONTINUOUS
 62
     7
 10
122.2077573140387
 20
216.99432310604
  0
VERTEX
  8
0
  6
CONTINUOUS
 62
     7
 10
122.5792922482277
 20
217.1081346018238
  0
VERTEX
  8
0
  6
CONTINUOUS
 62
     7
 10
122.9217008046178
 20
217.2929544422414
  0
VERTEX
  8
0
  6
CONTINUOUS
 62
     7
 10
123.2218244144119
 20
217.5416801044733
  0
VERTEX
  8
0
  6
CONTINUOUS
 62
     7
 10
123.4681294955968
 20
217.8447532008072
  0
VERTEX
  8
0
  6
CONTINUOUS
 62
     7
 10
123.6511506820321
 20
218.1905268021163
  0
VERTEX
  8
0
  6
CONTINUOUS
 62
     7
 10
123.7638545721626
 20
218.5657130228142
  0
VERTEX
  8
0
  6
CONTINUOUS
 62
     7
 10
123.8019100186957
 20
218.9558936668464
  0
SEQEND
  8
0
  6
CONTINUOUS
 62
     7
  0
LINE
  8
0
  6
CONTINUOUS
 62
     7
 10
94.0696129851253
 20
212.4558936668464
 11
84.06961298512532
 21
213.0558936668465
  0
POLYLINE
  8
0
  6
CONTINUOUS
 62
     7
 66
     1
  0
VERTEX
  8
0
  6
CONTINUOUS
 62
     7
 10
42.04488735767168
 20
233.4599504732603
  0
VERTEX
  8
0
  6
CONTINUOUS
 62
     7
 10
42.06541470803962
 20
233.4621759766204
  0
VERTEX
  8
0
  6
CONTINUOUS
 62
     7
 10
42.08585011914753
 20
233.4652497094752
  0
VERTEX
  8
0
  6
CONTINUOUS
 62
     7
 10
42.10614154493997
 20
233.4691627493587
  0
VERTEX
  8
0
  6
CONTINUOUS
 62
     7
 10
42.12623693936152
 20
233.4739061738053
  0
VERTEX
  8
0
  6
CONTINUOUS
 62
     7
 10
42.14668508979604
 20
233.479650412333
  0
VERTEX
  8
0
  6
CONTINUOUS
 62
     7
 10
42.16688908129594
 20
233.4862638961933
  0
VERTEX
  8
0
  6
CONTINUOUS
 62
     7
 10
42.18679467420159
 20
233.4937275946508
  0
VERTEX
  8
0
  6
CONTINUOUS
 62
     7
 10
42.20634762885338
 20
233.5020224769704
  0
VERTEX
  8
0
  6
CONTINUOUS
 62
     7
 10
42.22511075712229
 20
233.5109338207319
  0
VERTEX
  8
0
  6
CONTINUOUS
 62
     7
 10
42.24350343844685
 20
233.5206252070369
  0
VERTEX
  8
0
  6
CONTINUOUS
 62
     7
 10
42.26147863216782
 20
233.5310705933475
  0
VERTEX
  8
0
  6
CONTINUOUS
 62
     7
 10
42.27898929762597
 20
233.542243937126
  0
VERTEX
  8
0
  6
CONTINUOUS
 62
     7
 10
42.29650586642494
 20
233.5544938087289
  0
VERTEX
  8
0
  6
CONTINUOUS
 62
     7
 10
42.31349838238944
 20
233.5674930906711
  0
VERTEX
  8
0
  6
CONTINUOUS
 62
     7
 10
42.32992107945588
 20
233.5812052001614
  0
VERTEX
  8
0
  6
CONTINUOUS
 62
     7
 10
42.34572819156067
 20
233.5955935544089
  0
VERTEX
  8
0
  6
CONTINUOUS
 62
     7
 10
42.36048429303188
 20
233.6102136585582
  0
VERTEX
  8
0
  6
CONTINUOUS
 62
     7
 10
42.37463258908632
 20
233.6254472548974
  0
VERTEX
  8
0
  6
CONTINUOUS
 62
     7
 10
42.38813731079954
 20
233.6412541911464
  0
VERTEX
  8
0
  6
CONTINUOUS
 62
     7
 10
42.40096268924707
 20
233.6575943150246
  0
VERTEX
  8
0
  6
CONTINUOUS
 62
     7
 10
42.413437287628
 20
233.6749523058574
  0
VERTEX
  8
0
  6
CONTINUOUS
 62
     7
 10
42.42516927340886
 20
233.6928440199827
  0
VERTEX
  8
0
  6
CONTINUOUS
 62
     7
 10
42.43612757192791
 20
233.7112197820077
  0
VERTEX
  8
0
  6
CONTINUOUS
 62
     7
 10
42.44628110852347
 20
233.7300299165399
  0
VERTEX
  8
0
  6
CONTINUOUS
 62
     7
 10
42.45536588375275
 20
233.7487102902844
  0
VERTEX
  8
0
  6
CONTINUOUS
 62
     7
 10
42.46367406393042
 20
233.7677683690256
  0
VERTEX
  8
0
  6
CONTINUOUS
 62
     7
 10
42.4711851922769
 20
233.7871544256094
  0
VERTEX
  8
0
  6
CONTINUOUS
 62
     7
 10
42.47787881201248
 20
233.8068187328815
  0
VERTEX
  8
0
  6
CONTINUOUS
 62
     7
 10
42.48390452405692
 20
233.8273273599507
  0
VERTEX
  8
0
  6
CONTINUOUS
 62
     7
 10
42.48905286106078
 20
233.8480937993705
  0
VERTEX
  8
0
  6
CONTINUOUS
 62
     7
 10
42.49331094735238
 20
233.8690608951097
  0
VERTEX
  8
0
  6
CONTINUOUS
 62
     7
 10
42.49666590726003
 20
233.8901714911372
  0
SEQEND
  8
0
  6
CONTINUOUS
 62
     7
  0
POLYLINE
  8
0
  6
CONTINUOUS
 62
     7
 66
     1
  0
VERTEX
  8
0
  6
CONTINUOUS
 62
     7
 10
43.05422902429481
 20
229.3341412148587
  0
VERTEX
  8
0
  6
CONTINUOUS
 62
     7
 10
42.95928242228123
 20
229.3584756119186
  0
VERTEX
  8
0
  6
CONTINUOUS
 62
     7
 10
42.86141415099241
 20
229.3638195690433
  0
VERTEX
  8
0
  6
CONTINUOUS
 62
     7
 10
42.76438486972008
 20
229.3499677408051
  0
VERTEX
  8
0
  6
CONTINUOUS
 62
     7
 10
42.6719229989562
 20
229.3174523937485
  0
VERTEX
  8
0
  6
CONTINUOUS
 62
     7
 10
42.58758145313194
 20
229.2675229536621
  0
VERTEX
  8
0
  6
CONTINUOUS
 62
     7
 10
42.51460111730439
 20
229.2020979954866
  0
VERTEX
  8
0
  6
CONTINUOUS
 62
     7
 10
42.45578631379812
 20
229.1236915206817
  0
VERTEX
  8
0
  6
CONTINUOUS
 62
     7
 10
42.41339704408637
 20
229.0353163548969
  0
SEQEND
  8
0
  6
CONTINUOUS
 62
     7
  0
LINE
  8
0
  6
CONTINUOUS
 62
     7
 10
84.06961298512532
 20
213.0558936668465
 11
84.06961298512532
 21
214.1642538819114
  0
ARC
  8
0
  6
CONTINUOUS
 62
     7
 10
96.0696129851253
 20
215.4558936668465
 40
2.000000000000002
 50
180.0
 51
270.0
  0
LINE
  8
0
  6
CONTINUOUS
 62
     7
 10
110.8696129851253
 20
214.2558936668465
 11
96.06961298512532
 21
214.2558936668465
  0
LINE
  8
0
  6
CONTINUOUS
 62
     7
 10
121.0184479994943
 20
218.9558936668464
 11
120.9513374404347
 21
218.9558936668464
  0
LINE
  8
0
  6
CONTINUOUS
 62
     7
 10
94.0696129851253
 20
212.4558936668464
 11
94.0696129851253
 21
207.4558936668465
  0
LINE
  8
0
  6
CONTINUOUS
 62
     7
 10
94.0696129851253
 20
242.4558936668464
 11
94.0696129851253
 21
238.9558936668465
  0
LINE
  8
0
  6
CONTINUOUS
 62
     7
 10
115.8696129851253
 20
244.4558936668464
 11
115.8696129851253
 21
243.6558936668465
  0
POLYLINE
  8
0
  6
CONTINUOUS
 62
     7
 66
     1
  0
VERTEX
  8
0
  6
CONTINUOUS
 62
     7
 10
119.0379118620112
 20
217.7558936668464
  0
VERTEX
  8
0
  6
CONTINUOUS
 62
     7
 10
119.2697419217069
 20
217.7789513303626
  0
VERTEX
  8
0
  6
CONTINUOUS
 62
     7
 10
119.4926628822203
 20
217.8472382278329
  0
VERTEX
  8
0
  6
CONTINUOUS
 62
     7
 10
119.6981080160543
 20
217.9581301320834
  0
VERTEX
  8
0
  6
CONTINUOUS
 62
     7
 10
119.8781821819308
 20
218.1073655294226
  0
VERTEX
  8
0
  6
CONTINUOUS
 62
     7
 10
120.0259652306418
 20
218.2892093872229
  0
VERTEX
  8
0
  6
CONTINUOUS
 62
     7
 10
120.135777942503
 20
218.4966735480083
  0
VERTEX
  8
0
  6
CONTINUOUS
 62
     7
 10
120.2034002765813
 20
218.7217852804271
  0
VERTEX
  8
0
  6
CONTINUOUS
 62
     7
 10
120.2262335445011
 20
218.9558936668464
  0
SEQEND
  8
0
  6
CONTINUOUS
 62
     7
  0
LINE
  8
0
  6
CONTINUOUS
 62
     7
 10
104.3819444446359
 20
216.9558936668464
 11
100.0778099494363
 21
216.9558936668464
  0
LINE
  8
0
  6
CONTINUOUS
 62
     7
 10
62.40506462801578
 20
191.8129855441396
 11
62.26781050346877
 21
191.9997195909274
  0
LINE
  8
0
  6
CONTINUOUS
 62
     7
 10
62.40607499854661
 20
191.8083145950481
 11
62.40506148531014
 21
191.8129871004924
  0
LINE
  8
0
  6
CONTINUOUS
 62
     7
 10
104.3819444446359
 20
217.7558936668465
 11
119.0379118620112
 21
217.7558936668465
  0
POLYLINE
  8
0
  6
CONTINUOUS
 62
     7
 66
     1
  0
VERTEX
  8
0
  6
CONTINUOUS
 62
     7
 10
56.68013951013405
 20
213.2313836827113
  0
VERTEX
  8
0
  6
CONTINUOUS
 62
     7
 10
56.69940782170713
 20
213.2237936453387
  0
VERTEX
  8
0
  6
CONTINUOUS
 62
     7
 10
56.71897379775545
 20
213.2170076981657
  0
VERTEX
  8
0
  6
CONTINUOUS
 62
     7
 10
56.73894272299194
 20
213.2109995897787
  0
VERTEX
  8
0
  6
CONTINUOUS
 62
     7
 10
56.75914471757215
 20
213.2058290234245
  0
VERTEX
  8
0
  6
CONTINUOUS
 62
     7
 10
56.77999068311301
 20
213.2014211349202
  0
VERTEX
  8
0
  6
CONTINUOUS
 62
     7
 10
56.80100545311548
 20
213.1979050003173
  0
VERTEX
  8
0
  6
CONTINUOUS
 62
     7
 10
56.82230700449634
 20
213.1952719041474
  0
VERTEX
  8
0
  6
CONTINUOUS
 62
     7
 10
56.84370190360476
 20
213.1935550524646
  0
VERTEX
  8
0
  6
CONTINUOUS
 62
     7
 10
56.86439638252742
 20
213.1927708137498
  0
VERTEX
  8
0
  6
CONTINUOUS
 62
     7
 10
56.8851055870849
 20
213.1928438613151
  0
VERTEX
  8
0
  6
CONTINUOUS
 62
     7
 10
56.90593755442964
 20
213.1937842705337
  0
VERTEX
  8
0
  6
CONTINUOUS
 62
     7
 10
56.92671222226919
 20
213.1955921451411
  0
VERTEX
  8
0
  6
CONTINUOUS
 62
     7
 10
56.94784209834846
 20
213.1983328468974
  0
VERTEX
  8
0
  6
CONTINUOUS
 62
     7
 10
56.96883609140006
 20
213.2019708912882
  0
VERTEX
  8
0
  6
CONTINUOUS
 62
     7
 10
56.98980840823126
 20
213.2065371008571
  0
VERTEX
  8
0
  6
CONTINUOUS
 62
     7
 10
57.01056553688059
 20
213.2119987815232
  0
VERTEX
  8
0
  6
CONTINUOUS
 62
     7
 10
57.03035329074851
 20
213.2181087233
  0
VERTEX
  8
0
  6
CONTINUOUS
 62
     7
 10
57.0498711787996
 20
213.2250324968264
  0
VERTEX
  8
0
  6
CONTINUOUS
 62
     7
 10
57.06921781138352
 20
213.2328153669032
  0
VERTEX
  8
0
  6
CONTINUOUS
 62
     7
 10
57.08822324682478
 20
213.241397830712
  0
VERTEX
  8
0
  6
CONTINUOUS
 62
     7
 10
57.10725509446532
 20
213.250978096981
  0
VERTEX
  8
0
  6
CONTINUOUS
 62
     7
 10
57.125861706169
 20
213.261360135799
  0
VERTEX
  8
0
  6
CONTINUOUS
 62
     7
 10
57.14414064554425
 20
213.2726108304526
  0
VERTEX
  8
0
  6
CONTINUOUS
 62
     7
 10
57.16192013779222
 20
213.2846352810883
  0
VERTEX
  8
0
  6
CONTINUOUS
 62
     7
 10
57.17857070614378
 20
213.2969508688734
  0
VERTEX
  8
0
  6
CONTINUOUS
 62
     7
 10
57.19469723178
 20
213.3099451099865
  0
VERTEX
  8
0
  6
CONTINUOUS
 62
     7
 10
57.21037778616071
 20
213.3236933588375
  0
VERTEX
  8
0
  6
CONTINUOUS
 62
     7
 10
57.22547169849601
 20
213.3380832144582
  0
VERTEX
  8
0
  6
CONTINUOUS
 62
     7
 10
57.24026025774857
 20
213.3534233970828
  0
VERTEX
  8
0
  6
CONTINUOUS
 62
     7
 10
57.25438214948858
 20
213.3693794261517
  0
VERTEX
  8
0
  6
CONTINUOUS
 62
     7
 10
57.26790730127128
 20
213.3860467109553
  0
VERTEX
  8
0
  6
CONTINUOUS
 62
     7
 10
57.28070502753737
 20
213.403278841349
  0
VERTEX
  8
0
  6
CONTINUOUS
 62
     7
 10
57.29292352696596
 20
213.421311256668
  0
VERTEX
  8
0
  6
CONTINUOUS
 62
     7
 10
57.30434548758054
 20
213.4398584545162
  0
VERTEX
  8
0
  6
CONTINUOUS
 62
     7
 10
57.31502682094997
 20
213.4590338770328
  0
VERTEX
  8
0
  6
CONTINUOUS
 62
     7
 10
57.32485675323136
 20
213.4786593743246
  0
SEQEND
  8
0
  6
CONTINUOUS
 62
     7
  0
LINE
  8
0
  6
CONTINUOUS
 62
     7
 10
57.32485675323135
 20
213.4786593743246
 11
57.35595594156334
 21
213.5633054511726
  0
LINE
  8
0
  6
CONTINUOUS
 62
     7
 10
69.40344488715908
 20
190.1618280440479
 11
69.4034448871591
 21
181.161828044048
  0
ARC
  8
0
  6
CONTINUOUS
 62
     7
 10
71.56961298512532
 20
211.4558936668465
 40
4.000000000000004
 50
180.0
 51
270.0
  0
LINE
  8
0
  6
CONTINUOUS
 62
     7
 10
94.0696129851253
 20
207.4558936668465
 11
71.56961298512532
 21
207.4558936668465
  0
LINE
  8
0
  6
CONTINUOUS
 62
     7
 10
123.8019100186957
 20
238.9558936668464
 11
123.8019100186957
 21
218.9558936668464
  0
POLYLINE
  8
0
  6
CONTINUOUS
 62
     7
 66
     1
  0
VERTEX
  8
0
  6
CONTINUOUS
 62
     7
 10
119.0379118620112
 20
216.9558936668465
  0
VERTEX
  8
0
  6
CONTINUOUS
 62
     7
 10
119.4242952948374
 20
216.99432310604
  0
VERTEX
  8
0
  6
CONTINUOUS
 62
     7
 10
119.7958302290263
 20
217.1081346018239
  0
VERTEX
  8
0
  6
CONTINUOUS
 62
     7
 10
120.1382387854164
 20
217.2929544422414
  0
VERTEX
  8
0
  6
CONTINUOUS
 62
     7
 10
120.4383623952105
 20
217.5416801044734
  0
VERTEX
  8
0
  6
CONTINUOUS
 62
     7
 10
120.6846674763955
 20
217.8447532008072
  0
VERTEX
  8
0
  6
CONTINUOUS
 62
     7
 10
120.8676886628308
 20
218.1905268021163
  0
VERTEX
  8
0
  6
CONTINUOUS
 62
     7
 10
120.9803925529613
 20
218.5657130228142
  0
VERTEX
  8
0
  6
CONTINUOUS
 62
     7
 10
121.0184479994943
 20
218.9558936668464
  0
SEQEND
  8
0
  6
CONTINUOUS
 62
     7
  0
LINE
  8
0
  6
CONTINUOUS
 62
     7
 10
94.86961298512531
 20
215.4558936668465
 11
94.86961298512531
 21
218.9558936668464
  0
LINE
  8
0
  6
CONTINUOUS
 62
     7
 10
120.9513374404347
 20
218.9558936668464
 11
117.2412515417347
 21
218.9558936668464
  0
LINE
  8
0
  6
CONTINUOUS
 62
     7
 10
100.0778099494363
 20
240.9558936668464
 11
121.8213738812125
 21
240.9558936668464
  0
POLYLINE
  8
0
  6
CONTINUOUS
 62
     7
 66
     1
  0
VERTEX
  8
0
  6
CONTINUOUS
 62
     7
 10
123.8019100186957
 20
238.9558936668464
  0
VERTEX
  8
0
  6
CONTINUOUS
 62
     7
 10
123.7638545721626
 20
239.3460743108787
  0
VERTEX
  8
0
  6
CONTINUOUS
 62
     7
 10
123.6511506820322
 20
239.7212605315766
  0
VERTEX
  8
0
  6
CONTINUOUS
 62
     7
 10
123.4681294955968
 20
240.0670341328856
  0
VERTEX
  8
0
  6
CONTINUOUS
 62
     7
 10
123.2218244144119
 20
240.3701072292195
  0
VERTEX
  8
0
  6
CONTINUOUS
 62
     7
 10
122.9217008046178
 20
240.6188328914515
  0
VERTEX
  8
0
  6
CONTINUOUS
 62
     7
 10
122.5792922482277
 20
240.803652731869
  0
VERTEX
  8
0
  6
CONTINUOUS
 62
     7
 10
122.2077573140387
 20
240.9174642276529
  0
VERTEX
  8
0
  6
CONTINUOUS
 62
     7
 10
121.8213738812125
 20
240.9558936668464
  0
SEQEND
  8
0
  6
CONTINUOUS
 62
     7
  0
LINE
  8
0
  6
CONTINUOUS
 62
     7
 10
115.8696129851253
 20
214.2558936668465
 11
115.8696129851253
 21
213.4558936668465
  0
LINE
  8
0
  6
CONTINUOUS
 62
     7
 10
115.8696129851253
 20
213.4558936668465
 11
110.8696129851253
 21
213.4558936668465
  0
ARC
  8
0
  6
CONTINUOUS
 62
     7
 10
96.0696129851253
 20
242.4558936668464
 40
1.199999999999993
 50
89.9999999999999
 51
180.0
  0
ARC
  8
0
  6
CONTINUOUS
 62
     7
 10
70.56961298512532
 20
246.4558936668464
 40
35.0
 50
265.0828996644711
 51
307.4121584672985
  0
LINE
  8
0
  6
CONTINUOUS
 62
     7
 10
94.06961298512529
 20
218.9558936668464
 11
94.06961298512529
 21
238.9558936668465
  0
LINE
  8
0
  6
CONTINUOUS
 62
     7
 10
117.2412515417347
 20
238.9558936668465
 11
97.32546532702085
 21
238.9558936668465
  0
ARC
  8
0
  6
CONTINUOUS
 62
     7
 10
96.0696129851253
 20
242.4558936668464
 40
2.000000000000002
 50
90.0
 51
180.0
  0
ARC
  8
0
  6
CONTINUOUS
 62
     7
 10
70.56961298512532
 20
246.4558936668464
 40
34.19999999999997
 50
248.2097201735745
 51
254.7451536649766
  0
LINE
  8
0
  6
CONTINUOUS
 62
     7
 10
66.38608645501942
 20
249.0238926731662
 11
67.02453308542937
 21
248.8679773073183
  0
LINE
  8
0
  6
CONTINUOUS
 62
     7
 10
117.2412515417347
 20
238.9558936668465
 11
120.9513374404347
 21
238.9558936668465
  0
LINE
  8
0
  6
CONTINUOUS
 62
     7
 10
117.2412515417347
 20
218.9558936668464
 11
97.32546532702085
 21
218.9558936668464
  0
LINE
  8
0
  6
CONTINUOUS
 62
     7
 10
94.0696129851253
 20
247.4558936668465
 11
94.0696129851253
 21
247.410077610945
  0
POLYLINE
  8
0
  6
CONTINUOUS
 62
     7
 66
     1
  0
VERTEX
  8
0
  6
CONTINUOUS
 62
     7
 10
120.2262335445011
 20
238.9558936668465
  0
VERTEX
  8
0
  6
CONTINUOUS
 62
     7
 10
120.2034002765812
 20
239.1900020532658
  0
VERTEX
  8
0
  6
CONTINUOUS
 62
     7
 10
120.135777942503
 20
239.4151137856846
  0
VERTEX
  8
0
  6
CONTINUOUS
 62
     7
 10
120.0259652306417
 20
239.62257794647
  0
VERTEX
  8
0
  6
CONTINUOUS
 62
     7
 10
119.8781821819308
 20
239.8044218042703
  0
VERTEX
  8
0
  6
CONTINUOUS
 62
     7
 10
119.6981080160543
 20
239.9536572016095
  0
VERTEX
  8
0
  6
CONTINUOUS
 62
     7
 10
119.4926628822203
 20
240.06454910586
  0
VERTEX
  8
0
  6
CONTINUOUS
 62
     7
 10
119.2697419217069
 20
240.1328360033303
  0
VERTEX
  8
0
  6
CONTINUOUS
 62
     7
 10
119.0379118620112
 20
240.1558936668465
  0
SEQEND
  8
0
  6
CONTINUOUS
 62
     7
  0
LINE
  8
0
  6
CONTINUOUS
 62
     7
 10
104.3819444446359
 20
240.1558936668465
 11
119.0379118620112
 21
240.1558936668465
  0
LINE
  8
0
  6
CONTINUOUS
 62
     7
 10
110.8696129851253
 20
243.6558936668465
 11
96.06961298512532
 21
243.6558936668465
  0
POLYLINE
  8
0
  6
CONTINUOUS
 62
     7
 66
     1
  0
VERTEX
  8
0
  6
CONTINUOUS
 62
     7
 10
121.0184479994943
 20
238.9558936668465
  0
VERTEX
  8
0
  6
CONTINUOUS
 62
     7
 10
120.9803925529613
 20
239.3460743108787
  0
VERTEX
  8
0
  6
CONTINUOUS
 62
     7
 10
120.8676886628308
 20
239.7212605315767
  0
VERTEX
  8
0
  6
CONTINUOUS
 62
     7
 10
120.6846674763955
 20
240.0670341328857
  0
VERTEX
  8
0
  6
CONTINUOUS
 62
     7
 10
120.4383623952105
 20
240.3701072292196
  0
VERTEX
  8
0
  6
CONTINUOUS
 62
     7
 10
120.1382387854164
 20
240.6188328914516
  0
VERTEX
  8
0
  6
CONTINUOUS
 62
     7
 10
119.7958302290263
 20
240.8036527318691
  0
VERTEX
  8
0
  6
CONTINUOUS
 62
     7
 10
119.4242952948373
 20
240.9174642276529
  0
VERTEX
  8
0
  6
CONTINUOUS
 62
     7
 10
119.0379118620112
 20
240.9558936668465
  0
SEQEND
  8
0
  6
CONTINUOUS
 62
     7
  0
LINE
  8
0
  6
CONTINUOUS
 62
     7
 10
115.8696129851253
 20
243.6558936668465
 11
110.8696129851253
 21
243.6558936668465
  0
LINE
  8
0
  6
CONTINUOUS
 62
     7
 10
100.0778099494363
 20
217.7558936668465
 11
104.3819444446359
 21
217.7558936668465
  0
TEXT
  8
0
  6
CONTINUOUS
 62
     7
 10
72.104979101355
 20
155.7521837331823
 40
3.0
  1
GTFT-TM
  0
ENDSEC
  0
EOF
