  0
SECTION
  2
HEADER
  9
$ACADVER
  1
AC1004
  9
$INSBASE
 10
0.0
 20
0.0
  9
$EXTMIN
 10
39.76038078106224
 20
167.0301061994909
  9
$EXTMAX
 10
180.2161196179834
 20
262.7710840980114
  9
$LIMMIN
 10
0.0
 20
0.0
  9
$LIMMAX
 10
12.0
 20
9.0
  9
$ORTHOMODE
 70
     0
  9
$REGENMODE
 70
     1
  9
$FILLMODE
 70
     1
  9
$QTEXTMODE
 70
     0
  9
$DRAGMODE
 70
     2
  9
$LTSCALE
 40
1.0
  9
$OSMODE
 70
    37
  9
$ATTMODE
 70
     1
  9
$TEXTSIZE
 40
0.2
  9
$TRACEWID
 40
0.05
  9
$TEXTSTYLE
  7
STANDARD
  9
$CLAYER
  8
0
  9
$CELTYPE
  6
BYLAYER
  9
$CECOLOR
 62
   256
  9
$DIMSCALE
 40
1.0
  9
$DIMASZ
 40
3.0
  9
$DIMEXO
 40
0.0625
  9
$DIMDLI
 40
0.38
  9
$DIMRND
 40
0.0
  9
$DIMDLE
 40
0.0
  9
$DIMEXE
 40
1.5
  9
$DIMTP
 40
0.0
  9
$DIMTM
 40
0.0
  9
$DIMTXT
 40
3.0
  9
$DIMCEN
 40
0.09
  9
$DIMTSZ
 40
0.0
  9
$DIMTOL
 70
     0
  9
$DIMLIM
 70
     0
  9
$DIMTIH
 70
     1
  9
$DIMTOH
 70
     1
  9
$DIMSE1
 70
     0
  9
$DIMSE2
 70
     0
  9
$DIMTAD
 70
     1
  9
$DIMZIN
 70
     0
  9
$DIMBLK
  1

  9
$DIMASO
 70
     1
  9
$DIMSHO
 70
     1
  9
$DIMPOST
  1

  9
$DIMAPOST
  1

  9
$DIMALT
 70
     0
  9
$DIMALTD
 70
     2
  9
$DIMALTF
 40
25.4
  9
$DIMLFAC
 40
1.0
  9
$DIMTOFL
 70
     0
  9
$DIMTVP
 40
0.0
  9
$DIMTIX
 70
     0
  9
$DIMSOXD
 70
     0
  9
$DIMSAH
 70
     0
  9
$DIMBLK1
  1

  9
$DIMBLK2
  1

  9
$LUNITS
 70
     2
  9
$LUPREC
 70
     4
  9
$SKETCHINC
 40
0.1
  9
$FILLETRAD
 40
0.5
  9
$AUNITS
 70
     0
  9
$AUPREC
 70
     0
  9
$MENU
  1
.
  9
$ELEVATION
 40
0.0
  9
$THICKNESS
 40
0.0
  9
$LIMCHECK
 70
     0
  9
$CHAMFERA
 40
0.0
  9
$CHAMFERB
 40
0.0
  9
$SKPOLY
 70
     0
  9
$TDCREATE
 40
2459884.71481316
  9
$TDUPDATE
 40
2459884.714813437
  9
$TDINDWG
 40
0.0000000116
  9
$TDUSRTIMER
 40
0.0000000116
  9
$USRTIMER
 70
     1
  9
$ANGBASE
 50
0.0
  9
$ANGDIR
 70
     0
  9
$PDMODE
 70
     0
  9
$PDSIZE
 40
0.0
  9
$PLINEWID
 40
0.0
  9
$COORDS
 70
     1
  9
$SPLFRAME
 70
     0
  9
$SPLINETYPE
 70
     6
  9
$SPLINESEGS
 70
     8
  9
$ATTDIA
 70
     0
  9
$ATTREQ
 70
     1
  9
$SURFTAB1
 70
     6
  9
$SURFTAB2
 70
     6
  9
$SURFTYPE
 70
     6
  9
$SURFU
 70
     6
  9
$SURFV
 70
     6
  9
$UCSNAME
  2

  9
$UCSORG
 10
0.0
 20
0.0
 30
0.0
  9
$UCSXDIR
 10
1.0
 20
0.0
 30
0.0
  9
$UCSYDIR
 10
0.0
 20
1.0
 30
0.0
  9
$USERI1
 70
     0
  9
$USERI2
 70
     0
  9
$USERI3
 70
     0
  9
$USERI4
 70
     0
  9
$USERI5
 70
     0
  9
$USERR1
 40
0.0
  9
$USERR2
 40
0.0
  9
$USERR3
 40
0.0
  9
$USERR4
 40
0.0
  9
$USERR5
 40
0.0
  9
$WORLDVIEW
 70
     1
  0
ENDSEC
  0
SECTION
  2
TABLES
  0
TABLE
  2
LTYPE
 70
     1
  0
LTYPE
  2
CONTINUOUS
 70
     0
  3
Solid line
 72
    65
 73
     0
 40
0.0
  0
ENDTAB
  0
TABLE
  2
LAYER
 70
     1
  0
LAYER
  2
0
 70
     0
 62
     7
  6
CONTINUOUS
  0
ENDTAB
  0
TABLE
  2
STYLE
 70
     2
  0
STYLE
  2
STANDARD
 70
     0
 40
0.0
 41
1.0
 50
0.0
 71
     0
 42
0.2
  3
txt
  4

  0
STYLE
  2
ＭＳ_ゴシック
 70
     0
 40
0.0
 41
1.0
 50
0.0
 71
     0
 42
0.2
  3
ＭＳ ゴシック.shx
  4

  0
ENDTAB
  0
TABLE
  2
VIEW
 70
     0
  0
ENDTAB
  0
ENDSEC
  0
SECTION
  2
BLOCKS
  0
BLOCK
  8
0
  2
D_FRAME_VIEW_16889
 70
     0
 10
0.0
 20
0.0
  0
ENDBLK
  8
0
  0
BLOCK
  8
0
  2
D_FRAME_VIEW_18950
 70
     0
 10
0.0
 20
0.0
  0
ENDBLK
  8
0
  0
ENDSEC
  0
SECTION
  2
ENTITIES
  0
INSERT
  8
0
  6
CONTINUOUS
 62
     7
  2
D_FRAME_VIEW_16889
 10
0.0
 20
0.0
 30
0.0
  0
INSERT
  8
0
  6
CONTINUOUS
 62
     7
  2
D_FRAME_VIEW_18950
 10
0.0
 20
0.0
 30
0.0
  0
LINE
  8
0
  6
CONTINUOUS
 62
     7
 10
117.2012647289337
 20
225.0710840980114
 11
97.40126472893371
 21
225.0710840980114
  0
LINE
  8
0
  6
CONTINUOUS
 62
     7
 10
153.1457813777641
 20
246.4016335568648
 11
154.4634331453935
 21
246.4844168370703
  0
POLYLINE
  8
0
  6
CONTINUOUS
 62
     7
 66
     1
  0
VERTEX
  8
0
  6
CONTINUOUS
 62
     7
 10
82.55043245743163
 20
249.344583189897
  0
VERTEX
  8
0
  6
CONTINUOUS
 62
     7
 10
82.55878830337615
 20
249.3313494753322
  0
VERTEX
  8
0
  6
CONTINUOUS
 62
     7
 10
82.56672605812793
 20
249.3178608352992
  0
VERTEX
  8
0
  6
CONTINUOUS
 62
     7
 10
82.57426651512125
 20
249.3040757262109
  0
VERTEX
  8
0
  6
CONTINUOUS
 62
     7
 10
82.58137028870298
 20
249.2900605871547
  0
VERTEX
  8
0
  6
CONTINUOUS
 62
     7
 10
82.59007757507807
 20
249.2712023033638
  0
VERTEX
  8
0
  6
CONTINUOUS
 62
     7
 10
82.59800104709818
 20
249.2519820890913
  0
VERTEX
  8
0
  6
CONTINUOUS
 62
     7
 10
82.60512123788494
 20
249.2324500417732
  0
VERTEX
  8
0
  6
CONTINUOUS
 62
     7
 10
82.61141868056005
 20
249.2126562588452
  0
VERTEX
  8
0
  6
CONTINUOUS
 62
     7
 10
82.61703151904852
 20
249.1920319929725
  0
VERTEX
  8
0
  6
CONTINUOUS
 62
     7
 10
82.62176214690898
 20
249.1711676075539
  0
VERTEX
  8
0
  6
CONTINUOUS
 62
     7
 10
82.62559881456454
 20
249.1501204857698
  0
VERTEX
  8
0
  6
CONTINUOUS
 62
     7
 10
82.6285297724383
 20
249.1289480108005
  0
VERTEX
  8
0
  6
CONTINUOUS
 62
     7
 10
82.63050493356121
 20
249.1082724868043
  0
VERTEX
  8
0
  6
CONTINUOUS
 62
     7
 10
82.63162067111905
 20
249.0875148371718
  0
VERTEX
  8
0
  6
CONTINUOUS
 62
     7
 10
82.63187519754625
 20
249.0667287828276
  0
VERTEX
  8
0
  6
CONTINUOUS
 62
     7
 10
82.63126672527717
 20
249.0459680446963
  0
VERTEX
  8
0
  6
CONTINUOUS
 62
     7
 10
82.6297373729225
 20
249.0246501681695
  0
VERTEX
  8
0
  6
CONTINUOUS
 62
     7
 10
82.62729606607417
 20
249.0033976883998
  0
VERTEX
  8
0
  6
CONTINUOUS
 62
     7
 10
82.62395071630334
 20
248.9822686451888
  0
VERTEX
  8
0
  6
CONTINUOUS
 62
     7
 10
82.61970923518113
 20
248.9613210783381
  0
VERTEX
  8
0
  6
CONTINUOUS
 62
     7
 10
82.61472977351299
 20
248.9411567088187
  0
VERTEX
  8
0
  6
CONTINUOUS
 62
     7
 10
82.6089120092155
 20
248.921199328669
  0
VERTEX
  8
0
  6
CONTINUOUS
 62
     7
 10
82.60227204956115
 20
248.901500234316
  0
VERTEX
  8
0
  6
CONTINUOUS
 62
     7
 10
82.59482600182236
 20
248.8821107221864
  0
VERTEX
  8
0
  6
CONTINUOUS
 62
     7
 10
82.586326397625
 20
248.8625001879327
  0
VERTEX
  8
0
  6
CONTINUOUS
 62
     7
 10
82.57698778145644
 20
248.8432532693218
  0
VERTEX
  8
0
  6
CONTINUOUS
 62
     7
 10
82.5668368466825
 20
248.8244221209723
  0
VERTEX
  8
0
  6
CONTINUOUS
 62
     7
 10
82.55590028666902
 20
248.8060588975029
  0
VERTEX
  8
0
  6
CONTINUOUS
 62
     7
 10
82.54452548106347
 20
248.7886775176539
  0
VERTEX
  8
0
  6
CONTINUOUS
 62
     7
 10
82.5324279627162
 20
248.7717690713608
  0
VERTEX
  8
0
  6
CONTINUOUS
 62
     7
 10
82.51963993252146
 20
248.7553766399869
  0
VERTEX
  8
0
  6
CONTINUOUS
 62
     7
 10
82.50619359137343
 20
248.7395433048957
  0
VERTEX
  8
0
  6
CONTINUOUS
 62
     7
 10
82.49167964461107
 20
248.7238501494309
  0
VERTEX
  8
0
  6
CONTINUOUS
 62
     7
 10
82.47649421600138
 20
248.7087779835701
  0
VERTEX
  8
0
  6
CONTINUOUS
 62
     7
 10
82.46067977940612
 20
248.694367186934
  0
VERTEX
  8
0
  6
CONTINUOUS
 62
     7
 10
82.44427880868707
 20
248.680658139143
  0
VERTEX
  8
0
  6
CONTINUOUS
 62
     7
 10
82.42778938655778
 20
248.6680208855701
  0
VERTEX
  8
0
  6
CONTINUOUS
 62
     7
 10
82.41077448513364
 20
248.656069253766
  0
VERTEX
  8
0
  6
CONTINUOUS
 62
     7
 10
82.39327876416604
 20
248.6448332327602
  0
VERTEX
  8
0
  6
CONTINUOUS
 62
     7
 10
82.37534688340628
 20
248.6343428115829
  0
VERTEX
  8
0
  6
CONTINUOUS
 62
     7
 10
82.35645388054593
 20
248.6243381481642
  0
VERTEX
  8
0
  6
CONTINUOUS
 62
     7
 10
82.33713278839477
 20
248.6151418408973
  0
VERTEX
  8
0
  6
CONTINUOUS
 62
     7
 10
82.31743706099836
 20
248.6067779270355
  0
VERTEX
  8
0
  6
CONTINUOUS
 62
     7
 10
82.29742015240224
 20
248.5992704438322
  0
VERTEX
  8
0
  6
CONTINUOUS
 62
     7
 10
82.27767703552793
 20
248.5928044304735
  0
VERTEX
  8
0
  6
CONTINUOUS
 62
     7
 10
82.25766508064673
 20
248.5871592054817
  0
VERTEX
  8
0
  6
CONTINUOUS
 62
     7
 10
82.23743634079327
 20
248.5823482758182
  0
VERTEX
  8
0
  6
CONTINUOUS
 62
     7
 10
82.21704286900219
 20
248.5783851484448
  0
VERTEX
  8
0
  6
CONTINUOUS
 62
     7
 10
82.19590348880956
 20
248.5751984205131
  0
VERTEX
  8
0
  6
CONTINUOUS
 62
     7
 10
82.17462775751626
 20
248.5729160109601
  0
VERTEX
  8
0
  6
CONTINUOUS
 62
     7
 10
82.15327405097987
 20
248.5715429075411
  0
VERTEX
  8
0
  6
CONTINUOUS
 62
     7
 10
82.13190074505796
 20
248.5710840980114
  0
SEQEND
  8
0
  6
CONTINUOUS
 62
     7
  0
LINE
  8
0
  6
CONTINUOUS
 62
     7
 10
95.4012647289337
 20
218.2710840980114
 11
72.90126472893373
 21
218.2710840980114
  0
LINE
  8
0
  6
CONTINUOUS
 62
     7
 10
141.3572832888152
 20
246.8345100205464
 11
141.3853116841967
 21
246.8345100205464
  0
ARC
  8
0
  6
CONTINUOUS
 62
     7
 10
97.40126472893371
 20
253.2710840980114
 40
1.199999999999993
 50
89.9999999999999
 51
180.0
  0
ARC
  8
0
  6
CONTINUOUS
 62
     7
 10
155.223332661371
 20
242.2152376718761
 40
15.61821903347936
 50
354.8276347221608
 51
66.98685112270988
  0
POLYLINE
  8
0
  6
CONTINUOUS
 62
     7
 66
     1
  0
VERTEX
  8
0
  6
CONTINUOUS
 62
     7
 10
122.3500997433027
 20
249.7710840980114
  0
VERTEX
  8
0
  6
CONTINUOUS
 62
     7
 10
122.3120442967697
 20
250.1612647420437
  0
VERTEX
  8
0
  6
CONTINUOUS
 62
     7
 10
122.1993404066392
 20
250.5364509627416
  0
VERTEX
  8
0
  6
CONTINUOUS
 62
     7
 10
122.0163192202039
 20
250.8822245640506
  0
VERTEX
  8
0
  6
CONTINUOUS
 62
     7
 10
121.770014139019
 20
251.1852976603845
  0
VERTEX
  8
0
  6
CONTINUOUS
 62
     7
 10
121.4698905292249
 20
251.4340233226165
  0
VERTEX
  8
0
  6
CONTINUOUS
 62
     7
 10
121.1274819728348
 20
251.618843163034
  0
VERTEX
  8
0
  6
CONTINUOUS
 62
     7
 10
120.7559470386458
 20
251.7326546588179
  0
VERTEX
  8
0
  6
CONTINUOUS
 62
     7
 10
120.3695636058196
 20
251.7710840980114
  0
SEQEND
  8
0
  6
CONTINUOUS
 62
     7
  0
LINE
  8
0
  6
CONTINUOUS
 62
     7
 10
153.6199763850816
 20
222.1140053716601
 11
153.5644163831601
 21
222.0204059070759
  0
LINE
  8
0
  6
CONTINUOUS
 62
     7
 10
101.4094616932447
 20
228.5710840980114
 11
120.3695638979506
 21
228.5710840980114
  0
POLYLINE
  8
0
  6
CONTINUOUS
 62
     7
 66
     1
  0
VERTEX
  8
0
  6
CONTINUOUS
 62
     7
 10
121.5578852883094
 20
249.7710840980114
  0
VERTEX
  8
0
  6
CONTINUOUS
 62
     7
 10
121.5350520203896
 20
250.0051924844308
  0
VERTEX
  8
0
  6
CONTINUOUS
 62
     7
 10
121.4674296863113
 20
250.2303042168495
  0
VERTEX
  8
0
  6
CONTINUOUS
 62
     7
 10
121.3576169744501
 20
250.4377683776349
  0
VERTEX
  8
0
  6
CONTINUOUS
 62
     7
 10
121.2098339257392
 20
250.6196122354353
  0
VERTEX
  8
0
  6
CONTINUOUS
 62
     7
 10
121.0297597598627
 20
250.7688476327745
  0
VERTEX
  8
0
  6
CONTINUOUS
 62
     7
 10
120.8243146260287
 20
250.8797395370249
  0
VERTEX
  8
0
  6
CONTINUOUS
 62
     7
 10
120.6013936655153
 20
250.9480264344953
  0
VERTEX
  8
0
  6
CONTINUOUS
 62
     7
 10
120.3695636058196
 20
250.9710840980114
  0
SEQEND
  8
0
  6
CONTINUOUS
 62
     7
  0
LINE
  8
0
  6
CONTINUOUS
 62
     7
 10
128.1214918567124
 20
262.7710840980114
 11
127.7457244841202
 21
262.7710840980114
  0
ARC
  8
0
  6
CONTINUOUS
 62
     7
 10
62.50813707017578
 20
222.828971027146
 40
1.499999999999997
 50
328.749679011134
 51
74.7451536649765
  0
LINE
  8
0
  6
CONTINUOUS
 62
     7
 10
96.20126472893372
 20
226.2710840980114
 11
96.20126472893372
 21
229.7710840980114
  0
LINE
  8
0
  6
CONTINUOUS
 62
     7
 10
123.1530257875849
 20
227.7710840980114
 11
101.4094616932447
 21
227.7710840980114
  0
LINE
  8
0
  6
CONTINUOUS
 62
     7
 10
95.40126472893371
 20
229.4710840980114
 11
91.47573790192106
 21
229.4710840980114
  0
LINE
  8
0
  6
CONTINUOUS
 62
     7
 10
95.40126472893373
 20
226.2710840980114
 11
95.40126472893373
 21
229.7710840980114
  0
LINE
  8
0
  6
CONTINUOUS
 62
     7
 10
117.2012647289337
 20
224.2710840980114
 11
97.40126472893371
 21
224.2710840980114
  0
LINE
  8
0
  6
CONTINUOUS
 62
     7
 10
95.40126472893371
 20
258.1881407763384
 11
95.40126472893373
 21
258.2252680421099
  0
ARC
  8
0
  6
CONTINUOUS
 62
     7
 10
67.90126472893374
 20
239.7710840980114
 40
17.50000000000001
 50
33.16535043128681
 51
38.18698400097128
  0
LINE
  8
0
  6
CONTINUOUS
 62
     7
 10
122.3500997433027
 20
229.7710840980114
 11
122.2829891842431
 21
229.7710840980114
  0
ARC
  8
0
  6
CONTINUOUS
 62
     7
 10
97.40126472893371
 20
253.2710840980114
 40
2.000000000000002
 50
90.0
 51
180.0
  0
LINE
  8
0
  6
CONTINUOUS
 62
     7
 10
101.4094616932447
 20
251.7710840980114
 11
122.4196862937828
 21
251.7710840980114
  0
LINE
  8
0
  6
CONTINUOUS
 62
     7
 10
95.4012647289337
 20
249.7710840980114
 11
98.65711707082927
 21
249.7710840980114
  0
LINE
  8
0
  6
CONTINUOUS
 62
     7
 10
122.2829891842431
 20
229.7710840980114
 11
118.5729032855431
 21
229.7710840980114
  0
LINE
  8
0
  6
CONTINUOUS
 62
     7
 10
117.2012647289337
 20
254.4710840980114
 11
97.40126472893371
 21
254.4710840980114
  0
ARC
  8
0
  6
CONTINUOUS
 62
     7
 10
160.6514300681316
 20
224.030476989117
 40
0.5000000000000016
 50
99.35729113176936
 51
114.9553462775402
  0
LINE
  8
0
  6
CONTINUOUS
 62
     7
 10
80.36380833595456
 20
248.1047058680106
 11
81.18889164765206
 21
247.9206264075138
  0
LINE
  8
0
  6
CONTINUOUS
 62
     7
 10
76.83672307306371
 20
258.2710840980114
 11
86.40126472893373
 21
258.2710840980114
  0
LINE
  8
0
  6
CONTINUOUS
 62
     7
 10
95.40126472893373
 20
258.2252680421099
 11
94.90126472893373
 21
258.2296314760053
  0
ARC
  8
0
  6
CONTINUOUS
 62
     7
 10
71.90126472893374
 20
257.2710840980114
 40
34.99999999999999
 50
265.0828996644711
 51
307.4121584672985
  0
LINE
  8
0
  6
CONTINUOUS
 62
     7
 10
95.4012647289337
 20
218.2710840980114
 11
95.4012647289337
 21
223.2710840980114
  0
ARC
  8
0
  6
CONTINUOUS
 62
     7
 10
81.17718277628546
 20
247.7710840980114
 40
0.15000000000001
 50
11.62291581171026
 51
59.20428775248418
  0
LINE
  8
0
  6
CONTINUOUS
 62
     7
 10
81.32410698861419
 20
247.8013045518727
 11
81.60939405143382
 21
247.00552882291
  0
ARC
  8
0
  6
CONTINUOUS
 62
     7
 10
81.17718277628546
 20
247.7710840980114
 40
0.1499999999999973
 50
59.20428775248413
 51
85.52298613259582
  0
LINE
  8
0
  6
CONTINUOUS
 62
     7
 10
95.4012647289337
 20
223.2710840980114
 11
85.40126472893373
 21
223.8710840980114
  0
LINE
  8
0
  6
CONTINUOUS
 62
     7
 10
98.65711707082927
 20
229.7710840980114
 11
95.4012647289337
 21
229.7710840980114
  0
LINE
  8
0
  6
CONTINUOUS
 62
     7
 10
95.40126472893373
 20
253.2710840980114
 11
95.40126472893373
 21
249.7710840980114
  0
LINE
  8
0
  6
CONTINUOUS
 62
     7
 10
118.5729032855431
 20
229.7710840980114
 11
98.65711707082927
 21
229.7710840980114
  0
LINE
  8
0
  6
CONTINUOUS
 62
     7
 10
122.3500997433027
 20
249.7710840980114
 11
122.2829891842431
 21
249.7710840980114
  0
ARC
  8
0
  6
CONTINUOUS
 62
     7
 10
97.40126472893371
 20
226.2710840980114
 40
2.000000000000002
 50
180.0
 51
270.0
  0
ARC
  8
0
  6
CONTINUOUS
 62
     7
 10
97.40126472893371
 20
226.2710840980114
 40
1.200000000000007
 50
180.0
 51
270.0000000000001
  0
POLYLINE
  8
0
  6
CONTINUOUS
 62
     7
 66
     1
  0
VERTEX
  8
0
  6
CONTINUOUS
 62
     7
 10
120.3695636058196
 20
228.5710840980114
  0
VERTEX
  8
0
  6
CONTINUOUS
 62
     7
 10
120.6013936655153
 20
228.5941417615275
  0
VERTEX
  8
0
  6
CONTINUOUS
 62
     7
 10
120.8243146260287
 20
228.6624286589978
  0
VERTEX
  8
0
  6
CONTINUOUS
 62
     7
 10
121.0297597598627
 20
228.7733205632483
  0
VERTEX
  8
0
  6
CONTINUOUS
 62
     7
 10
121.2098339257392
 20
228.9225559605875
  0
VERTEX
  8
0
  6
CONTINUOUS
 62
     7
 10
121.3576169744502
 20
229.1043998183879
  0
VERTEX
  8
0
  6
CONTINUOUS
 62
     7
 10
121.4674296863114
 20
229.3118639791733
  0
VERTEX
  8
0
  6
CONTINUOUS
 62
     7
 10
121.5350520203897
 20
229.536975711592
  0
VERTEX
  8
0
  6
CONTINUOUS
 62
     7
 10
121.5578852883095
 20
229.7710840980114
  0
SEQEND
  8
0
  6
CONTINUOUS
 62
     7
  0
LINE
  8
0
  6
CONTINUOUS
 62
     7
 10
120.3695638607282
 20
250.9710840980114
 11
101.4094616932447
 21
250.9710840980114
  0
LINE
  8
0
  6
CONTINUOUS
 62
     7
 10
155.5944349036809
 20
260.658843438078
 11
154.2767834286479
 21
260.5760601762552
  0
LINE
  8
0
  6
CONTINUOUS
 62
     7
 10
154.1291918798849
 20
221.4817490645917
 11
154.7931319339564
 21
221.0480418219765
  0
LINE
  8
0
  6
CONTINUOUS
 62
     7
 10
173.6838260924919
 20
239.9663695771515
 11
174.9472527596231
 21
236.4610195122028
  0
POLYLINE
  8
0
  6
CONTINUOUS
 62
     7
 66
     1
  0
VERTEX
  8
0
  6
CONTINUOUS
 62
     7
 10
170.7779542507575
 20
240.8072202754173
  0
VERTEX
  8
0
  6
CONTINUOUS
 62
     7
 10
170.7752232955902
 20
240.7666179135497
  0
VERTEX
  8
0
  6
CONTINUOUS
 62
     7
 10
170.7743072906933
 20
240.7262520577387
  0
VERTEX
  8
0
  6
CONTINUOUS
 62
     7
 10
170.7751878969536
 20
240.6861556778348
  0
VERTEX
  8
0
  6
CONTINUOUS
 62
     7
 10
170.7778464618991
 20
240.6463628352375
  0
VERTEX
  8
0
  6
CONTINUOUS
 62
     7
 10
170.7822639786958
 20
240.6069087467467
  0
VERTEX
  8
0
  6
CONTINUOUS
 62
     7
 10
170.7882959518628
 20
240.5685241777969
  0
VERTEX
  8
0
  6
CONTINUOUS
 62
     7
 10
170.7959870860089
 20
240.5305372311028
  0
VERTEX
  8
0
  6
CONTINUOUS
 62
     7
 10
170.8053180939536
 20
240.4929848666638
  0
VERTEX
  8
0
  6
CONTINUOUS
 62
     7
 10
170.8162691561622
 20
240.4559053383917
  0
VERTEX
  8
0
  6
CONTINUOUS
 62
     7
 10
170.8290627299895
 20
240.4186783824672
  0
VERTEX
  8
0
  6
CONTINUOUS
 62
     7
 10
170.8434923886579
 20
240.3820259407951
  0
VERTEX
  8
0
  6
CONTINUOUS
 62
     7
 10
170.859535095313
 20
240.345992824951
  0
VERTEX
  8
0
  6
CONTINUOUS
 62
     7
 10
170.8771669473113
 20
240.3106254257743
  0
VERTEX
  8
0
  6
CONTINUOUS
 62
     7
 10
170.8963630925975
 20
240.2759717505821
  0
VERTEX
  8
0
  6
CONTINUOUS
 62
     7
 10
170.91671404748
 20
240.2426796500908
  0
VERTEX
  8
0
  6
CONTINUOUS
 62
     7
 10
170.9385233763895
 20
240.2101725205267
  0
VERTEX
  8
0
  6
CONTINUOUS
 62
     7
 10
170.9617643667756
 20
240.1785005556902
  0
VERTEX
  8
0
  6
CONTINUOUS
 62
     7
 10
170.9864090902974
 20
240.1477155406252
  0
VERTEX
  8
0
  6
CONTINUOUS
 62
     7
 10
171.0129139277929
 20
240.1173372721188
  0
VERTEX
  8
0
  6
CONTINUOUS
 62
     7
 10
171.0408113665638
 20
240.0879918987486
  0
VERTEX
  8
0
  6
CONTINUOUS
 62
     7
 10
171.0700674860086
 20
240.0597391844773
  0
VERTEX
  8
0
  6
CONTINUOUS
 62
     7
 10
171.1006466842798
 20
240.0326405904888
  0
VERTEX
  8
0
  6
CONTINUOUS
 62
     7
 10
171.1325115853383
 20
240.0067592520055
  0
VERTEX
  8
0
  6
CONTINUOUS
 62
     7
 10
171.1650209789214
 20
239.9825875950521
  0
VERTEX
  8
0
  6
CONTINUOUS
 62
     7
 10
171.1986937105765
 20
239.9597154605557
  0
VERTEX
  8
0
  6
CONTINUOUS
 62
     7
 10
171.2334888746412
 20
239.9382071644379
  0
VERTEX
  8
0
  6
CONTINUOUS
 62
     7
 10
171.2693635955483
 20
239.9181284114876
  0
VERTEX
  8
0
  6
CONTINUOUS
 62
     7
 10
171.3028760285898
 20
239.9011718920133
  0
VERTEX
  8
0
  6
CONTINUOUS
 62
     7
 10
171.3372083090467
 20
239.8855034564151
  0
VERTEX
  8
0
  6
CONTINUOUS
 62
     7
 10
171.3723237086718
 20
239.871175171354
  0
VERTEX
  8
0
  6
CONTINUOUS
 62
     7
 10
171.408183990587
 20
239.8582398528987
  0
VERTEX
  8
0
  6
CONTINUOUS
 62
     7
 10
171.4447493794324
 20
239.8467510056033
  0
VERTEX
  8
0
  6
CONTINUOUS
 62
     7
 10
171.4819785356529
 20
239.8367627564217
  0
VERTEX
  8
0
  6
CONTINUOUS
 62
     7
 10
171.5198285342435
 20
239.8283297835103
  0
VERTEX
  8
0
  6
CONTINUOUS
 62
     7
 10
171.5582548482639
 20
239.8215072400061
  0
VERTEX
  8
0
  6
CONTINUOUS
 62
     7
 10
171.5972113374191
 20
239.816350672899
  0
VERTEX
  8
0
  6
CONTINUOUS
 62
     7
 10
171.6366502419882
 20
239.8129159371458
  0
SEQEND
  8
0
  6
CONTINUOUS
 62
     7
  0
LINE
  8
0
  6
CONTINUOUS
 62
     7
 10
143.0461914458916
 20
251.06934336103
 11
141.7285344078232
 21
250.9865597497019
  0
LINE
  8
0
  6
CONTINUOUS
 62
     7
 10
138.346440120243
 20
249.9229588806922
 11
138.2671159198104
 21
249.8085588487109
  0
LINE
  8
0
  6
CONTINUOUS
 62
     7
 10
159.1872381214075
 20
260.5760601762552
 11
157.8695866463745
 21
260.658843438078
  0
LINE
  8
0
  6
CONTINUOUS
 62
     7
 10
123.2846522091539
 20
258.2710840980114
 11
123.2846522091539
 21
258.2284265937719
  0
LINE
  8
0
  6
CONTINUOUS
 62
     7
 10
151.7051484991233
 20
246.4844168330325
 11
153.0228002024834
 21
246.4016335568648
  0
LINE
  8
0
  6
CONTINUOUS
 62
     7
 10
146.5160178144247
 20
250.9865598274149
 11
145.1983620133044
 21
251.06934336103
  0
LINE
  8
0
  6
CONTINUOUS
 62
     7
 10
96.20126472893372
 20
253.2710840980114
 11
96.20126472893372
 21
249.7710840980114
  0
LINE
  8
0
  6
CONTINUOUS
 62
     7
 10
171.6275359349634
 20
239.8117205162762
 11
173.7884996652477
 21
239.6759550049378
  0
LINE
  8
0
  6
CONTINUOUS
 62
     7
 10
118.5729032855431
 20
249.7710840980114
 11
98.65711707082927
 21
249.7710840980114
  0
POLYLINE
  8
0
  6
CONTINUOUS
 62
     7
 66
     1
  0
VERTEX
  8
0
  6
CONTINUOUS
 62
     7
 10
123.1530256250209
 20
227.7710840980114
  0
VERTEX
  8
0
  6
CONTINUOUS
 62
     7
 10
123.5521048793376
 20
227.8121073230374
  0
VERTEX
  8
0
  6
CONTINUOUS
 62
     7
 10
123.9348126156013
 20
227.933494093124
  0
VERTEX
  8
0
  6
CONTINUOUS
 62
     7
 10
124.2854489282279
 20
228.1302647314867
  0
VERTEX
  8
0
  6
CONTINUOUS
 62
     7
 10
124.5896295848623
 20
228.3943470719495
  0
VERTEX
  8
0
  6
CONTINUOUS
 62
     7
 10
124.8348761139789
 20
228.714907605234
  0
VERTEX
  8
0
  6
CONTINUOUS
 62
     7
 10
125.0111277120267
 20
229.078795904449
  0
VERTEX
  8
0
  6
CONTINUOUS
 62
     7
 10
125.111153970038
 20
229.4710840980114
  0
SEQEND
  8
0
  6
CONTINUOUS
 62
     7
  0
LINE
  8
0
  6
CONTINUOUS
 62
     7
 10
97.40126472893371
 20
255.2710840980114
 11
117.2012647289337
 21
255.2710840980114
  0
POLYLINE
  8
0
  6
CONTINUOUS
 62
     7
 66
     1
  0
VERTEX
  8
0
  6
CONTINUOUS
 62
     7
 10
120.3695636058196
 20
227.7710840980114
  0
VERTEX
  8
0
  6
CONTINUOUS
 62
     7
 10
120.7559470386458
 20
227.8095135372049
  0
VERTEX
  8
0
  6
CONTINUOUS
 62
     7
 10
121.1274819728347
 20
227.9233250329888
  0
VERTEX
  8
0
  6
CONTINUOUS
 62
     7
 10
121.4698905292249
 20
228.1081448734063
  0
VERTEX
  8
0
  6
CONTINUOUS
 62
     7
 10
121.7700141390189
 20
228.3568705356383
  0
VERTEX
  8
0
  6
CONTINUOUS
 62
     7
 10
122.0163192202039
 20
228.6599436319722
  0
VERTEX
  8
0
  6
CONTINUOUS
 62
     7
 10
122.1993404066392
 20
229.0057172332812
  0
VERTEX
  8
0
  6
CONTINUOUS
 62
     7
 10
122.3120442967697
 20
229.3809034539791
  0
VERTEX
  8
0
  6
CONTINUOUS
 62
     7
 10
122.3500997433027
 20
229.7710840980114
  0
SEQEND
  8
0
  6
CONTINUOUS
 62
     7
  0
LINE
  8
0
  6
CONTINUOUS
 62
     7
 10
151.255398376738
 20
246.6429188289563
 11
151.6792733365213
 21
246.488854650659
  0
LINE
  8
0
  6
CONTINUOUS
 62
     7
 10
85.40126472893373
 20
258.2296314760053
 11
85.40126472893373
 21
258.2339949099007
  0
LINE
  8
0
  6
CONTINUOUS
 62
     7
 10
85.40126472893373
 20
258.2296314760053
 11
94.90126472893373
 21
258.2296314760053
  0
LINE
  8
0
  6
CONTINUOUS
 62
     7
 10
118.5729032855431
 20
249.7710840980114
 11
122.2829891842431
 21
249.7710840980114
  0
ARC
  8
0
  6
CONTINUOUS
 62
     7
 10
59.11391918106079
 20
225.3899565483262
 40
0.1500000000000038
 50
68.14454940014143
 51
164.9999999999991
  0
ARC
  8
0
  6
CONTINUOUS
 62
     7
 10
77.81253424327114
 20
248.8252512270417
 40
2.000000000000021
 50
35.00000000000006
 51
79.13479616835434
  0
ARC
  8
0
  6
CONTINUOUS
 62
     7
 10
81.16924618519188
 20
251.0051569404645
 40
2.0
 50
215.0
 51
250.1611673701526
  0
LINE
  8
0
  6
CONTINUOUS
 62
     7
 10
81.83413167312553
 20
248.5710840980114
 11
82.13190074505796
 21
248.5710840980114
  0
ARC
  8
0
  6
CONTINUOUS
 62
     7
 10
62.1571417375909
 20
242.1945438075607
 40
18.49999999999998
 50
72.5079910416751
 51
172.1997498433852
  0
LINE
  8
0
  6
CONTINUOUS
 62
     7
 10
79.45083833184913
 20
249.9724040997438
 11
79.53094209661388
 21
249.8580040677624
  0
POLYLINE
  8
0
  6
CONTINUOUS
 62
     7
 66
     1
  0
VERTEX
  8
0
  6
CONTINUOUS
 62
     7
 10
44.38588076810322
 20
240.1493316460237
  0
VERTEX
  8
0
  6
CONTINUOUS
 62
     7
 10
44.29093416608963
 20
240.1736660430836
  0
VERTEX
  8
0
  6
CONTINUOUS
 62
     7
 10
44.19306589480082
 20
240.1790100002083
  0
VERTEX
  8
0
  6
CONTINUOUS
 62
     7
 10
44.09603661352849
 20
240.1651581719701
  0
VERTEX
  8
0
  6
CONTINUOUS
 62
     7
 10
44.00357474276461
 20
240.1326428249135
  0
VERTEX
  8
0
  6
CONTINUOUS
 62
     7
 10
43.91923319694035
 20
240.0827133848271
  0
VERTEX
  8
0
  6
CONTINUOUS
 62
     7
 10
43.8462528611128
 20
240.0172884266516
  0
VERTEX
  8
0
  6
CONTINUOUS
 62
     7
 10
43.78743805760653
 20
239.9388819518467
  0
VERTEX
  8
0
  6
CONTINUOUS
 62
     7
 10
43.74504878789477
 20
239.8505067860618
  0
SEQEND
  8
0
  6
CONTINUOUS
 62
     7
  0
LINE
  8
0
  6
CONTINUOUS
 62
     7
 10
139.5371111545332
 20
250.6983567767338
 11
139.5483771517482
 21
250.7079415409963
  0
LINE
  8
0
  6
CONTINUOUS
 62
     7
 10
68.35618481820187
 20
259.6831677404203
 11
75.97236301948381
 21
258.3463655240302
  0
ARC
  8
0
  6
CONTINUOUS
 62
     7
 10
71.90126472893374
 20
257.2710840980114
 40
34.20000000000001
 50
248.2097201735745
 51
254.7451536649766
  0
LINE
  8
0
  6
CONTINUOUS
 62
     7
 10
153.5517232768766
 20
221.9853151696566
 11
154.1306672054863
 21
221.480768810776
  0
LINE
  8
0
  6
CONTINUOUS
 62
     7
 10
85.40126472893373
 20
223.8710840980114
 11
85.40126472893373
 21
224.9794443130764
  0
LINE
  8
0
  6
CONTINUOUS
 62
     7
 10
149.719375482955
 20
247.5354256057556
 11
151.255398376738
 21
246.6429188289564
  0
ARC
  8
0
  6
CONTINUOUS
 62
     7
 10
62.1571417375909
 20
242.1945438075607
 40
15.49999999999995
 50
81.62480181857711
 51
181.9102107463124
  0
POLYLINE
  8
0
  6
CONTINUOUS
 62
     7
 66
     1
  0
VERTEX
  8
0
  6
CONTINUOUS
 62
     7
 10
136.3491346642905
 20
234.7710840980114
  0
VERTEX
  8
0
  6
CONTINUOUS
 62
     7
 10
137.7199349304183
 20
231.7879278802206
  0
VERTEX
  8
0
  6
CONTINUOUS
 62
     7
 10
139.6827795012401
 20
229.1636999402838
  0
VERTEX
  8
0
  6
CONTINUOUS
 62
     7
 10
142.1494175142799
 20
227.0163873987685
  0
VERTEX
  8
0
  6
CONTINUOUS
 62
     7
 10
145.0089472021218
 20
225.4425349269191
  0
VERTEX
  8
0
  6
CONTINUOUS
 62
     7
 10
148.1328021133114
 20
224.5129040308249
  0
VERTEX
  8
0
  6
CONTINUOUS
 62
     7
 10
151.3805315497849
 20
224.2692915646966
  0
SEQEND
  8
0
  6
CONTINUOUS
 62
     7
  0
ARC
  8
0
  6
CONTINUOUS
 62
     7
 10
74.89079885879255
 20
233.6031139808109
 40
17.5
 50
79.13479616835423
 51
123.2634984240621
  0
ARC
  8
0
  6
CONTINUOUS
 62
     7
 10
65.84070995517413
 20
247.3997038071631
 40
1.000000000000012
 50
214.9999999999998
 51
286.5756555768309
  0
ARC
  8
0
  6
CONTINUOUS
 62
     7
 10
64.85173655991096
 20
260.4971458270349
 40
2.99989410617784
 50
261.6248651440833
 51
304.999936674495
  0
LINE
  8
0
  6
CONTINUOUS
 62
     7
 10
68.90126472893374
 20
222.2710840980114
 11
68.90126472893374
 21
224.3033757997534
  0
LINE
  8
0
  6
CONTINUOUS
 62
     7
 10
117.2012647289337
 20
255.2710840980114
 11
117.2012647289337
 21
254.4710840980114
  0
LINE
  8
0
  6
CONTINUOUS
 62
     7
 10
150.9501181002649
 20
222.8260120436311
 11
151.3805315496979
 21
223.3330094598545
  0
ARC
  8
0
  6
CONTINUOUS
 62
     7
 10
45.72253382743254
 20
240.7270074913629
 40
0.9999999999999939
 50
359.9999999987371
 51
5.102720755949065
  0
ARC
  8
0
  6
CONTINUOUS
 62
     7
 10
68.67763695271461
 20
239.7710840980114
 40
14.76725491672713
 50
340.2091923872747
 51
19.79080761272536
  0
ARC
  8
0
  6
CONTINUOUS
 62
     7
 10
72.90126472893373
 20
222.2710840980114
 40
4.000000000000004
 50
180.0
 51
270.0
  0
ARC
  8
0
  6
CONTINUOUS
 62
     7
 10
45.72253382743254
 20
240.7270074913629
 40
1.000000000000001
 50
250.0000000000002
 51
270.0
  0
LINE
  8
0
  6
CONTINUOUS
 62
     7
 10
95.4012647289337
 20
229.7710840980114
 11
95.4012647289337
 21
249.7710840980114
  0
POLYLINE
  8
0
  6
CONTINUOUS
 62
     7
 66
     1
  0
VERTEX
  8
0
  6
CONTINUOUS
 62
     7
 10
132.3688237947945
 20
260.9516729851234
  0
VERTEX
  8
0
  6
CONTINUOUS
 62
     7
 10
131.8144409014002
 20
261.5754961886351
  0
VERTEX
  8
0
  6
CONTINUOUS
 62
     7
 10
131.1551095875513
 20
262.084674032805
  0
VERTEX
  8
0
  6
CONTINUOUS
 62
     7
 10
130.4137051101251
 20
262.4615407800334
  0
VERTEX
  8
0
  6
CONTINUOUS
 62
     7
 10
129.6159502241538
 20
262.693021177454
  0
VERTEX
  8
0
  6
CONTINUOUS
 62
     7
 10
128.7895227413207
 20
262.7710840980114
  0
SEQEND
  8
0
  6
CONTINUOUS
 62
     7
  0
LINE
  8
0
  6
CONTINUOUS
 62
     7
 10
160.9132087928069
 20
224.5804924716882
 11
160.5701460600676
 21
224.5238256589525
  0
ARC
  8
0
  6
CONTINUOUS
 62
     7
 10
62.1571417375909
 20
242.1945438075607
 40
15.49999999999999
 50
181.9102107463124
 51
185.1027207559483
  0
LINE
  8
0
  6
CONTINUOUS
 62
     7
 10
150.8025675493262
 20
258.3051973287368
 11
151.0532788996118
 21
258.1279221212188
  0
ARC
  8
0
  6
CONTINUOUS
 62
     7
 10
136.5574754615324
 20
250.9929276260726
 40
2.083500824443891
 50
290.0588556889097
 51
325.1542318931877
  0
LINE
  8
0
  6
CONTINUOUS
 62
     7
 10
128.7627576470913
 20
236.2710840980114
 11
129.7530257158328
 21
236.2710840980114
  0
LINE
  8
0
  6
CONTINUOUS
 62
     7
 10
164.6698723512386
 20
221.8793132935578
 11
164.6729759981973
 21
221.8800677328184
  0
ARC
  8
0
  6
CONTINUOUS
 62
     7
 10
90.90126472893373
 20
258.2710840980114
 40
4.499999999999997
 50
359.9999999999998
 51
180.4166809169172
  0
LINE
  8
0
  6
CONTINUOUS
 62
     7
 10
161.1721411836742
 20
225.5399565483262
 11
155.6391276706852
 21
225.5399565483262
  0
LINE
  8
0
  6
CONTINUOUS
 62
     7
 10
117.2012647289337
 20
225.0710840980114
 11
117.2012647289337
 21
224.2710840980114
  0
ARC
  8
0
  6
CONTINUOUS
 62
     7
 10
74.89079885879255
 20
233.6031139808109
 40
16.50000000000002
 50
65.1143864643837
 51
70.1611673701525
  0
LINE
  8
0
  6
CONTINUOUS
 62
     7
 10
43.74504878789477
 20
239.8505067860618
 11
42.51613875814623
 21
236.4741042287864
  0
ARC
  8
0
  6
CONTINUOUS
 62
     7
 10
152.7646624095633
 20
260.5248584462259
 40
2.940301194677366
 50
234.3175045143667
 51
266.5159497567612
  0
LINE
  8
0
  6
CONTINUOUS
 62
     7
 10
179.8624506406646
 20
238.4723230891724
 11
177.8387318539866
 21
244.0870872578188
  0
LINE
  8
0
  6
CONTINUOUS
 62
     7
 10
152.5653220391944
 20
257.5906230737494
 11
153.8678027824939
 21
257.5037763663319
  0
ARC
  8
0
  6
CONTINUOUS
 62
     7
 10
127.8105257323849
 20
258.272961477811
 40
4.525873912609328
 50
143.741445506369
 51
180.0237668888307
  0
LINE
  8
0
  6
CONTINUOUS
 62
     7
 10
137.7032922665759
 20
249.2535779093944
 11
137.7059296527968
 21
249.2579423885099
  0
LINE
  8
0
  6
CONTINUOUS
 62
     7
 10
129.7530257158328
 20
243.2710840980114
 11
128.7627576470913
 21
243.2710840980114
  0
LINE
  8
0
  6
CONTINUOUS
 62
     7
 10
101.4094616932447
 20
251.7710840980114
 11
101.4094616932447
 21
250.9710840980114
  0
LINE
  8
0
  6
CONTINUOUS
 62
     7
 10
67.7177381988278
 20
259.8390831043312
 11
68.35618482923773
 21
259.6831677384832
  0
POLYLINE
  8
0
  6
CONTINUOUS
 62
     7
 66
     1
  0
VERTEX
  8
0
  6
CONTINUOUS
 62
     7
 10
43.37653910148009
 20
244.2751409044252
  0
VERTEX
  8
0
  6
CONTINUOUS
 62
     7
 10
43.39706645184801
 20
244.2773664077854
  0
VERTEX
  8
0
  6
CONTINUOUS
 62
     7
 10
43.41750186295594
 20
244.2804401406401
  0
VERTEX
  8
0
  6
CONTINUOUS
 62
     7
 10
43.43779328874837
 20
244.2843531805236
  0
VERTEX
  8
0
  6
CONTINUOUS
 62
     7
 10
43.45788868316991
 20
244.2890966049702
  0
VERTEX
  8
0
  6
CONTINUOUS
 62
     7
 10
43.47833683360442
 20
244.2948408434979
  0
VERTEX
  8
0
  6
CONTINUOUS
 62
     7
 10
43.49854082510434
 20
244.3014543273582
  0
VERTEX
  8
0
  6
CONTINUOUS
 62
     7
 10
43.51844641800999
 20
244.3089180258158
  0
VERTEX
  8
0
  6
CONTINUOUS
 62
     7
 10
43.53799937266178
 20
244.3172129081353
  0
VERTEX
  8
0
  6
CONTINUOUS
 62
     7
 10
43.5567625009307
 20
244.3261242518969
  0
VERTEX
  8
0
  6
CONTINUOUS
 62
     7
 10
43.57515518225526
 20
244.3358156382018
  0
VERTEX
  8
0
  6
CONTINUOUS
 62
     7
 10
43.59313037597623
 20
244.3462610245124
  0
VERTEX
  8
0
  6
CONTINUOUS
 62
     7
 10
43.61064104143438
 20
244.3574343682909
  0
VERTEX
  8
0
  6
CONTINUOUS
 62
     7
 10
43.62815761023335
 20
244.3696842398939
  0
VERTEX
  8
0
  6
CONTINUOUS
 62
     7
 10
43.64515012619783
 20
244.382683521836
  0
VERTEX
  8
0
  6
CONTINUOUS
 62
     7
 10
43.6615728232643
 20
244.3963956313263
  0
VERTEX
  8
0
  6
CONTINUOUS
 62
     7
 10
43.67737993536907
 20
244.4107839855738
  0
VERTEX
  8
0
  6
CONTINUOUS
 62
     7
 10
43.69213603684029
 20
244.4254040897231
  0
VERTEX
  8
0
  6
CONTINUOUS
 62
     7
 10
43.70628433289473
 20
244.4406376860624
  0
VERTEX
  8
0
  6
CONTINUOUS
 62
     7
 10
43.71978905460795
 20
244.4564446223114
  0
VERTEX
  8
0
  6
CONTINUOUS
 62
     7
 10
43.73261443305548
 20
244.4727847461896
  0
VERTEX
  8
0
  6
CONTINUOUS
 62
     7
 10
43.74508903143642
 20
244.4901427370224
  0
VERTEX
  8
0
  6
CONTINUOUS
 62
     7
 10
43.75682101721727
 20
244.5080344511476
  0
VERTEX
  8
0
  6
CONTINUOUS
 62
     7
 10
43.76777931573632
 20
244.5264102131727
  0
VERTEX
  8
0
  6
CONTINUOUS
 62
     7
 10
43.77793285233188
 20
244.5452203477048
  0
VERTEX
  8
0
  6
CONTINUOUS
 62
     7
 10
43.78701762756116
 20
244.5639007214493
  0
VERTEX
  8
0
  6
CONTINUOUS
 62
     7
 10
43.79532580773883
 20
244.5829588001906
  0
VERTEX
  8
0
  6
CONTINUOUS
 62
     7
 10
43.80283693608531
 20
244.6023448567744
  0
VERTEX
  8
0
  6
CONTINUOUS
 62
     7
 10
43.80953055582088
 20
244.6220091640465
  0
VERTEX
  8
0
  6
CONTINUOUS
 62
     7
 10
43.81555626786533
 20
244.6425177911156
  0
VERTEX
  8
0
  6
CONTINUOUS
 62
     7
 10
43.82070460486919
 20
244.6632842305354
  0
VERTEX
  8
0
  6
CONTINUOUS
 62
     7
 10
43.82496269116079
 20
244.6842513262746
  0
VERTEX
  8
0
  6
CONTINUOUS
 62
     7
 10
43.82831765106844
 20
244.7053619223022
  0
SEQEND
  8
0
  6
CONTINUOUS
 62
     7
  0
LINE
  8
0
  6
CONTINUOUS
 62
     7
 10
150.8066441606744
 20
258.3038886378164
 11
150.8006225107956
 21
258.3073186979636
  0
LINE
  8
0
  6
CONTINUOUS
 62
     7
 10
95.40126472893371
 20
258.2710840980114
 11
95.40126472893371
 21
258.2252680421099
  0
LINE
  8
0
  6
CONTINUOUS
 62
     7
 10
101.4094616932447
 20
228.5710840980114
 11
101.4094616932447
 21
227.7710840980114
  0
ARC
  8
0
  6
CONTINUOUS
 62
     7
 10
139.9096668639514
 20
248.8334612062172
 40
1.901740042400515
 50
101.2975379627717
 51
145.2708126921469
  0
LINE
  8
0
  6
CONTINUOUS
 62
     7
 10
128.7895227413207
 20
262.7710840980114
 11
128.4137553687285
 21
262.7710840980114
  0
ARC
  8
0
  6
CONTINUOUS
 62
     7
 10
145.4416914976543
 20
233.9137140869256
 40
17.10661388606257
 50
68.70283748993988
 51
86.39941767317067
  0
LINE
  8
0
  6
CONTINUOUS
 62
     7
 10
138.2673610722946
 20
249.8025511441797
 11
138.2718213112121
 21
249.8104297328981
  0
LINE
  8
0
  6
CONTINUOUS
 62
     7
 10
138.3467126436133
 20
249.9168833488352
 11
138.3511455116447
 21
249.9248297648794
  0
ARC
  8
0
  6
CONTINUOUS
 62
     7
 10
71.90126472893374
 20
257.2710840980114
 40
36.01090858473841
 50
215.2779951016368
 51
248.221871675533
  0
LINE
  8
0
  6
CONTINUOUS
 62
     7
 10
151.3805315496979
 20
223.3330094598545
 11
151.3756655841557
 21
223.3379933559066
  0
LINE
  8
0
  6
CONTINUOUS
 62
     7
 10
151.05735551096
 20
258.1266134302983
 11
151.0496052740492
 21
258.136560782973
  0
LINE
  8
0
  6
CONTINUOUS
 62
     7
 10
177.8387318539866
 20
244.0870872578188
 11
176.5799992126372
 21
244.198294354164
  0
LINE
  8
0
  6
CONTINUOUS
 62
     7
 10
61.16226942914803
 20
220.3270351878828
 11
62.63228590445206
 21
221.0125151279311
  0
LINE
  8
0
  6
CONTINUOUS
 62
     7
 10
156.8317408812244
 20
220.2338270421288
 11
160.2675521047775
 21
220.2338270421288
  0
LINE
  8
0
  6
CONTINUOUS
 62
     7
 10
155.2054669249358
 20
246.9628482227481
 11
155.2988384285324
 21
247.2268893113964
  0
LINE
  8
0
  6
CONTINUOUS
 62
     7
 10
146.0924488500687
 20
218.2710840980114
 11
147.3260205825495
 21
218.4689969464043
  0
LINE
  8
0
  6
CONTINUOUS
 62
     7
 10
63.73671637182418
 20
187.8976288514121
 11
63.75357116427296
 21
177.1476288514121
  0
ARC
  8
0
  6
CONTINUOUS
 62
     7
 10
128.7245096369265
 20
258.2728920775315
 40
4.526085741279669
 50
359.9770869789695
 51
36.25869649985526
  0
POLYLINE
  8
0
  6
CONTINUOUS
 62
     7
 66
     1
  0
VERTEX
  8
0
  6
CONTINUOUS
 62
     7
 10
154.4609206342978
 20
246.487505575025
  0
VERTEX
  8
0
  6
CONTINUOUS
 62
     7
 10
154.5018246379617
 20
246.4910484850152
  0
VERTEX
  8
0
  6
CONTINUOUS
 62
     7
 10
154.542515519786
 20
246.4963942818231
  0
VERTEX
  8
0
  6
CONTINUOUS
 62
     7
 10
154.582919557659
 20
246.5035291801743
  0
VERTEX
  8
0
  6
CONTINUOUS
 62
     7
 10
154.6229630491096
 20
246.5124386775156
  0
VERTEX
  8
0
  6
CONTINUOUS
 62
     7
 10
154.6625723608454
 20
246.5231075478638
  0
VERTEX
  8
0
  6
CONTINUOUS
 62
     7
 10
154.7016739795221
 20
246.5355198362668
  0
VERTEX
  8
0
  6
CONTINUOUS
 62
     7
 10
154.7401945637072
 20
246.5496588539056
  0
VERTEX
  8
0
  6
CONTINUOUS
 62
     7
 10
154.7780609969942
 20
246.5655071738617
  0
VERTEX
  8
0
  6
CONTINUOUS
 62
     7
 10
154.8152004422213
 20
246.5830466275782
  0
VERTEX
  8
0
  6
CONTINUOUS
 62
     7
 10
154.8515403967455
 20
246.6022583020404
  0
VERTEX
  8
0
  6
CONTINUOUS
 62
     7
 10
154.8870087487174
 20
246.6231225376992
  0
VERTEX
  8
0
  6
CONTINUOUS
 62
     7
 10
154.9215338342977
 20
246.6456189271643
  0
VERTEX
  8
0
  6
CONTINUOUS
 62
     7
 10
154.9550444957573
 20
246.6697263146892
  0
VERTEX
  8
0
  6
CONTINUOUS
 62
     7
 10
154.9874701403916
 20
246.6954227964718
  0
VERTEX
  8
0
  6
CONTINUOUS
 62
     7
 10
155.0187408001829
 20
246.7226857217923
  0
VERTEX
  8
0
  6
CONTINUOUS
 62
     7
 10
155.0487871921367
 20
246.7514916950087
  0
VERTEX
  8
0
  6
CONTINUOUS
 62
     7
 10
155.077540779215
 20
246.7818165784313
  0
VERTEX
  8
0
  6
CONTINUOUS
 62
     7
 10
155.1049338317885
 20
246.8136354960918
  0
VERTEX
  8
0
  6
CONTINUOUS
 62
     7
 10
155.1308994895214
 20
246.8469228384277
  0
VERTEX
  8
0
  6
CONTINUOUS
 62
     7
 10
155.1553718236048
 20
246.8816522678948
  0
SEQEND
  8
0
  6
CONTINUOUS
 62
     7
  0
LINE
  8
0
  6
CONTINUOUS
 62
     7
 10
66.57240241478249
 20
258.0397745355611
 11
67.57977367744482
 21
258.6234656580901
  0
POLYLINE
  8
0
  6
CONTINUOUS
 62
     7
 66
     1
  0
VERTEX
  8
0
  6
CONTINUOUS
 62
     7
 10
176.4863934817022
 20
244.2159475726351
  0
VERTEX
  8
0
  6
CONTINUOUS
 62
     7
 10
176.4649900566079
 20
244.2227619853833
  0
VERTEX
  8
0
  6
CONTINUOUS
 62
     7
 10
176.4426105028469
 20
244.2310692752975
  0
VERTEX
  8
0
  6
CONTINUOUS
 62
     7
 10
176.4206613636727
 20
244.2404540125494
  0
VERTEX
  8
0
  6
CONTINUOUS
 62
     7
 10
176.399195255392
 20
244.2508928389246
  0
VERTEX
  8
0
  6
CONTINUOUS
 62
     7
 10
176.3782635112114
 20
244.2623598117974
  0
VERTEX
  8
0
  6
CONTINUOUS
 62
     7
 10
176.3579160451467
 20
244.2748264784824
  0
VERTEX
  8
0
  6
CONTINUOUS
 62
     7
 10
176.3382011759511
 20
244.2882619923032
  0
VERTEX
  8
0
  6
CONTINUOUS
 62
     7
 10
176.3191656031438
 20
244.3026331312836
  0
VERTEX
  8
0
  6
CONTINUOUS
 62
     7
 10
176.3008542619713
 20
244.3179044049292
  0
VERTEX
  8
0
  6
CONTINUOUS
 62
     7
 10
176.2833101967704
 20
244.3340381619531
  0
VERTEX
  8
0
  6
CONTINUOUS
 62
     7
 10
176.2665744563954
 20
244.3509946925162
  0
VERTEX
  8
0
  6
CONTINUOUS
 62
     7
 10
176.250685995554
 20
244.3687323357742
  0
VERTEX
  8
0
  6
CONTINUOUS
 62
     7
 10
176.2356815823061
 20
244.3872075923968
  0
VERTEX
  8
0
  6
CONTINUOUS
 62
     7
 10
176.2215957119631
 20
244.4063752417072
  0
VERTEX
  8
0
  6
CONTINUOUS
 62
     7
 10
176.2084605275995
 20
244.4261884630821
  0
VERTEX
  8
0
  6
CONTINUOUS
 62
     7
 10
176.1963057473692
 20
244.446598961236
  0
VERTEX
  8
0
  6
CONTINUOUS
 62
     7
 10
176.1851585987964
 20
244.4675570950073
  0
VERTEX
  8
0
  6
CONTINUOUS
 62
     7
 10
176.1750437601851
 20
244.4890120092531
  0
VERTEX
  8
0
  6
CONTINUOUS
 62
     7
 10
176.1659833092732
 20
244.5109117694529
  0
VERTEX
  8
0
  6
CONTINUOUS
 62
     7
 10
176.1579966792271
 20
244.5332034986147
  0
VERTEX
  8
0
  6
CONTINUOUS
 62
     7
 10
176.151100622056
 20
244.5558335160736
  0
VERTEX
  8
0
  6
CONTINUOUS
 62
     7
 10
176.1453091794959
 20
244.5787474777691
  0
VERTEX
  8
0
  6
CONTINUOUS
 62
     7
 10
176.1406336613934
 20
244.6018905175848
  0
VERTEX
  8
0
  6
CONTINUOUS
 62
     7
 10
176.1370826315932
 20
244.6252073893364
  0
SEQEND
  8
0
  6
CONTINUOUS
 62
     7
  0
ARC
  8
0
  6
CONTINUOUS
 62
     7
 10
146.065948539579
 20
222.2625092205894
 40
3.997313713966969
 50
288.3746817317459
 51
0.1229087077196596
  0
POLYLINE
  8
0
  6
CONTINUOUS
 62
     7
 66
     1
  0
VERTEX
  8
0
  6
CONTINUOUS
 62
     7
 10
155.2988384285324
 20
247.2268893113964
  0
VERTEX
  8
0
  6
CONTINUOUS
 62
     7
 10
155.30425971728
 20
247.259458913569
  0
VERTEX
  8
0
  6
CONTINUOUS
 62
     7
 10
155.3097150421102
 20
247.3037680175301
  0
VERTEX
  8
0
  6
CONTINUOUS
 62
     7
 10
155.3130131402968
 20
247.3482175893587
  0
VERTEX
  8
0
  6
CONTINUOUS
 62
     7
 10
155.314170484554
 20
247.3927187441597
  0
VERTEX
  8
0
  6
CONTINUOUS
 62
     7
 10
155.3132035540434
 20
247.4371825736171
  0
VERTEX
  8
0
  6
CONTINUOUS
 62
     7
 10
155.3101288343471
 20
247.4815201461323
  0
VERTEX
  8
0
  6
CONTINUOUS
 62
     7
 10
155.3049628174403
 20
247.5256425069628
  0
VERTEX
  8
0
  6
CONTINUOUS
 62
     7
 10
155.2977220016643
 20
247.5694606783602
  0
VERTEX
  8
0
  6
CONTINUOUS
 62
     7
 10
155.2884228916992
 20
247.6128856597087
  0
VERTEX
  8
0
  6
CONTINUOUS
 62
     7
 10
155.2770819985369
 20
247.6558284276632
  0
VERTEX
  8
0
  6
CONTINUOUS
 62
     7
 10
155.2637158394537
 20
247.6981999362873
  0
VERTEX
  8
0
  6
CONTINUOUS
 62
     7
 10
155.2483409379836
 20
247.7399111171914
  0
VERTEX
  8
0
  6
CONTINUOUS
 62
     7
 10
155.2309738238907
 20
247.7808728796707
  0
VERTEX
  8
0
  6
CONTINUOUS
 62
     7
 10
155.2116310331424
 20
247.8209961108429
  0
VERTEX
  8
0
  6
CONTINUOUS
 62
     7
 10
155.1903291078821
 20
247.8601916757862
  0
VERTEX
  8
0
  6
CONTINUOUS
 62
     7
 10
155.1670845964025
 20
247.8983704176767
  0
VERTEX
  8
0
  6
CONTINUOUS
 62
     7
 10
155.1419140531179
 20
247.9354431579265
  0
VERTEX
  8
0
  6
CONTINUOUS
 62
     7
 10
155.1148340385377
 20
247.971320696321
  0
VERTEX
  8
0
  6
CONTINUOUS
 62
     7
 10
155.0858611192389
 20
248.0059138111561
  0
VERTEX
  8
0
  6
CONTINUOUS
 62
     7
 10
155.0550118678396
 20
248.0391332593763
  0
VERTEX
  8
0
  6
CONTINUOUS
 62
     7
 10
155.0289926482469
 20
248.0646597931095
  0
VERTEX
  8
0
  6
CONTINUOUS
 62
     7
 10
155.0017916773385
 20
248.0892043384559
  0
VERTEX
  8
0
  6
CONTINUOUS
 62
     7
 10
154.9734174485771
 20
248.1127211738021
  0
VERTEX
  8
0
  6
CONTINUOUS
 62
     7
 10
154.9438784578599
 20
248.1351645689918
  0
VERTEX
  8
0
  6
CONTINUOUS
 62
     7
 10
154.9131832035095
 20
248.1564887853696
  0
SEQEND
  8
0
  6
CONTINUOUS
 62
     7
  0
LINE
  8
0
  6
CONTINUOUS
 62
     7
 10
40.02974836299917
 20
238.3774760743925
 11
42.01409363299061
 21
243.8661597843633
  0
LINE
  8
0
  6
CONTINUOUS
 62
     7
 10
133.1094455670041
 20
223.8428808667333
 11
133.1094455670041
 21
225.7625502606221
  0
LINE
  8
0
  6
CONTINUOUS
 62
     7
 10
63.73671637182418
 20
201.1476288514121
 11
63.73671637182418
 21
190.3976288514121
  0
LINE
  8
0
  6
CONTINUOUS
 62
     7
 10
155.1553718236047
 20
246.881652267895
 11
155.2054669249358
 21
246.9628482227481
  0
LINE
  8
0
  6
CONTINUOUS
 62
     7
 10
151.3805315497849
 20
223.3329421237973
 11
151.3805315497849
 21
223.9406922044014
  0
LINE
  8
0
  6
CONTINUOUS
 62
     7
 10
132.1093292259081
 20
189.5739212698503
 11
131.3577944807238
 21
194.9213688410549
  0
LINE
  8
0
  6
CONTINUOUS
 62
     7
 10
147.5094936741398
 20
259.2868166159081
 11
149.2900774495862
 21
259.6024185792828
  0
ARC
  8
0
  6
CONTINUOUS
 62
     7
 10
145.5115544374014
 20
233.9559979431594
 40
17.03069474846545
 50
56.49290534598567
 51
68.85095854926789
  0
ARC
  8
0
  6
CONTINUOUS
 62
     7
 10
61.49998617372246
 20
223.4407397365718
 40
2.679249415455471
 50
295.0000000000006
 51
328.7496790111347
  0
LINE
  8
0
  6
CONTINUOUS
 62
     7
 10
154.7931319339564
 20
221.0480418219765
 11
156.1535545502995
 21
220.4081392873741
  0
ARC
  8
0
  6
CONTINUOUS
 62
     7
 10
175.2031933182192
 20
236.7929958205308
 40
4.952657780847699
 50
323.2942849588579
 51
19.82604115765264
  0
LINE
  8
0
  6
CONTINUOUS
 62
     7
 10
141.3878658604854
 20
246.834612936234
 11
141.3958296783521
 21
246.8347118960707
  0
LINE
  8
0
  6
CONTINUOUS
 62
     7
 10
146.2316219510288
 20
193.275386950632
 11
131.872734954276
 21
191.257376986711
  0
LINE
  8
0
  6
CONTINUOUS
 62
     7
 10
154.9233150755504
 20
196.7690367954962
 11
178.7260391941742
 21
200.1142915113183
  0
LINE
  8
0
  6
CONTINUOUS
 62
     7
 10
156.5356098690158
 20
185.6350698607215
 11
125.203148312984
 21
181.2315795603564
  0
LINE
  8
0
  6
CONTINUOUS
 62
     7
 10
91.81908994674811
 20
193.1476288514121
 11
91.64387248983974
 21
193.1476288514121
  0
LINE
  8
0
  6
CONTINUOUS
 62
     7
 10
101.9500845057783
 20
184.9062701387945
 11
104.5744943942007
 21
190.9419996615757
  0
LINE
  8
0
  6
CONTINUOUS
 62
     7
 10
155.2712478279427
 20
194.2933666236411
 11
179.0739719465744
 21
197.6386213394644
  0
LINE
  8
0
  6
CONTINUOUS
 62
     7
 10
87.40126472893371
 20
186.4476288514121
 11
87.40126472893371
 21
191.8476288514121
  0
LINE
  8
0
  6
CONTINUOUS
 62
     7
 10
161.9995718419679
 20
206.5995310875548
 11
177.4326575987821
 21
208.7685098418511
  0
LINE
  8
0
  6
CONTINUOUS
 62
     7
 10
131.5943887523559
 20
193.2379131241942
 11
145.9532757491087
 21
195.2559230881151
  0
ARC
  8
0
  6
CONTINUOUS
 62
     7
 10
104.7012647289337
 20
183.7100229320188
 40
2.999999999999989
 50
156.5
 51
179.9999999999999
  0
LINE
  8
0
  6
CONTINUOUS
 62
     7
 10
97.4012647289337
 20
179.6476288514121
 11
100.7012647289337
 21
179.6476288514121
  0
LINE
  8
0
  6
CONTINUOUS
 62
     7
 10
147.6808435451711
 20
198.5281996257346
 11
126.9755504556553
 21
195.6182604521763
  0
LINE
  8
0
  6
CONTINUOUS
 62
     7
 10
55.96559293571863
 20
201.1476288514121
 11
59.88361353213609
 21
201.1476288514121
  0
LINE
  8
0
  6
CONTINUOUS
 62
     7
 10
39.84764945896982
 20
199.1476288514121
 11
55.3887399091735
 21
199.1476288514121
  0
LINE
  8
0
  6
CONTINUOUS
 62
     7
 10
128.2554335770027
 20
187.7195157142231
 11
128.0745085457546
 21
189.0068642035871
  0
LINE
  8
0
  6
CONTINUOUS
 62
     7
 10
63.73671637182418
 20
199.1476288514121
 11
95.4012647289337
 21
199.1476288514121
  0
LINE
  8
0
  6
CONTINUOUS
 62
     7
 10
63.75357116427296
 20
177.1476288514121
 11
55.49035111959245
 21
177.1476288514121
  0
LINE
  8
0
  6
CONTINUOUS
 62
     7
 10
126.8020382029928
 20
195.5938748953561
 11
126.9755504556553
 21
195.6182604521763
  0
LINE
  8
0
  6
CONTINUOUS
 62
     7
 10
112.2012647289337
 20
199.6476288514121
 11
97.4012647289337
 21
199.6476288514121
  0
LINE
  8
0
  6
CONTINUOUS
 62
     7
 10
153.4844524839334
 20
207.4224642504234
 11
161.6638434334966
 21
208.5720026818323
  0
LINE
  8
0
  6
CONTINUOUS
 62
     7
 10
72.90126472893371
 20
190.1476288514121
 11
87.40126472893371
 21
190.1476288514121
  0
LINE
  8
0
  6
CONTINUOUS
 62
     7
 10
117.2012647289337
 20
181.6476288514121
 11
117.2012647289337
 21
194.6476288514121
  0
LINE
  8
0
  6
CONTINUOUS
 62
     7
 10
114.7012647289337
 20
180.6476288514121
 11
116.2012647289337
 21
180.6476288514121
  0
ARC
  8
0
  6
CONTINUOUS
 62
     7
 10
114.7012647289337
 20
183.6476288514121
 40
2.999999999999989
 50
180.0
 51
270.0
  0
LINE
  8
0
  6
CONTINUOUS
 62
     7
 10
132.1093292259081
 20
189.5739212698503
 11
124.1871846759756
 21
188.4605364621698
  0
LINE
  8
0
  6
CONTINUOUS
 62
     7
 10
95.40126472893367
 20
186.4476288514121
 11
87.40126472893371
 21
186.4476288514121
  0
LINE
  8
0
  6
CONTINUOUS
 62
     7
 10
87.40126472893371
 20
191.8476288514121
 11
95.40126472893368
 21
191.8476288514121
  0
LINE
  8
0
  6
CONTINUOUS
 62
     7
 10
123.4356499307912
 20
193.8079840333743
 11
131.3577944807238
 21
194.9213688410549
  0
LINE
  8
0
  6
CONTINUOUS
 62
     7
 10
111.7012647289337
 20
183.6476288514121
 11
111.7012647289337
 21
185.7935268851624
  0
LINE
  8
0
  6
CONTINUOUS
 62
     7
 10
70.73509663096749
 20
185.1476288514121
 11
91.64387248983974
 21
185.1476288514121
  0
ARC
  8
0
  6
CONTINUOUS
 62
     7
 10
108.7012647289337
 20
189.1476288514121
 40
4.500000000000026
 50
311.8103148957784
 51
156.5000000000003
  0
LINE
  8
0
  6
CONTINUOUS
 62
     7
 10
97.4012647289337
 20
179.6476288514121
 11
95.40126472893368
 21
179.6476288514121
  0
LINE
  8
0
  6
CONTINUOUS
 62
     7
 10
95.40126472893367
 20
179.1476288514121
 11
95.4012647289337
 21
199.6476288514121
  0
LINE
  8
0
  6
CONTINUOUS
 62
     7
 10
87.40126472893371
 20
188.1476288514121
 11
72.90126472893371
 21
188.1476288514121
  0
LINE
  8
0
  6
CONTINUOUS
 62
     7
 10
91.81908994674811
 20
185.1476288514121
 11
91.64387248983974
 21
185.1476288514121
  0
LINE
  8
0
  6
CONTINUOUS
 62
     7
 10
95.40126472893368
 20
199.6476288514121
 11
97.4012647289337
 21
199.6476288514121
  0
LINE
  8
0
  6
CONTINUOUS
 62
     7
 10
55.43240498524514
 20
179.1476288514121
 11
39.8476494589698
 21
179.1476288514121
  0
LINE
  8
0
  6
CONTINUOUS
 62
     7
 10
70.73509663096749
 20
193.1476288514121
 11
91.64387248983974
 21
193.1476288514121
  0
LINE
  8
0
  6
CONTINUOUS
 62
     7
 10
101.7012647289337
 20
183.7100229320188
 11
101.7012647289337
 21
180.6476288514121
  0
LINE
  8
0
  6
CONTINUOUS
 62
     7
 10
127.3229738005703
 20
194.3543117747916
 11
127.1420487693222
 21
195.6416602641556
  0
ARC
  8
0
  6
CONTINUOUS
 62
     7
 10
112.2012647289337
 20
194.6476288514121
 40
4.99999999999999
 50
0.000000000000008
 51
90.0
  0
LINE
  8
0
  6
CONTINUOUS
 62
     7
 10
55.49035105879702
 20
201.1476288514121
 11
63.73671637182418
 21
201.1476288514121
  0
LINE
  8
0
  6
CONTINUOUS
 62
     7
 10
122.4196862937827
 20
201.0369409351878
 11
153.7534792047365
 21
205.440618345285
  0
LINE
  8
0
  6
CONTINUOUS
 62
     7
 10
180.2161196179834
 20
188.9631484670197
 11
164.7830338611692
 21
186.7941697127234
  0
LINE
  8
0
  6
CONTINUOUS
 62
     7
 10
95.4012647289337
 20
179.1476288514121
 11
63.75043538893365
 21
179.1476288514121
  0
ARC
  8
0
  6
CONTINUOUS
 62
     7
 10
116.2012647289337
 20
181.6476288514121
 40
1.000000000000001
 50
270.0000000000001
 51
0.0000000000000568
  0
LINE
  8
0
  6
CONTINUOUS
 62
     7
 10
165.003997916742
 20
184.8055690404956
 11
156.8246069069753
 21
183.6560306006258
  0
LINE
  8
0
  6
CONTINUOUS
 62
     7
 10
148.7942283528516
 20
190.606055075802
 11
127.9154230106734
 21
187.6717303454234
  0
ARC
  8
0
  6
CONTINUOUS
 62
     7
 10
100.7012647289337
 20
180.6476288514121
 40
1.000000000000001
 50
270.0000000000001
 51
0.0000000000000568
  0
ARC
  8
0
  6
CONTINUOUS
 62
     7
 10
119.7459678972136
 20
181.9793642283804
 40
1.0
 50
187.9999999999998
 51
278.0
  0
LINE
  8
0
  6
CONTINUOUS
 62
     7
 10
108.4354998381762
 20
183.4192643240444
 11
108.136848554475
 21
185.5442786256426
  0
ARC
  8
0
  6
CONTINUOUS
 62
     7
 10
98.9012647289337
 20
200.1298381188404
 40
2.699999999999994
 50
94.0
 51
179.9999999999999
  0
ARC
  8
0
  6
CONTINUOUS
 62
     7
 10
105.4646956319515
 20
183.0017450211642
 40
2.999999999999987
 50
278.0
 51
8.0
  0
ARC
  8
0
  6
CONTINUOUS
 62
     7
 10
98.9012647289337
 20
200.1298381188404
 40
3.500000000000007
 50
94.0
 51
180.0
  0
LINE
  8
0
  6
CONTINUOUS
 62
     7
 10
118.5729032855431
 20
205.0139597320932
 11
98.65711707082924
 21
203.6213122947498
  0
LINE
  8
0
  6
CONTINUOUS
 62
     7
 10
118.3294969479123
 20
184.8727821993483
 11
118.7556998284721
 21
181.8401911274203
  0
LINE
  8
0
  6
CONTINUOUS
 62
     7
 10
146.8458049394107
 20
204.4698080381839
 11
148.0983628480513
 21
195.5573954195098
  0
LINE
  8
0
  6
CONTINUOUS
 62
     7
 10
165.003997916742
 20
184.8055690404956
 11
164.8213514702004
 21
186.855494448825
  0
LINE
  8
0
  6
CONTINUOUS
 62
     7
 10
162.0512894325919
 20
206.5616212420918
 11
161.6638434334966
 21
208.5720026818323
  0
LINE
  8
0
  6
CONTINUOUS
 62
     7
 10
55.49035105879702
 20
201.1476288514121
 11
55.38592552686222
 21
199.092233703897
  0
LINE
  8
0
  6
CONTINUOUS
 62
     7
 10
55.38646673740795
 20
179.1923674583264
 11
55.49035111959245
 21
177.1476288514121
  0
LINE
  8
0
  6
CONTINUOUS
 62
     7
 10
91.81908994674811
 20
193.1476288514121
 11
91.81908994674811
 21
199.1476288514121
  0
ARC
  8
0
  6
CONTINUOUS
 62
     7
 10
118.8170509436476
 20
201.5224855561839
 40
3.500000000000008
 50
8.000000000000163
 51
94.00000000000013
  0
LINE
  8
0
  6
CONTINUOUS
 62
     7
 10
180.2161196179834
 20
188.9631484670197
 11
178.9108079935159
 21
198.8779746069565
  0
LINE
  8
0
  6
CONTINUOUS
 62
     7
 10
122.2829891842431
 20
202.0095914095441
 11
125.2031483129841
 21
181.2315795603564
  0
LINE
  8
0
  6
CONTINUOUS
 62
     7
 10
91.81908994674811
 20
179.1476288514121
 11
91.81908994674811
 21
185.1476288514121
  0
LINE
  8
0
  6
CONTINUOUS
 62
     7
 10
39.76038078106224
 20
189.1476288514121
 11
39.8476494589698
 21
179.1476288514121
  0
ARC
  8
0
  6
CONTINUOUS
 62
     7
 10
118.8170509436476
 20
201.5224855561839
 40
2.700000000000019
 50
357.7120070939606
 51
94.0
  0
LINE
  8
0
  6
CONTINUOUS
 62
     7
 10
70.73509663096749
 20
190.1476288514121
 11
70.73509663096749
 21
199.1476288514121
  0
LINE
  8
0
  6
CONTINUOUS
 62
     7
 10
95.40126472893368
 20
200.1298381188404
 11
95.40126472893368
 21
199.6476288514121
  0
LINE
  8
0
  6
CONTINUOUS
 62
     7
 10
153.6272217240299
 20
222.1203048692213
 11
153.6197404431785
 21
222.113175183109
  0
LINE
  8
0
  6
CONTINUOUS
 62
     7
 10
156.1503961265395
 20
220.4089192377803
 11
156.1535545502995
 21
220.4081392873741
  0
ARC
  8
0
  6
CONTINUOUS
 62
     7
 10
104.2576397307593
 20
180.8124492322409
 40
1.0
 50
188.0
 51
277.9999999999998
  0
POLYLINE
  8
0
  6
CONTINUOUS
 62
     7
 66
     1
  0
VERTEX
  8
0
  6
CONTINUOUS
 62
     7
 10
156.1535545502995
 20
220.4081392873741
  0
VERTEX
  8
0
  6
CONTINUOUS
 62
     7
 10
156.4845500283531
 20
220.2888556898979
  0
VERTEX
  8
0
  6
CONTINUOUS
 62
     7
 10
156.8317408812244
 20
220.2338270421288
  0
SEQEND
  8
0
  6
CONTINUOUS
 62
     7
  0
LINE
  8
0
  6
CONTINUOUS
 62
     7
 10
148.3767090499714
 20
193.5768592820267
 11
149.629266958612
 21
184.6644466633526
  0
LINE
  8
0
  6
CONTINUOUS
 62
     7
 10
153.5644118626009
 20
222.0204074017656
 11
153.5516840827801
 21
221.9853731689824
  0
LINE
  8
0
  6
CONTINUOUS
 62
     7
 10
155.2712478279427
 20
194.2933666236411
 11
156.8246069069753
 21
183.6560306006258
  0
LINE
  8
0
  6
CONTINUOUS
 62
     7
 10
127.9154230106734
 20
187.6717303454235
 11
128.7504616164337
 21
181.7301219329741
  0
LINE
  8
0
  6
CONTINUOUS
 62
     7
 10
157.8695866463745
 20
260.658843438078
 11
155.594434903681
 21
260.658843438078
  0
LINE
  8
0
  6
CONTINUOUS
 62
     7
 10
125.1335617625041
 20
181.7267135947272
 11
123.1530256250209
 21
181.448367392807
  0
LINE
  8
0
  6
CONTINUOUS
 62
     7
 10
104.3968128317193
 20
179.8221811634994
 11
105.8822149348317
 21
180.0309408149395
  0
LINE
  8
0
  6
CONTINUOUS
 62
     7
 10
122.4196862937828
 20
229.9710840980114
 11
122.4196862937828
 21
257.6881598148063
  0
LINE
  8
0
  6
CONTINUOUS
 62
     7
 10
125.9669995972325
 20
201.5354833078055
 11
126.8020382029928
 21
195.5938748953561
  0
POLYLINE
  8
0
  6
CONTINUOUS
 62
     7
 66
     1
  0
VERTEX
  8
0
  6
CONTINUOUS
 62
     7
 10
160.8657085812446
 20
224.5711101181589
  0
VERTEX
  8
0
  6
CONTINUOUS
 62
     7
 10
166.2204006088473
 20
227.6893206545243
  0
VERTEX
  8
0
  6
CONTINUOUS
 62
     7
 10
170.9628049303685
 20
231.6927787297493
  0
VERTEX
  8
0
  6
CONTINUOUS
 62
     7
 10
174.9510029694554
 20
236.4616790653288
  0
SEQEND
  8
0
  6
CONTINUOUS
 62
     7
  0
LINE
  8
0
  6
CONTINUOUS
 62
     7
 10
178.9108079935159
 20
198.8779746069565
 11
177.4326575987821
 21
208.7685098418511
  0
LINE
  8
0
  6
CONTINUOUS
 62
     7
 10
103.2673716620177
 20
180.6732761312809
 11
102.4960085903858
 21
186.1618095761357
  0
POLYLINE
  8
0
  6
CONTINUOUS
 62
     7
 66
     1
  0
VERTEX
  8
0
  6
CONTINUOUS
 62
     7
 10
153.7059194866924
 20
222.5704548433215
  0
VERTEX
  8
0
  6
CONTINUOUS
 62
     7
 10
153.6632269921108
 20
222.4895900695668
  0
VERTEX
  8
0
  6
CONTINUOUS
 62
     7
 10
153.6358663328723
 20
222.4022151917951
  0
VERTEX
  8
0
  6
CONTINUOUS
 62
     7
 10
153.6247565821064
 20
222.311265223438
  0
VERTEX
  8
0
  6
CONTINUOUS
 62
     7
 10
153.6302709279487
 20
222.2197952689548
  0
VERTEX
  8
0
  6
CONTINUOUS
 62
     7
 10
153.6522241377609
 20
222.1308778996824
  0
SEQEND
  8
0
  6
CONTINUOUS
 62
     7
  0
ARC
  8
0
  6
CONTINUOUS
 62
     7
 10
142.795155850533
 20
233.8725743719715
 40
15.31369534090508
 50
63.06639649521385
 51
86.36247089908723
  0
POLYLINE
  8
0
  6
CONTINUOUS
 62
     7
 66
     1
  0
VERTEX
  8
0
  6
CONTINUOUS
 62
     7
 10
122.4886655947598
 20
258.1881407763383
  0
VERTEX
  8
0
  6
CONTINUOUS
 62
     7
 10
122.4751764422363
 20
258.1777933291276
  0
VERTEX
  8
0
  6
CONTINUOUS
 62
     7
 10
122.4622230232641
 20
258.1488373674179
  0
VERTEX
  8
0
  6
CONTINUOUS
 62
     7
 10
122.4502976323405
 20
258.1023733621077
  0
VERTEX
  8
0
  6
CONTINUOUS
 62
     7
 10
122.4398534937718
 20
258.0401671770343
  0
VERTEX
  8
0
  6
CONTINUOUS
 62
     7
 10
122.4312875368905
 20
257.964582957345
  0
VERTEX
  8
0
  6
CONTINUOUS
 62
     7
 10
122.4249253107617
 20
257.8784932801956
  0
VERTEX
  8
0
  6
CONTINUOUS
 62
     7
 10
122.4210086116957
 20
257.785169982498
  0
VERTEX
  8
0
  6
CONTINUOUS
 62
     7
 10
122.4196862937827
 20
257.6881598148063
  0
SEQEND
  8
0
  6
CONTINUOUS
 62
     7
  0
POLYLINE
  8
0
  6
CONTINUOUS
 62
     7
 66
     1
  0
VERTEX
  8
0
  6
CONTINUOUS
 62
     7
 10
126.3765967140419
 20
229.4710840980114
  0
VERTEX
  8
0
  6
CONTINUOUS
 62
     7
 10
131.7369692598089
 20
226.3606627123506
  0
VERTEX
  8
0
  6
CONTINUOUS
 62
     7
 10
137.5701635169191
 20
224.2924212949617
  0
VERTEX
  8
0
  6
CONTINUOUS
 62
     7
 10
143.6795067150487
 20
223.3360929545545
  0
VERTEX
  8
0
  6
CONTINUOUS
 62
     7
 10
149.8590154086486
 20
223.5239213874225
  0
SEQEND
  8
0
  6
CONTINUOUS
 62
     7
  0
LINE
  8
0
  6
CONTINUOUS
 62
     7
 10
96.2012647289337
 20
199.6476288514121
 11
96.2012647289337
 21
200.1298381188404
  0
LINE
  8
0
  6
CONTINUOUS
 62
     7
 10
153.4844524839334
 20
207.4224642504234
 11
154.9233150755504
 21
196.7690367954962
  0
LINE
  8
0
  6
CONTINUOUS
 62
     7
 10
39.84764945896982
 20
199.1476288514121
 11
39.76038078106224
 21
189.1476288514121
  0
LINE
  8
0
  6
CONTINUOUS
 62
     7
 10
153.7059194866925
 20
222.5704548433216
 11
155.6391276706852
 21
225.5399565483262
  0
LINE
  8
0
  6
CONTINUOUS
 62
     7
 10
139.5483771517482
 20
250.7079415409963
 11
141.6966629540366
 21
250.9845274584073
  0
LINE
  8
0
  6
CONTINUOUS
 62
     7
 10
154.2767834286479
 20
260.5760601762552
 11
149.923411436536
 21
259.7586843692716
  0
ARC
  8
0
  6
CONTINUOUS
 62
     7
 10
115.3586927416876
 20
184.4552628964681
 40
3.000000000000003
 50
8.000000000000115
 51
31.5
  0
LINE
  8
0
  6
CONTINUOUS
 62
     7
 10
70.73509663096748
 20
179.1476288514121
 11
70.73509663096749
 21
188.1476288514121
  0
LINE
  8
0
  6
CONTINUOUS
 62
     7
 10
123.1530256250209
 20
181.448367392807
 11
119.8851409981737
 21
180.9890961596388
  0
ARC
  8
0
  6
CONTINUOUS
 62
     7
 10
155.4063550786213
 20
242.4720388793668
 40
15.30558289255214
 50
67.05138378905565
 51
83.92623815180767
  0
LINE
  8
0
  6
CONTINUOUS
 62
     7
 10
98.71292224982456
 20
202.8232610545419
 11
118.6287084645384
 21
204.2159084918854
  0
ARC
  8
0
  6
CONTINUOUS
 62
     7
 10
110.6408519891205
 20
189.2832580050032
 40
4.5
 50
106.4763112020949
 51
236.1896851042216
  0
LINE
  8
0
  6
CONTINUOUS
 62
     7
 10
117.9166132347499
 20
186.022758590616
 11
117.2012647289337
 21
187.1901012567171
  0
LINE
  8
0
  6
CONTINUOUS
 62
     7
 10
108.9415688907789
 20
199.6476288514121
 11
122.3500997433027
 21
201.5320749695586
  0
LINE
  8
0
  6
CONTINUOUS
 62
     7
 10
138.6808906263927
 20
250.6413845927841
 11
138.686031456042
 21
250.6439733253657
  0
POLYLINE
  8
0
  6
CONTINUOUS
 62
     7
 66
     1
  0
VERTEX
  8
0
  6
CONTINUOUS
 62
     7
 10
129.2659198624726
 20
239.7710840980114
  0
VERTEX
  8
0
  6
CONTINUOUS
 62
     7
 10
129.2752794648589
 20
239.0882679709549
  0
VERTEX
  8
0
  6
CONTINUOUS
 62
     7
 10
129.3029985877469
 20
238.4316920847336
  0
VERTEX
  8
0
  6
CONTINUOUS
 62
     7
 10
129.3480120007891
 20
237.8265882824428
  0
VERTEX
  8
0
  6
CONTINUOUS
 62
     7
 10
129.4085898637662
 20
237.2962103638585
  0
VERTEX
  8
0
  6
CONTINUOUS
 62
     7
 10
129.4824042033763
 20
236.8609404549525
  0
VERTEX
  8
0
  6
CONTINUOUS
 62
     7
 10
129.5666183759438
 20
236.5375057342219
  0
VERTEX
  8
0
  6
CONTINUOUS
 62
     7
 10
129.6579960780449
 20
236.3383356166001
  0
VERTEX
  8
0
  6
CONTINUOUS
 62
     7
 10
129.7530257158328
 20
236.2710840980114
  0
SEQEND
  8
0
  6
CONTINUOUS
 62
     7
  0
LINE
  8
0
  6
CONTINUOUS
 62
     7
 10
147.5094936741392
 20
259.2868166159079
 11
146.5719593766897
 21
259.0207976120993
  0
POLYLINE
  8
0
  6
CONTINUOUS
 62
     7
 66
     1
  0
VERTEX
  8
0
  6
CONTINUOUS
 62
     7
 10
144.3143109682677
 20
249.1089060294879
  0
VERTEX
  8
0
  6
CONTINUOUS
 62
     7
 10
141.8805411737947
 20
248.9691792983768
  0
VERTEX
  8
0
  6
CONTINUOUS
 62
     7
 10
139.4993176937715
 20
248.4423670953203
  0
SEQEND
  8
0
  6
CONTINUOUS
 62
     7
  0
LINE
  8
0
  6
CONTINUOUS
 62
     7
 10
123.6454791081939
 20
258.2296314760053
 11
123.0807585233431
 21
258.2252680421099
  0
LINE
  8
0
  6
CONTINUOUS
 62
     7
 10
131.6370399273772
 20
258.2339949099007
 11
133.1226123117188
 21
258.2339949099007
  0
LINE
  8
0
  6
CONTINUOUS
 62
     7
 10
141.7788675962138
 20
258.2710840980114
 11
132.7238299220575
 21
258.2710840980114
  0
LINE
  8
0
  6
CONTINUOUS
 62
     7
 10
137.4226976934178
 20
250.5901065550788
 11
136.5371861586057
 21
249.3445831898971
  0
LINE
  8
0
  6
CONTINUOUS
 62
     7
 10
153.0228002024834
 20
246.4016335568648
 11
153.1457813777641
 21
246.4016335568648
  0
LINE
  8
0
  6
CONTINUOUS
 62
     7
 10
137.4690664435247
 20
247.00552882291
 11
136.8123004358082
 21
245.5774862959581
  0
POLYLINE
  8
0
  6
CONTINUOUS
 62
     7
 66
     1
  0
VERTEX
  8
0
  6
CONTINUOUS
 62
     7
 10
137.8854765468189
 20
247.9206264075138
  0
VERTEX
  8
0
  6
CONTINUOUS
 62
     7
 10
137.8520675311429
 20
247.9140338842993
  0
VERTEX
  8
0
  6
CONTINUOUS
 62
     7
 10
137.8210220618857
 20
247.89993383003
  0
SEQEND
  8
0
  6
CONTINUOUS
 62
     7
  0
LINE
  8
0
  6
CONTINUOUS
 62
     7
 10
142.0418798647067
 20
256.520498913705
 11
137.4226976934178
 21
250.5901065550788
  0
LINE
  8
0
  6
CONTINUOUS
 62
     7
 10
128.7627576470913
 20
234.7710840980114
 11
136.5151695062302
 21
234.7710840980114
  0
LINE
  8
0
  6
CONTINUOUS
 62
     7
 10
137.8854765468189
 20
247.9206264075139
 11
138.7025302044445
 21
248.1047058680106
  0
POLYLINE
  8
0
  6
CONTINUOUS
 62
     7
 66
     1
  0
VERTEX
  8
0
  6
CONTINUOUS
 62
     7
 10
136.5371861586056
 20
249.344583189897
  0
VERTEX
  8
0
  6
CONTINUOUS
 62
     7
 10
136.5289116311794
 20
249.3313494753322
  0
VERTEX
  8
0
  6
CONTINUOUS
 62
     7
 10
136.5210511261112
 20
249.3178608352992
  0
VERTEX
  8
0
  6
CONTINUOUS
 62
     7
 10
136.513584052327
 20
249.3040757262109
  0
VERTEX
  8
0
  6
CONTINUOUS
 62
     7
 10
136.5065494121815
 20
249.2900605871547
  0
VERTEX
  8
0
  6
CONTINUOUS
 62
     7
 10
136.4979268645189
 20
249.2712023033638
  0
VERTEX
  8
0
  6
CONTINUOUS
 62
     7
 10
136.4900805031838
 20
249.2519820890913
  0
VERTEX
  8
0
  6
CONTINUOUS
 62
     7
 10
136.4830296056043
 20
249.2324500417732
  0
VERTEX
  8
0
  6
CONTINUOUS
 62
     7
 10
136.4767934492084
 20
249.2126562588452
  0
VERTEX
  8
0
  6
CONTINUOUS
 62
     7
 10
136.4712352344783
 20
249.1920319929725
  0
VERTEX
  8
0
  6
CONTINUOUS
 62
     7
 10
136.4665506447629
 20
249.1711676075539
  0
VERTEX
  8
0
  6
CONTINUOUS
 62
     7
 10
136.4627513152933
 20
249.1501204857698
  0
VERTEX
  8
0
  6
CONTINUOUS
 62
     7
 10
136.4598488813001
 20
249.1289480108005
  0
VERTEX
  8
0
  6
CONTINUOUS
 62
     7
 10
136.4578929423095
 20
249.1082724868043
  0
VERTEX
  8
0
  6
CONTINUOUS
 62
     7
 10
136.4567880630328
 20
249.0875148371718
  0
VERTEX
  8
0
  6
CONTINUOUS
 62
     7
 10
136.4565360136393
 20
249.0667287828276
  0
VERTEX
  8
0
  6
CONTINUOUS
 62
     7
 10
136.457138564298
 20
249.0459680446963
  0
VERTEX
  8
0
  6
CONTINUOUS
 62
     7
 10
136.4586530331007
 20
249.0246501681695
  0
VERTEX
  8
0
  6
CONTINUOUS
 62
     7
 10
136.4610705813187
 20
249.0033976883998
  0
VERTEX
  8
0
  6
CONTINUOUS
 62
     7
 10
136.4643833743755
 20
248.9822686451888
  0
VERTEX
  8
0
  6
CONTINUOUS
 62
     7
 10
136.468583577695
 20
248.9613210783381
  0
VERTEX
  8
0
  6
CONTINUOUS
 62
     7
 10
136.4735145795845
 20
248.9411567088187
  0
VERTEX
  8
0
  6
CONTINUOUS
 62
     7
 10
136.4792757257997
 20
248.921199328669
  0
VERTEX
  8
0
  6
CONTINUOUS
 62
     7
 10
136.4858510658232
 20
248.901500234316
  0
VERTEX
  8
0
  6
CONTINUOUS
 62
     7
 10
136.4932246491372
 20
248.8821107221864
  0
VERTEX
  8
0
  6
CONTINUOUS
 62
     7
 10
136.5016415357708
 20
248.8625001879327
  0
VERTEX
  8
0
  6
CONTINUOUS
 62
     7
 10
136.5108892691688
 20
248.8432532693218
  0
VERTEX
  8
0
  6
CONTINUOUS
 62
     7
 10
136.5209414157433
 20
248.8244221209723
  0
VERTEX
  8
0
  6
CONTINUOUS
 62
     7
 10
136.5317715419065
 20
248.8060588975029
  0
VERTEX
  8
0
  6
CONTINUOUS
 62
     7
 10
136.5430356486858
 20
248.7886775176539
  0
VERTEX
  8
0
  6
CONTINUOUS
 62
     7
 10
136.5550154348161
 20
248.7717690713608
  0
VERTEX
  8
0
  6
CONTINUOUS
 62
     7
 10
136.5641148066002
 20
248.7598465661975
  0
SEQEND
  8
0
  6
CONTINUOUS
 62
     7
  0
POLYLINE
  8
0
  6
CONTINUOUS
 62
     7
 66
     1
  0
VERTEX
  8
0
  6
CONTINUOUS
 62
     7
 10
136.5151695062302
 20
234.7710840980114
  0
VERTEX
  8
0
  6
CONTINUOUS
 62
     7
 10
136.609634156684
 20
234.8661936521096
  0
VERTEX
  8
0
  6
CONTINUOUS
 62
     7
 10
136.6330584256355
 20
234.9863671432298
  0
SEQEND
  8
0
  6
CONTINUOUS
 62
     7
  0
ARC
  8
0
  6
CONTINUOUS
 62
     7
 10
178.1370718611986
 20
239.8640044166281
 40
41.78964556717661
 50
173.4446054777218
 51
186.7027727319457
  0
POLYLINE
  8
0
  6
CONTINUOUS
 62
     7
 66
     1
  0
VERTEX
  8
0
  6
CONTINUOUS
 62
     7
 10
136.620649313492
 20
244.6348675953966
  0
VERTEX
  8
0
  6
CONTINUOUS
 62
     7
 10
136.5695458991565
 20
244.748259457994
  0
VERTEX
  8
0
  6
CONTINUOUS
 62
     7
 10
136.5151695062302
 20
244.7710840980114
  0
SEQEND
  8
0
  6
CONTINUOUS
 62
     7
  0
LINE
  8
0
  6
CONTINUOUS
 62
     7
 10
132.201812952751
 20
258.238358343796
 11
132.7238299220575
 21
258.2710840980113
  0
POLYLINE
  8
0
  6
CONTINUOUS
 62
     7
 66
     1
  0
VERTEX
  8
0
  6
CONTINUOUS
 62
     7
 10
161.3156200090563
 20
225.4287794050917
  0
VERTEX
  8
0
  6
CONTINUOUS
 62
     7
 10
161.3059712887963
 20
225.4550391091939
  0
VERTEX
  8
0
  6
CONTINUOUS
 62
     7
 10
161.2916563070967
 20
225.4790295761623
  0
VERTEX
  8
0
  6
CONTINUOUS
 62
     7
 10
161.2731741851907
 20
225.4999143291007
  0
VERTEX
  8
0
  6
CONTINUOUS
 62
     7
 10
161.2511693402121
 20
225.5169651782105
  0
VERTEX
  8
0
  6
CONTINUOUS
 62
     7
 10
161.2264090162689
 20
225.5295876106229
  0
VERTEX
  8
0
  6
CONTINUOUS
 62
     7
 10
161.1997565329015
 20
225.5373415193112
  0
VERTEX
  8
0
  6
CONTINUOUS
 62
     7
 10
161.1721411836742
 20
225.5399565483262
  0
SEQEND
  8
0
  6
CONTINUOUS
 62
     7
  0
LINE
  8
0
  6
CONTINUOUS
 62
     7
 10
149.2900774495862
 20
259.6024185792828
 11
149.923411436536
 21
259.7586843692715
  0
LINE
  8
0
  6
CONTINUOUS
 62
     7
 10
145.4077230614753
 20
258.7112280534336
 11
145.6027955032973
 21
258.7458039304511
  0
POLYLINE
  8
0
  6
CONTINUOUS
 62
     7
 66
     1
  0
VERTEX
  8
0
  6
CONTINUOUS
 62
     7
 10
142.6366860372269
 20
257.0698106107422
  0
VERTEX
  8
0
  6
CONTINUOUS
 62
     7
 10
142.3169956285369
 20
256.8197654571865
  0
VERTEX
  8
0
  6
CONTINUOUS
 62
     7
 10
142.0418798647067
 20
256.520498913705
  0
SEQEND
  8
0
  6
CONTINUOUS
 62
     7
  0
LINE
  8
0
  6
CONTINUOUS
 62
     7
 10
139.6576264943019
 20
248.4329212994693
 11
138.7025302044445
 21
248.1047058680106
  0
LINE
  8
0
  6
CONTINUOUS
 62
     7
 10
127.4399870852808
 20
244.8540274196844
 11
127.4406131879706
 21
244.8539893420236
  0
LINE
  8
0
  6
CONTINUOUS
 62
     7
 10
137.7515771122601
 20
247.8013045518727
 11
137.4690664435247
 21
247.00552882291
  0
POLYLINE
  8
0
  6
CONTINUOUS
 62
     7
 66
     1
  0
VERTEX
  8
0
  6
CONTINUOUS
 62
     7
 10
137.8210220618857
 20
247.89993383003
  0
VERTEX
  8
0
  6
CONTINUOUS
 62
     7
 10
137.7963545317602
 20
247.8813371666401
  0
VERTEX
  8
0
  6
CONTINUOUS
 62
     7
 10
137.7760126445537
 20
247.8580052976113
  0
VERTEX
  8
0
  6
CONTINUOUS
 62
     7
 10
137.7608700541266
 20
247.8309402920848
  0
VERTEX
  8
0
  6
CONTINUOUS
 62
     7
 10
137.7515771122601
 20
247.8013045518727
  0
SEQEND
  8
0
  6
CONTINUOUS
 62
     7
  0
POLYLINE
  8
0
  6
CONTINUOUS
 62
     7
 66
     1
  0
VERTEX
  8
0
  6
CONTINUOUS
 62
     7
 10
176.1323852371039
 20
244.6302489149692
  0
VERTEX
  8
0
  6
CONTINUOUS
 62
     7
 10
175.3131458529759
 20
248.1487938049509
  0
VERTEX
  8
0
  6
CONTINUOUS
 62
     7
 10
173.8291620374695
 20
251.4379977164587
  0
VERTEX
  8
0
  6
CONTINUOUS
 62
     7
 10
171.7375926771677
 20
254.3711697574747
  0
VERTEX
  8
0
  6
CONTINUOUS
 62
     7
 10
169.1189991465253
 20
256.8353323831842
  0
VERTEX
  8
0
  6
CONTINUOUS
 62
     7
 10
166.0742423101025
 20
258.7355729735347
  0
VERTEX
  8
0
  6
CONTINUOUS
 62
     7
 10
162.7205976454801
 20
259.9986996006566
  0
VERTEX
  8
0
  6
CONTINUOUS
 62
     7
 10
159.1872381214075
 20
260.5760601762552
  0
SEQEND
  8
0
  6
CONTINUOUS
 62
     7
  0
LINE
  8
0
  6
CONTINUOUS
 62
     7
 10
133.1226123117188
 20
258.2339949099007
 11
133.0530257612388
 21
258.2296314760053
  0
LINE
  8
0
  6
CONTINUOUS
 62
     7
 10
132.201812952751
 20
258.2383583437961
 11
131.6370399273772
 21
258.2339949099007
  0
LINE
  8
0
  6
CONTINUOUS
 62
     7
 10
136.5151695062301
 20
244.7710840980114
 11
128.7627576470913
 21
244.7710840980114
  0
LINE
  8
0
  6
CONTINUOUS
 62
     7
 10
126.3765967140418
 20
229.4710840980114
 11
122.4892728442628
 21
229.4710840980114
  0
LINE
  8
0
  6
CONTINUOUS
 62
     7
 10
133.0530257612388
 20
258.2296314760053
 11
123.6454791081939
 21
258.2296314760053
  0
LINE
  8
0
  6
CONTINUOUS
 62
     7
 10
123.6722442024234
 20
223.2710840980114
 11
133.1094455670041
 21
223.8428808667333
  0
POLYLINE
  8
0
  6
CONTINUOUS
 62
     7
 66
     1
  0
VERTEX
  8
0
  6
CONTINUOUS
 62
     7
 10
127.7457244841202
 20
262.7710840980114
  0
VERTEX
  8
0
  6
CONTINUOUS
 62
     7
 10
126.9192841261653
 20
262.6930187236408
  0
VERTEX
  8
0
  6
CONTINUOUS
 62
     7
 10
126.1215177130719
 20
262.4615311350517
  0
VERTEX
  8
0
  6
CONTINUOUS
 62
     7
 10
125.380104326484
 20
262.0846529612508
  0
VERTEX
  8
0
  6
CONTINUOUS
 62
     7
 10
124.7207678391069
 20
261.5754602625624
  0
VERTEX
  8
0
  6
CONTINUOUS
 62
     7
 10
124.1663844063731
 20
260.9516198472755
  0
SEQEND
  8
0
  6
CONTINUOUS
 62
     7
  0
LINE
  8
0
  6
CONTINUOUS
 62
     7
 10
123.6722442024234
 20
218.2710840980114
 11
146.0924488500687
 21
218.2710840980114
  0
LINE
  8
0
  6
CONTINUOUS
 62
     7
 10
145.1983620133045
 20
251.06934336103
 11
143.0461914458917
 21
251.06934336103
  0
LINE
  8
0
  6
CONTINUOUS
 62
     7
 10
153.8678066716664
 20
257.5037761068902
 11
154.25346372548
 21
257.5033820135807
  0
LINE
  8
0
  6
CONTINUOUS
 62
     7
 10
141.7356402127556
 20
258.2634222023573
 11
143.4325464303063
 21
258.5641926245675
  0
LINE
  8
0
  6
CONTINUOUS
 62
     7
 10
136.8123004358082
 20
245.577486295958
 11
136.5151695062301
 21
244.7710840980114
  0
POLYLINE
  8
0
  6
CONTINUOUS
 62
     7
 66
     1
  0
VERTEX
  8
0
  6
CONTINUOUS
 62
     7
 10
122.4196862937827
 20
229.9710840980114
  0
VERTEX
  8
0
  6
CONTINUOUS
 62
     7
 10
122.4210233798379
 20
229.8735389370033
  0
VERTEX
  8
0
  6
CONTINUOUS
 62
     7
 10
122.4249832545362
 20
229.7797423818289
  0
VERTEX
  8
0
  6
CONTINUOUS
 62
     7
 10
122.4314137421137
 20
229.6932989815016
  0
VERTEX
  8
0
  6
CONTINUOUS
 62
     7
 10
122.440067722539
 20
229.6175307074181
  0
VERTEX
  8
0
  6
CONTINUOUS
 62
     7
 10
122.4506126281975
 20
229.5553492918601
  0
VERTEX
  8
0
  6
CONTINUOUS
 62
     7
 10
122.4626432242786
 20
229.5091443317557
  0
VERTEX
  8
0
  6
CONTINUOUS
 62
     7
 10
122.4756971817216
 20
229.4806914578098
  0
VERTEX
  8
0
  6
CONTINUOUS
 62
     7
 10
122.4892728442628
 20
229.4710840980114
  0
SEQEND
  8
0
  6
CONTINUOUS
 62
     7
  0
POLYLINE
  8
0
  6
CONTINUOUS
 62
     7
 66
     1
  0
VERTEX
  8
0
  6
CONTINUOUS
 62
     7
 10
128.7627576470913
 20
234.7710840980114
  0
VERTEX
  8
0
  6
CONTINUOUS
 62
     7
 10
128.9002201968094
 20
234.86961181189
  0
VERTEX
  8
0
  6
CONTINUOUS
 62
     7
 10
129.0322651982204
 20
235.1613118693649
  0
VERTEX
  8
0
  6
CONTINUOUS
 62
     7
 10
129.1536886144772
 20
235.6346880545157
  0
VERTEX
  8
0
  6
CONTINUOUS
 62
     7
 10
129.2597050169336
 20
236.2710840980113
  0
SEQEND
  8
0
  6
CONTINUOUS
 62
     7
  0
LINE
  8
0
  6
CONTINUOUS
 62
     7
 10
123.6722442024234
 20
218.2710840980114
 11
123.6722442024234
 21
223.2710840980114
  0
LINE
  8
0
  6
CONTINUOUS
 62
     7
 10
141.5746965604095
 20
246.8530344315992
 11
141.576859994683
 21
246.8534607043304
  0
LINE
  8
0
  6
CONTINUOUS
 62
     7
 10
152.2916086088485
 20
246.2367970611637
 11
152.3234562273323
 21
246.2783337673932
  0
LINE
  8
0
  6
CONTINUOUS
 62
     7
 10
150.9501181002649
 20
222.8260120436311
 11
150.0441205286666
 21
221.8891872781616
  0
LINE
  8
0
  6
CONTINUOUS
 62
     7
 10
143.9719749023689
 20
258.6287393626632
 11
143.4325464303064
 21
258.5641926245676
  0
LINE
  8
0
  6
CONTINUOUS
 62
     7
 10
176.1323852371039
 20
244.6302489149692
 11
176.1370827004393
 21
244.6252071497361
  0
LINE
  8
0
  6
CONTINUOUS
 62
     7
 10
137.7065421037117
 20
249.2578842793139
 11
137.7106336324502
 21
249.2654191252599
  0
POLYLINE
  8
0
  6
CONTINUOUS
 62
     7
 66
     1
  0
VERTEX
  8
0
  6
CONTINUOUS
 62
     7
 10
129.7530257158328
 20
243.2710840980114
  0
VERTEX
  8
0
  6
CONTINUOUS
 62
     7
 10
129.6579960780449
 20
243.2038325794227
  0
VERTEX
  8
0
  6
CONTINUOUS
 62
     7
 10
129.5666183759438
 20
243.0046624618009
  0
VERTEX
  8
0
  6
CONTINUOUS
 62
     7
 10
129.4824042033763
 20
242.6812277410703
  0
VERTEX
  8
0
  6
CONTINUOUS
 62
     7
 10
129.4085898637662
 20
242.2459578321643
  0
VERTEX
  8
0
  6
CONTINUOUS
 62
     7
 10
129.3480120007891
 20
241.71557991358
  0
VERTEX
  8
0
  6
CONTINUOUS
 62
     7
 10
129.3029985877469
 20
241.1104761112892
  0
VERTEX
  8
0
  6
CONTINUOUS
 62
     7
 10
129.2752794648589
 20
240.4539002250678
  0
VERTEX
  8
0
  6
CONTINUOUS
 62
     7
 10
129.2659198624726
 20
239.7710840980114
  0
SEQEND
  8
0
  6
CONTINUOUS
 62
     7
  0
POLYLINE
  8
0
  6
CONTINUOUS
 62
     7
 66
     1
  0
VERTEX
  8
0
  6
CONTINUOUS
 62
     7
 10
128.275651793731
 20
239.7710840980114
  0
VERTEX
  8
0
  6
CONTINUOUS
 62
     7
 10
128.2850113961173
 20
239.0882679709549
  0
VERTEX
  8
0
  6
CONTINUOUS
 62
     7
 10
128.3127305190053
 20
238.4316920847336
  0
VERTEX
  8
0
  6
CONTINUOUS
 62
     7
 10
128.3577439320475
 20
237.8265882824428
  0
VERTEX
  8
0
  6
CONTINUOUS
 62
     7
 10
128.4183217950246
 20
237.2962103638585
  0
VERTEX
  8
0
  6
CONTINUOUS
 62
     7
 10
128.4921361346347
 20
236.8609404549525
  0
VERTEX
  8
0
  6
CONTINUOUS
 62
     7
 10
128.5763503072022
 20
236.5375057342219
  0
VERTEX
  8
0
  6
CONTINUOUS
 62
     7
 10
128.6677280093033
 20
236.3383356166001
  0
VERTEX
  8
0
  6
CONTINUOUS
 62
     7
 10
128.7627576470913
 20
236.2710840980114
  0
SEQEND
  8
0
  6
CONTINUOUS
 62
     7
  0
LINE
  8
0
  6
CONTINUOUS
 62
     7
 10
123.0807585233431
 20
258.2252680421099
 11
122.4886655947598
 21
258.1881407763384
  0
LINE
  8
0
  6
CONTINUOUS
 62
     7
 10
127.4406131879706
 20
234.6881788539992
 11
127.4399870852808
 21
234.6881407763384
  0
LINE
  8
0
  6
CONTINUOUS
 62
     7
 10
145.6027955032973
 20
258.7458039304512
 11
146.5719593766903
 21
259.0207976120996
  0
POLYLINE
  8
0
  6
CONTINUOUS
 62
     7
 66
     1
  0
VERTEX
  8
0
  6
CONTINUOUS
 62
     7
 10
129.2597050169336
 20
243.2710840980114
  0
VERTEX
  8
0
  6
CONTINUOUS
 62
     7
 10
129.1536886144772
 20
243.9074801415071
  0
VERTEX
  8
0
  6
CONTINUOUS
 62
     7
 10
129.0322651982204
 20
244.3808563266579
  0
VERTEX
  8
0
  6
CONTINUOUS
 62
     7
 10
128.9002201968094
 20
244.6725563841328
  0
VERTEX
  8
0
  6
CONTINUOUS
 62
     7
 10
128.7627576470912
 20
244.7710840980114
  0
SEQEND
  8
0
  6
CONTINUOUS
 62
     7
  0
LINE
  8
0
  6
CONTINUOUS
 62
     7
 10
128.4137553687285
 20
262.7710840980114
 11
128.2676236127126
 21
262.7686638607106
  0
POLYLINE
  8
0
  6
CONTINUOUS
 62
     7
 66
     1
  0
VERTEX
  8
0
  6
CONTINUOUS
 62
     7
 10
160.238193767821
 20
220.2338270421288
  0
VERTEX
  8
0
  6
CONTINUOUS
 62
     7
 10
167.4267320580972
 20
223.4246293898667
  0
VERTEX
  8
0
  6
CONTINUOUS
 62
     7
 10
173.8255905600134
 20
228.0205887235268
  0
VERTEX
  8
0
  6
CONTINUOUS
 62
     7
 10
179.169116613537
 20
233.8309008829572
  0
SEQEND
  8
0
  6
CONTINUOUS
 62
     7
  0
LINE
  8
0
  6
CONTINUOUS
 62
     7
 10
154.25346372548
 20
257.5033820135807
 11
154.4963328907114
 21
257.5292436814202
  0
LINE
  8
0
  6
CONTINUOUS
 62
     7
 10
161.3156200090562
 20
225.4287794050916
 11
161.4662919247138
 21
224.8609379667401
  0
LINE
  8
0
  6
CONTINUOUS
 62
     7
 10
157.0094454768071
 20
257.6920116554257
 11
155.778906666602
 21
257.6646326871833
  0
LINE
  8
0
  6
CONTINUOUS
 62
     7
 10
95.40126472893373
 20
258.1881407763384
 11
95.40126472893373
 21
257.6881598148063
  0
LINE
  8
0
  6
CONTINUOUS
 62
     7
 10
43.37653910148009
 20
244.2751409044252
 11
42.44034584101371
 21
244.1932346072651
  0
POLYLINE
  8
0
  6
CONTINUOUS
 62
     7
 66
     1
  0
VERTEX
  8
0
  6
CONTINUOUS
 62
     7
 10
76.5026192802378
 20
257.0501272336217
  0
VERTEX
  8
0
  6
CONTINUOUS
 62
     7
 10
76.01757046787054
 20
257.3204266979857
  0
VERTEX
  8
0
  6
CONTINUOUS
 62
     7
 10
75.48481812675682
 20
257.4769858293195
  0
SEQEND
  8
0
  6
CONTINUOUS
 62
     7
  0
LINE
  8
0
  6
CONTINUOUS
 62
     7
 10
76.54737217821426
 20
257.0853278323663
 11
81.65621849379502
 21
250.5901065550788
  0
LINE
  8
0
  6
CONTINUOUS
 62
     7
 10
86.90143668361412
 20
258.2339949099007
 11
86.40138372772813
 21
258.2383583437961
  0
LINE
  8
0
  6
CONTINUOUS
 62
     7
 10
75.97236301948378
 20
258.3463655240302
 11
76.83672307306367
 21
258.2710840980114
  0
LINE
  8
0
  6
CONTINUOUS
 62
     7
 10
86.90143668361412
 20
258.2339949099007
 11
85.40126472893373
 21
258.2339949099007
  0
LINE
  8
0
  6
CONTINUOUS
 62
     7
 10
58.96903030711744
 20
225.4287794050916
 11
58.54073599621864
 21
223.8303632762247
  0
ARC
  8
0
  6
CONTINUOUS
 62
     7
 10
71.90126472893374
 20
257.2710840980114
 40
38.98909141526153
 50
217.0356126762447
 51
251.7621295587085
  0
POLYLINE
  8
0
  6
CONTINUOUS
 62
     7
 66
     1
  0
VERTEX
  8
0
  6
CONTINUOUS
 62
     7
 10
42.4403458410137
 20
244.1932346072651
  0
VERTEX
  8
0
  6
CONTINUOUS
 62
     7
 10
42.34750661712911
 20
244.1761676466236
  0
VERTEX
  8
0
  6
CONTINUOUS
 62
     7
 10
42.25953033076059
 20
244.141955768043
  0
VERTEX
  8
0
  6
CONTINUOUS
 62
     7
 10
42.17955252886092
 20
244.0918183109163
  0
VERTEX
  8
0
  6
CONTINUOUS
 62
     7
 10
42.11042368584075
 20
244.027542215309
  0
VERTEX
  8
0
  6
CONTINUOUS
 62
     7
 10
42.0546076103243
 20
243.95141833395
  0
VERTEX
  8
0
  6
CONTINUOUS
 62
     7
 10
42.01409363299061
 20
243.8661597843633
  0
SEQEND
  8
0
  6
CONTINUOUS
 62
     7
  0
POLYLINE
  8
0
  6
CONTINUOUS
 62
     7
 66
     1
  0
VERTEX
  8
0
  6
CONTINUOUS
 62
     7
 10
128.7627576470913
 20
243.2710840980114
  0
VERTEX
  8
0
  6
CONTINUOUS
 62
     7
 10
128.6677280093033
 20
243.2038325794227
  0
VERTEX
  8
0
  6
CONTINUOUS
 62
     7
 10
128.5763503072022
 20
243.0046624618009
  0
VERTEX
  8
0
  6
CONTINUOUS
 62
     7
 10
128.4921361346347
 20
242.6812277410703
  0
VERTEX
  8
0
  6
CONTINUOUS
 62
     7
 10
128.4183217950246
 20
242.2459578321643
  0
VERTEX
  8
0
  6
CONTINUOUS
 62
     7
 10
128.3577439320475
 20
241.71557991358
  0
VERTEX
  8
0
  6
CONTINUOUS
 62
     7
 10
128.3127305190053
 20
241.1104761112892
  0
VERTEX
  8
0
  6
CONTINUOUS
 62
     7
 10
128.2850113961173
 20
240.4539002250678
  0
VERTEX
  8
0
  6
CONTINUOUS
 62
     7
 10
128.275651793731
 20
239.7710840980114
  0
SEQEND
  8
0
  6
CONTINUOUS
 62
     7
  0
LINE
  8
0
  6
CONTINUOUS
 62
     7
 10
95.40126472893371
 20
253.2710840980114
 11
95.40126472893371
 21
257.6881598148063
  0
LINE
  8
0
  6
CONTINUOUS
 62
     7
 10
75.48481812675682
 20
257.4769858293195
 11
68.6821885956857
 21
258.6764729554115
  0
ARC
  8
0
  6
CONTINUOUS
 62
     7
 10
44.76038078106226
 20
236.7924997102132
 40
4.989091415261551
 50
158.7699024191082
 51
217.0356126762447
  0
ARC
  8
0
  6
CONTINUOUS
 62
     7
 10
65.84070995517413
 20
247.3997038071631
 40
1.000000000000019
 50
180.0
 51
214.9999999999998
  0
LINE
  8
0
  6
CONTINUOUS
 62
     7
 10
45.38051368410687
 20
239.7873148705769
 11
44.38588076810322
 21
240.1493316460237
  0
POLYLINE
  8
0
  6
CONTINUOUS
 62
     7
 66
     1
  0
VERTEX
  8
0
  6
CONTINUOUS
 62
     7
 10
129.7530257158328
 20
236.2710840980114
  0
VERTEX
  8
0
  6
CONTINUOUS
 62
     7
 10
129.8480553536209
 20
236.3383356166001
  0
VERTEX
  8
0
  6
CONTINUOUS
 62
     7
 10
129.9394330557219
 20
236.5375057342219
  0
VERTEX
  8
0
  6
CONTINUOUS
 62
     7
 10
130.0236472282894
 20
236.8609404549525
  0
VERTEX
  8
0
  6
CONTINUOUS
 62
     7
 10
130.0974615678995
 20
237.2962103638585
  0
VERTEX
  8
0
  6
CONTINUOUS
 62
     7
 10
130.1580394308766
 20
237.8265882824428
  0
VERTEX
  8
0
  6
CONTINUOUS
 62
     7
 10
130.2030528439188
 20
238.4316920847336
  0
VERTEX
  8
0
  6
CONTINUOUS
 62
     7
 10
130.2307719668068
 20
239.0882679709549
  0
VERTEX
  8
0
  6
CONTINUOUS
 62
     7
 10
130.2401315691931
 20
239.7710840980114
  0
VERTEX
  8
0
  6
CONTINUOUS
 62
     7
 10
130.2307719668068
 20
240.4539002250678
  0
VERTEX
  8
0
  6
CONTINUOUS
 62
     7
 10
130.2030528439188
 20
241.1104761112892
  0
VERTEX
  8
0
  6
CONTINUOUS
 62
     7
 10
130.1580394308766
 20
241.71557991358
  0
VERTEX
  8
0
  6
CONTINUOUS
 62
     7
 10
130.0974615678995
 20
242.2459578321643
  0
VERTEX
  8
0
  6
CONTINUOUS
 62
     7
 10
130.0236472282894
 20
242.6812277410703
  0
VERTEX
  8
0
  6
CONTINUOUS
 62
     7
 10
129.9394330557219
 20
243.0046624618009
  0
VERTEX
  8
0
  6
CONTINUOUS
 62
     7
 10
129.8480553536209
 20
243.2038325794227
  0
VERTEX
  8
0
  6
CONTINUOUS
 62
     7
 10
129.7530257158328
 20
243.2710840980114
  0
SEQEND
  8
0
  6
CONTINUOUS
 62
     7
  0
ARC
  8
0
  6
CONTINUOUS
 62
     7
 10
60.32164307278685
 20
222.1297642266621
 40
1.989091415261575
 50
251.7621295587089
 51
295.0000000000001
  0
ARC
  8
0
  6
CONTINUOUS
 62
     7
 10
71.90126472893374
 20
257.2710840980114
 40
34.20000000000003
 50
248.1445494001401
 51
248.2097201735744
  0
ARC
  8
0
  6
CONTINUOUS
 62
     7
 10
65.84070995517413
 20
247.3997038071631
 40
1.000000000000001
 50
144.9999999999992
 51
180.0
  0
ARC
  8
0
  6
CONTINUOUS
 62
     7
 10
65.84070995517413
 20
247.3997038071631
 40
1.000000000000019
 50
123.263498424062
 51
144.9999999999993
  0
ARC
  8
0
  6
CONTINUOUS
 62
     7
 10
67.90126472893374
 20
239.7710840980114
 40
15.5
 50
18.81906336898787
 51
22.00000000000001
  0
ARC
  8
0
  6
CONTINUOUS
 62
     7
 10
67.90126472893374
 20
239.7710840980114
 40
15.49999999999999
 50
22.00000000000011
 51
27.82278446142425
  0
ARC
  8
0
  6
CONTINUOUS
 62
     7
 10
45.72253382743254
 20
240.7270074913629
 40
0.9999999999999939
 50
270.0
 51
359.9999999987371
  0
POLYLINE
  8
0
  6
CONTINUOUS
 62
     7
 66
     1
  0
VERTEX
  8
0
  6
CONTINUOUS
 62
     7
 10
68.68218859568569
 20
258.6764729554115
  0
VERTEX
  8
0
  6
CONTINUOUS
 62
     7
 10
68.12801839365763
 20
258.711567594374
  0
VERTEX
  8
0
  6
CONTINUOUS
 62
     7
 10
67.5797736774448
 20
258.62346565809
  0
SEQEND
  8
0
  6
CONTINUOUS
 62
     7
  0
ARC
  8
0
  6
CONTINUOUS
 62
     7
 10
74.89079885879255
 20
233.6031139808109
 40
15.50000000000001
 50
69.3231174828824
 51
124.3219789983042
  0
ARC
  8
0
  6
CONTINUOUS
 62
     7
 10
67.90126472893374
 20
239.7710840980114
 40
15.5
 50
273.699071063165
 51
341.1809366310119
  0
TEXT
  8
0
  6
CONTINUOUS
 62
     7
 10
98.40527551855553
 20
166.6880716865486
 40
3.0
  1
GTFT-TMW
  0
ENDSEC
  0
EOF
