  0
SECTION
  2
HEADER
  9
$ACADVER
  1
AC1004
  9
$INSBASE
 10
0.0
 20
0.0
  9
$EXTMIN
 10
37.55805271654354
 20
86.11782860804112
  9
$EXTMAX
 10
171.0373584497562
 20
267.1791394866279
  9
$LIMMIN
 10
0.0
 20
0.0
  9
$LIMMAX
 10
12.0
 20
9.0
  9
$ORTHOMODE
 70
     0
  9
$REGENMODE
 70
     1
  9
$FILLMODE
 70
     1
  9
$QTEXTMODE
 70
     0
  9
$DRAGMODE
 70
     2
  9
$LTSCALE
 40
1.0
  9
$OSMODE
 70
    37
  9
$ATTMODE
 70
     1
  9
$TEXTSIZE
 40
0.2
  9
$TRACEWID
 40
0.05
  9
$TEXTSTYLE
  7
STANDARD
  9
$CLAYER
  8
0
  9
$CELTYPE
  6
BYLAYER
  9
$CECOLOR
 62
   256
  9
$DIMSCALE
 40
1.0
  9
$DIMASZ
 40
3.0
  9
$DIMEXO
 40
0.0625
  9
$DIMDLI
 40
0.38
  9
$DIMRND
 40
0.0
  9
$DIMDLE
 40
0.0
  9
$DIMEXE
 40
1.5
  9
$DIMTP
 40
0.0
  9
$DIMTM
 40
0.0
  9
$DIMTXT
 40
3.0
  9
$DIMCEN
 40
0.09
  9
$DIMTSZ
 40
0.0
  9
$DIMTOL
 70
     0
  9
$DIMLIM
 70
     0
  9
$DIMTIH
 70
     1
  9
$DIMTOH
 70
     1
  9
$DIMSE1
 70
     0
  9
$DIMSE2
 70
     0
  9
$DIMTAD
 70
     1
  9
$DIMZIN
 70
     0
  9
$DIMBLK
  1

  9
$DIMASO
 70
     1
  9
$DIMSHO
 70
     1
  9
$DIMPOST
  1

  9
$DIMAPOST
  1

  9
$DIMALT
 70
     0
  9
$DIMALTD
 70
     2
  9
$DIMALTF
 40
25.4
  9
$DIMLFAC
 40
1.0
  9
$DIMTOFL
 70
     0
  9
$DIMTVP
 40
0.0
  9
$DIMTIX
 70
     0
  9
$DIMSOXD
 70
     0
  9
$DIMSAH
 70
     0
  9
$DIMBLK1
  1

  9
$DIMBLK2
  1

  9
$LUNITS
 70
     2
  9
$LUPREC
 70
     4
  9
$SKETCHINC
 40
0.1
  9
$FILLETRAD
 40
0.5
  9
$AUNITS
 70
     0
  9
$AUPREC
 70
     0
  9
$MENU
  1
.
  9
$ELEVATION
 40
0.0
  9
$THICKNESS
 40
0.0
  9
$LIMCHECK
 70
     0
  9
$CHAMFERA
 40
0.0
  9
$CHAMFERB
 40
0.0
  9
$SKPOLY
 70
     0
  9
$TDCREATE
 40
2459976.605083541
  9
$TDUPDATE
 40
2459976.605083623
  9
$TDINDWG
 40
0.0000000116
  9
$TDUSRTIMER
 40
0.0000000116
  9
$USRTIMER
 70
     1
  9
$ANGBASE
 50
0.0
  9
$ANGDIR
 70
     0
  9
$PDMODE
 70
     0
  9
$PDSIZE
 40
0.0
  9
$PLINEWID
 40
0.0
  9
$COORDS
 70
     1
  9
$SPLFRAME
 70
     0
  9
$SPLINETYPE
 70
     6
  9
$SPLINESEGS
 70
     8
  9
$ATTDIA
 70
     0
  9
$ATTREQ
 70
     1
  9
$SURFTAB1
 70
     6
  9
$SURFTAB2
 70
     6
  9
$SURFTYPE
 70
     6
  9
$SURFU
 70
     6
  9
$SURFV
 70
     6
  9
$UCSNAME
  2

  9
$UCSORG
 10
0.0
 20
0.0
 30
0.0
  9
$UCSXDIR
 10
1.0
 20
0.0
 30
0.0
  9
$UCSYDIR
 10
0.0
 20
1.0
 30
0.0
  9
$USERI1
 70
     0
  9
$USERI2
 70
     0
  9
$USERI3
 70
     0
  9
$USERI4
 70
     0
  9
$USERI5
 70
     0
  9
$USERR1
 40
0.0
  9
$USERR2
 40
0.0
  9
$USERR3
 40
0.0
  9
$USERR4
 40
0.0
  9
$USERR5
 40
0.0
  9
$WORLDVIEW
 70
     1
  0
ENDSEC
  0
SECTION
  2
TABLES
  0
TABLE
  2
LTYPE
 70
     2
  0
LTYPE
  2
CONTINUOUS
 70
     0
  3
Solid line
 72
    65
 73
     0
 40
0.0
  0
LTYPE
  2
CENTER
 70
     0
  3

 72
    65
 73
     0
 40
0.0
  0
ENDTAB
  0
TABLE
  2
LAYER
 70
     1
  0
LAYER
  2
0
 70
     0
 62
     7
  6
CONTINUOUS
  0
ENDTAB
  0
TABLE
  2
STYLE
 70
     2
  0
STYLE
  2
STANDARD
 70
     0
 40
0.0
 41
1.0
 50
0.0
 71
     0
 42
0.2
  3
txt
  4

  0
STYLE
  2
ＭＳ_ゴシック
 70
     0
 40
0.0
 41
1.0
 50
0.0
 71
     0
 42
0.2
  3
ＭＳ ゴシック.shx
  4

  0
ENDTAB
  0
TABLE
  2
VIEW
 70
     0
  0
ENDTAB
  0
ENDSEC
  0
SECTION
  2
BLOCKS
  0
ENDSEC
  0
SECTION
  2
ENTITIES
  0
LINE
  8
0
  6
CONTINUOUS
 62
     7
 10
56.46297703019167
 20
102.2459562364227
 11
61.82653638771338
 21
100.2937802805648
  0
LINE
  8
0
  6
CONTINUOUS
 62
     7
 10
113.8581234636917
 20
158.9938117561248
 11
113.1673459985834
 21
158.5868431740271
  0
LINE
  8
0
  6
CONTINUOUS
 62
     7
 10
74.73659897403344
 20
119.2447718510767
 11
76.49877353833028
 21
118.7725985996507
  0
ARC
  8
0
  6
CONTINUOUS
 62
     7
 10
58.13459300699425
 20
122.389004341023
 40
18.49999999999999
 50
162.5079910416751
 51
263.4329562209527
  0
LINE
  8
0
  6
CONTINUOUS
 62
     7
 10
113.1673459985834
 20
158.5868431740271
 11
113.7679976523944
 21
158.2334605304163
  0
LINE
  8
0
  6
CONTINUOUS
 62
     7
 10
117.5516048635424
 20
158.9762038857558
 11
118.2406949038712
 21
159.3820214990923
  0
ARC
  8
0
  6
CONTINUOUS
 62
     7
 10
60.55805271654356
 20
128.1331273323658
 40
13.5
 50
5.710338532519074
 51
64.04542787790916
  0
LINE
  8
0
  6
CONTINUOUS
 62
     7
 10
73.99106075346246
 20
129.4763678469692
 11
78.05805271654356
 21
129.1331273323658
  0
LINE
  8
0
  6
CONTINUOUS
 62
     7
 10
58.1345930069943
 20
107.9235281995335
 11
58.1345930069943
 21
106.889004341023
  0
LINE
  8
0
  6
CONTINUOUS
 62
     7
 10
56.01882665242695
 20
104.0103881599042
 11
56.13590220728991
 21
102.6722084444458
  0
LINE
  8
0
  6
CONTINUOUS
 62
     7
 10
62.77564918307827
 20
160.5673903273629
 11
62.45798193851953
 21
160.7561040005517
  0
ARC
  8
0
  6
CONTINUOUS
 62
     7
 10
58.13459300699425
 20
122.389004341023
 40
15.49999999999999
 50
270.0000000000002
 51
275.1027207559484
  0
LINE
  8
0
  6
CONTINUOUS
 62
     7
 10
80.33022497770803
 20
120.6904692355029
 11
79.36297904247603
 21
122.7647348374427
  0
LINE
  8
0
  6
CONTINUOUS
 62
     7
 10
98.20404096018193
 20
157.2331273323658
 11
131.2040409601819
 21
157.2331273323658
  0
LINE
  8
0
  6
CONTINUOUS
 62
     7
 10
117.5283082231766
 20
160.8282074430326
 11
117.7631591608631
 21
160.966681594251
  0
LINE
  8
0
  6
CONTINUOUS
 62
     7
 10
65.97691545604607
 20
141.5452832593759
 11
66.35855694899503
 21
142.489879101292
  0
LINE
  8
0
  6
CONTINUOUS
 62
     7
 10
131.2040409601819
 20
155.6331273323658
 11
98.20404096018193
 21
155.6331273323658
  0
LINE
  8
0
  6
CONTINUOUS
 62
     7
 10
62.38390882691684
 20
160.3352062422338
 11
62.77564918307827
 21
160.5673903273629
  0
LINE
  8
0
  6
CONTINUOUS
 62
     7
 10
118.2406949038712
 20
159.3820214990923
 11
117.6039009383574
 21
159.7568677625899
  0
LINE
  8
0
  6
CONTINUOUS
 62
     7
 10
117.7631591608631
 20
160.966681594251
 11
117.6038536899464
 21
161.0625328957126
  0
LINE
  8
0
  6
CONTINUOUS
 62
     7
 10
113.3263095469554
 20
160.1683889500254
 11
113.8040801417801
 21
159.8847117814203
  0
ARC
  8
0
  6
CONTINUOUS
 62
     7
 10
43.05805271654356
 20
132.1331273323658
 40
34.20000000000002
 50
337.861145022935
 51
344.7451536649767
  0
ARC
  8
0
  6
CONTINUOUS
 62
     7
 10
58.13459300699425
 20
122.389004341023
 40
15.49999999999999
 50
165.6930125353714
 51
195.0000000000002
  0
POLYLINE
  8
0
  6
CONTINUOUS
 62
     7
 66
     1
  0
VERTEX
  8
0
  6
CONTINUOUS
 62
     7
 10
41.72559866718251
 20
127.9246508101198
  0
VERTEX
  8
0
  6
CONTINUOUS
 62
     7
 10
41.86840823791182
 20
127.4927093562407
  0
VERTEX
  8
0
  6
CONTINUOUS
 62
     7
 10
42.08713334740526
 20
127.0938001249255
  0
VERTEX
  8
0
  6
CONTINUOUS
 62
     7
 10
42.37453094673952
 20
126.7411329350427
  0
VERTEX
  8
0
  6
CONTINUOUS
 62
     7
 10
42.72108390787542
 20
126.4463863072518
  0
VERTEX
  8
0
  6
CONTINUOUS
 62
     7
 10
43.11531618191378
 20
126.2193207315579
  0
SEQEND
  8
0
  6
CONTINUOUS
 62
     7
  0
ARC
  8
0
  6
CONTINUOUS
 62
     7
 10
43.05805271654353
 20
132.1331273323658
 40
38.98909141526154
 50
307.0356126762447
 51
342.9333716021123
  0
LINE
  8
0
  6
CONTINUOUS
 62
     7
 10
43.29383949643881
 20
136.8185865138632
 11
41.70567115646492
 21
127.8116362808769
  0
LINE
  8
0
  6
CONTINUOUS
 62
     7
 10
113.8312602271369
 20
160.4656325664237
 11
113.3263095469554
 21
160.1683889500254
  0
LINE
  8
0
  6
CONTINUOUS
 62
     7
 10
62.40642676121316
 20
158.5791326336088
 11
63.09470841807542
 21
158.984434308874
  0
LINE
  8
0
  6
CONTINUOUS
 62
     7
 10
43.29383949643881
 20
136.8185865138632
 11
50.94302717714415
 21
142.8350904375105
  0
ARC
  8
0
  6
CONTINUOUS
 62
     7
 10
66.72602283374404
 20
135.1226614622246
 40
16.49999999999999
 50
155.1143864643836
 51
162.9262783435047
  0
ARC
  8
0
  6
CONTINUOUS
 62
     7
 10
51.50388558751329
 20
138.0443968467033
 40
1.999999999999991
 50
105.9820094943586
 51
169.1347961683543
  0
LINE
  8
0
  6
CONTINUOUS
 62
     7
 10
63.09470841807542
 20
158.984434308874
 11
62.45789956436514
 21
159.3593595791191
  0
LINE
  8
0
  6
CONTINUOUS
 62
     7
 10
43.16274269951371
 20
118.3773091419339
 11
44.16201601236135
 21
118.6450636191293
  0
ARC
  8
0
  6
CONTINUOUS
 62
     7
 10
76.65394221666008
 20
121.5014902193408
 40
2.989091415261543
 50
25.0
 51
57.20322926920176
  0
LINE
  8
0
  6
CONTINUOUS
 62
     7
 10
82.05805271654357
 20
155.6331273323658
 11
82.05805271654357
 21
133.1331273323658
  0
LINE
  8
0
  6
CONTINUOUS
 62
     7
 10
67.55805271654357
 20
150.6331273323658
 11
67.55805271654357
 21
144.1721422647113
  0
LINE
  8
0
  6
CONTINUOUS
 62
     7
 10
76.45805271654355
 20
145.6331273323658
 11
75.34969250147861
 21
145.6331273323658
  0
LINE
  8
0
  6
CONTINUOUS
 62
     7
 10
39.05805271654356
 20
155.6331273323658
 11
39.05805271654356
 21
206.2743533135372
  0
LINE
  8
0
  6
CONTINUOUS
 62
     7
 10
119.1040409601819
 20
157.2331273323658
 11
119.016552296656
 21
158.2331273323658
  0
LINE
  8
0
  6
CONTINUOUS
 62
     7
 10
133.2040409601819
 20
224.1791394866279
 11
133.2040409601819
 21
267.1791394866279
  0
ARC
  8
0
  6
CONTINUOUS
 62
     7
 10
43.05805271654353
 20
132.1331273323658
 40
36.01090858473842
 50
305.2779951016369
 51
338.2218716755331
  0
ARC
  8
0
  6
CONTINUOUS
 62
     7
 10
60.55805271654356
 20
128.1331273323658
 40
17.49999999999999
 50
44.75382269791743
 51
66.42182152179811
  0
LINE
  8
0
  6
CONTINUOUS
 62
     7
 10
82.05805271654356
 20
155.6331273323658
 11
82.05805271654356
 21
206.2743533135372
  0
LINE
  8
0
  6
CONTINUOUS
 62
     7
 10
114.8380155563975
 20
147.6331273323658
 11
113.0040409601819
 21
147.6331273323658
  0
LINE
  8
0
  6
CONTINUOUS
 62
     7
 10
39.05805271654356
 20
205.6331273323658
 11
82.05805271654356
 21
205.6331273323658
  0
LINE
  8
0
  6
CONTINUOUS
 62
     7
 10
118.4040409601819
 20
147.6331273323658
 11
116.5700663639664
 21
147.6331273323658
  0
ARC
  8
0
  6
CONTINUOUS
 62
     7
 10
43.05805271654356
 20
132.1331273323658
 40
31.99999999999999
 50
15.98206742290468
 51
35.31877290301151
  0
LINE
  8
0
  6
CONTINUOUS
 62
     7
 10
77.05805271654357
 20
155.6331273323658
 11
76.45805271654355
 21
145.6331273323658
  0
LINE
  8
0
  6
CONTINUOUS
 62
     7
 10
118.4040409601819
 20
155.6331273323658
 11
118.4040409601819
 21
147.6331273323658
  0
LINE
  8
0
  6
CONTINUOUS
 62
     7
 10
69.16839549483738
 20
150.6331273323658
 11
67.55805271654357
 21
150.6331273323658
  0
LINE
  8
0
  6
CONTINUOUS
 62
     7
 10
78.30596325344582
 20
115.467772485554
 11
75.49434524966286
 21
116.491117749058
  0
LINE
  8
0
  6
CONTINUOUS
 62
     7
 10
103.2040409601819
 20
224.1791394866279
 11
165.6114423006111
 21
224.1791394866279
  0
LINE
  8
0
  6
CONTINUOUS
 62
     7
 10
39.05805271654356
 20
155.6331273323658
 11
82.05805271654356
 21
155.6331273323658
  0
LINE
  8
0
  6
CONTINUOUS
 62
     7
 10
103.2040409601819
 20
267.1791394866279
 11
165.6114423006111
 21
267.1791394866279
  0
LINE
  8
0
  6
CONTINUOUS
 62
     7
 10
113.0040409601819
 20
147.6331273323658
 11
113.0040409601819
 21
155.6331273323658
  0
LINE
  8
0
  6
CONTINUOUS
 62
     7
 10
112.3915296237079
 20
158.2331273323658
 11
112.3040409601819
 21
157.2331273323658
  0
LINE
  8
0
  6
CONTINUOUS
 62
     7
 10
39.05805271654356
 20
157.2331273323658
 11
82.05805271654357
 21
157.2331273323658
  0
LINE
  8
0
  6
CONTINUOUS
 62
     7
 10
77.76609739458131
 20
115.6642675886773
 11
77.80331346672273
 21
115.6506350376753
  0
LINE
  8
0
  6
CONTINUOUS
 62
     7
 10
62.38413725508704
 20
160.3353442740681
 11
62.26415338864565
 21
160.2801137214264
  0
ARC
  8
0
  6
CONTINUOUS
 62
     7
 10
117.8139461238457
 20
-113.4147602856729
 40
279.275246899337
 50
101.4730488075233
 51
102.200931196017
  0
POLYLINE
  8
0
  6
CONTINUOUS
 62
     7
 66
     1
  0
VERTEX
  8
0
  6
CONTINUOUS
 62
     7
 10
58.79172502946965
 20
159.5523456955648
  0
VERTEX
  8
0
  6
CONTINUOUS
 62
     7
 10
58.6999697630397
 20
159.4997443587874
  0
VERTEX
  8
0
  6
CONTINUOUS
 62
     7
 10
58.65805271654356
 20
159.4331273323658
  0
SEQEND
  8
0
  6
CONTINUOUS
 62
     7
  0
LINE
  8
0
  6
CONTINUOUS
 62
     7
 10
58.25568154776843
 20
159.8715250619596
 11
58.05805271654356
 21
159.7795374938796
  0
LINE
  8
0
  6
CONTINUOUS
 62
     7
 10
62.45805271654356
 20
159.3309045382332
 11
62.38467777938246
 21
159.2601533351436
  0
ARC
  8
0
  6
CONTINUOUS
 62
     7
 10
31.01636158374746
 20
328.629307096835
 40
172.2494746201009
 50
279.2840953158479
 51
280.4926734701612
  0
POLYLINE
  8
0
  6
CONTINUOUS
 62
     7
 66
     1
  0
VERTEX
  8
0
  6
CONTINUOUS
 62
     7
 10
58.80534770441987
 20
158.6362079507642
  0
VERTEX
  8
0
  6
CONTINUOUS
 62
     7
 10
58.70645270865403
 20
158.5929607703307
  0
VERTEX
  8
0
  6
CONTINUOUS
 62
     7
 10
58.70471386494972
 20
158.5919187606702
  0
SEQEND
  8
0
  6
CONTINUOUS
 62
     7
  0
ARC
  8
0
  6
CONTINUOUS
 62
     7
 10
36.27534058220646
 20
337.776412741747
 40
178.9984621340828
 50
277.2272700258966
 51
278.3964323310345
  0
LINE
  8
0
  6
CONTINUOUS
 62
     7
 10
62.41295175722259
 20
160.6965586407501
 11
62.45805271654167
 21
160.7389569065983
  0
LINE
  8
0
  6
CONTINUOUS
 62
     7
 10
58.05805271654356
 20
159.7795374938796
 11
58.65805271654356
 21
159.4331273323658
  0
LINE
  8
0
  6
CONTINUOUS
 62
     7
 10
62.45805271654356
 20
162.6331273323658
 11
58.65805271654356
 21
162.6331273323658
  0
LINE
  8
0
  6
CONTINUOUS
 62
     7
 10
57.24554138006948
 20
158.2331273323658
 11
63.87056405301764
 21
158.2331273323658
  0
LINE
  8
0
  6
CONTINUOUS
 62
     7
 10
60.50144280573639
 20
158.2331287498411
 11
62.41054513153227
 21
158.5815725067089
  0
LINE
  8
0
  6
CONTINUOUS
 62
     7
 10
42.05805271654354
 20
207.2361922852942
 11
39.05805271654356
 21
206.2743533135372
  0
LINE
  8
0
  6
CONTINUOUS
 62
     7
 10
79.05805271654356
 20
207.2361922852942
 11
42.05805271654355
 21
207.2361922852942
  0
LINE
  8
0
  6
CONTINUOUS
 62
     7
 10
82.05805271654356
 20
206.2743533135372
 11
79.05805271654356
 21
207.2361922852942
  0
LINE
  8
0
  6
CONTINUOUS
 62
     7
 10
115.7040409601819
 20
99.99224338449436
 11
125.7040409601819
 21
100.0795120624019
  0
LINE
  8
0
  6
CONTINUOUS
 62
     7
 10
70.85805271654357
 20
155.6331273323658
 11
70.85805271654357
 21
153.3971815083691
  0
LINE
  8
0
  6
CONTINUOUS
 62
     7
 10
119.7040409601819
 20
130.9669592343996
 11
119.7040409601819
 21
152.0509525501802
  0
LINE
  8
0
  6
CONTINUOUS
 62
     7
 10
105.7040409601819
 20
100.0795120624019
 11
115.7040409601819
 21
99.99224338449436
  0
ARC
  8
0
  6
CONTINUOUS
 62
     7
 10
66.72602283374404
 20
135.1226614622246
 40
15.5
 50
156.5624906010465
 51
163.0897892536879
  0
ARC
  8
0
  6
CONTINUOUS
 62
     7
 10
43.05805271654356
 20
132.1331273323658
 40
35.00000000000001
 50
22.688091150871
 51
37.41215846729875
  0
LINE
  8
0
  6
CONTINUOUS
 62
     7
 10
40.64596907607172
 20
128.5880474326698
 11
42.05805271654356
 21
136.6331273323655
  0
ARC
  8
0
  6
CONTINUOUS
 62
     7
 10
60.55805271654356
 20
128.9083233799478
 40
14.76836162756942
 50
66.8733078432071
 51
123.0451945999121
  0
LINE
  8
0
  6
CONTINUOUS
 62
     7
 10
42.05805271654356
 20
136.6331273323655
 11
42.05805271654356
 21
155.6331273323658
  0
ARC
  8
0
  6
CONTINUOUS
 62
     7
 10
63.53663710434172
 20
104.9922433844944
 40
5.000000000000002
 50
250.0
 51
311.0896701973062
  0
LINE
  8
0
  6
CONTINUOUS
 62
     7
 10
111.7040409601819
 20
152.0509525501802
 11
111.7040409601819
 21
130.9669592343996
  0
LINE
  8
0
  6
CONTINUOUS
 62
     7
 10
125.7040409601819
 20
115.6642675886773
 11
125.7040409601819
 21
100.0795120624019
  0
LINE
  8
0
  6
CONTINUOUS
 62
     7
 10
114.4540409601819
 20
124.0864914290155
 11
114.4540409601819
 21
100.0031519692328
  0
LINE
  8
0
  6
CONTINUOUS
 62
     7
 10
103.7040409601819
 20
115.7222136622292
 11
105.7040409601819
 21
115.6206025126056
  0
LINE
  8
0
  6
CONTINUOUS
 62
     7
 10
125.7040409601819
 20
155.6331273323658
 11
125.7040409601819
 21
124.7032846182165
  0
LINE
  8
0
  6
CONTINUOUS
 62
     7
 10
127.7040409601819
 20
124.0864914290155
 11
127.7040409601819
 21
115.6714080197919
  0
LINE
  8
0
  6
CONTINUOUS
 62
     7
 10
105.7040409601819
 20
124.0863158243939
 11
105.7040409601819
 21
155.6331273323658
  0
LINE
  8
0
  6
CONTINUOUS
 62
     7
 10
105.7040409601819
 20
100.0795120624019
 11
105.7040409601819
 21
115.6642675886773
  0
LINE
  8
0
  6
CONTINUOUS
 62
     7
 10
127.7040409601819
 20
124.0864914290155
 11
103.7040409601819
 21
124.0864914290155
  0
LINE
  8
0
  6
CONTINUOUS
 62
     7
 10
116.9540409601819
 20
124.0864914290155
 11
116.9540409601819
 21
100.0031519692328
  0
LINE
  8
0
  6
CONTINUOUS
 62
     7
 10
125.7040409601819
 20
115.6206023162646
 11
127.7040409601819
 21
115.7222137233192
  0
LINE
  8
0
  6
CONTINUOUS
 62
     7
 10
103.7040409601819
 20
115.7222136622292
 11
103.7040409601819
 21
124.0864914290155
  0
TEXT
  8
0
  6
CONTINUOUS
 62
     7
 10
87.56608221811842
 20
85.7905558807684
 40
3.0
  1
ＧＴＦＺ－ＴＭ
  0
POLYLINE
  8
0
  6
CONTINUOUS
 62
     7
 66
     1
  0
VERTEX
  8
0
  6
CONTINUOUS
 62
     7
 10
73.82118610943112
 20
140.9438948273918
  0
VERTEX
  8
0
  6
CONTINUOUS
 62
     7
 10
73.82723734641978
 20
140.9206258365494
  0
VERTEX
  8
0
  6
CONTINUOUS
 62
     7
 10
73.8321675616507
 20
140.8970229258448
  0
VERTEX
  8
0
  6
CONTINUOUS
 62
     7
 10
73.83596750016277
 20
140.8731689865638
  0
VERTEX
  8
0
  6
CONTINUOUS
 62
     7
 10
73.83862790699492
 20
140.8491469099921
  0
VERTEX
  8
0
  6
CONTINUOUS
 62
     7
 10
73.84013952718598
 20
140.8250395874155
  0
VERTEX
  8
0
  6
CONTINUOUS
 62
     7
 10
73.8404931057749
 20
140.8009299101197
  0
VERTEX
  8
0
  6
CONTINUOUS
 62
     7
 10
73.83967938780053
 20
140.7769007693903
  0
VERTEX
  8
0
  6
CONTINUOUS
 62
     7
 10
73.8376881773812
 20
140.7529399838529
  0
VERTEX
  8
0
  6
CONTINUOUS
 62
     7
 10
73.83452796263225
 20
140.7290351229479
  0
VERTEX
  8
0
  6
CONTINUOUS
 62
     7
 10
73.83021744820827
 20
140.7052675684452
  0
VERTEX
  8
0
  6
CONTINUOUS
 62
     7
 10
73.82477533876383
 20
140.6817187021146
  0
VERTEX
  8
0
  6
CONTINUOUS
 62
     7
 10
73.81822033895348
 20
140.6584699057262
  0
VERTEX
  8
0
  6
CONTINUOUS
 62
     7
 10
73.81057115343181
 20
140.6356025610497
  0
VERTEX
  8
0
  6
CONTINUOUS
 62
     7
 10
73.80184648685336
 20
140.6131980498552
  0
VERTEX
  8
0
  6
CONTINUOUS
 62
     7
 10
73.79203706303483
 20
140.591257494478
  0
VERTEX
  8
0
  6
CONTINUOUS
 62
     7
 10
73.78114332153439
 20
140.5697567365113
  0
VERTEX
  8
0
  6
CONTINUOUS
 62
     7
 10
73.76920987557035
 20
140.5487663561875
  0
VERTEX
  8
0
  6
CONTINUOUS
 62
     7
 10
73.75628133836105
 20
140.528356933739
  0
VERTEX
  8
0
  6
CONTINUOUS
 62
     7
 10
73.74240232312482
 20
140.5085990493983
  0
VERTEX
  8
0
  6
CONTINUOUS
 62
     7
 10
73.72761744307994
 20
140.4895632833978
  0
VERTEX
  8
0
  6
CONTINUOUS
 62
     7
 10
73.71197131144478
 20
140.4713202159699
  0
VERTEX
  8
0
  6
CONTINUOUS
 62
     7
 10
73.69545856751891
 20
140.4538769572791
  0
VERTEX
  8
0
  6
CONTINUOUS
 62
     7
 10
73.67806900408175
 20
140.4372072669685
  0
VERTEX
  8
0
  6
CONTINUOUS
 62
     7
 10
73.65986805520913
 20
140.4213628704731
  0
VERTEX
  8
0
  6
CONTINUOUS
 62
     7
 10
73.64092115497685
 20
140.4063954932279
  0
VERTEX
  8
0
  6
CONTINUOUS
 62
     7
 10
73.62129373746068
 20
140.3923568606678
  0
VERTEX
  8
0
  6
CONTINUOUS
 62
     7
 10
73.60105123673644
 20
140.3792986982278
  0
VERTEX
  8
0
  6
CONTINUOUS
 62
     7
 10
73.58025908687992
 20
140.3672727313428
  0
VERTEX
  8
0
  6
CONTINUOUS
 62
     7
 10
73.55890976634
 20
140.3562850177773
  0
VERTEX
  8
0
  6
CONTINUOUS
 62
     7
 10
73.53698961817942
 20
140.3463169494866
  0
VERTEX
  8
0
  6
CONTINUOUS
 62
     7
 10
73.51457744199658
 20
140.3373955777594
  0
VERTEX
  8
0
  6
CONTINUOUS
 62
     7
 10
73.49175203738989
 20
140.3295479538845
  0
VERTEX
  8
0
  6
CONTINUOUS
 62
     7
 10
73.46859220395777
 20
140.3228011291506
  0
VERTEX
  8
0
  6
CONTINUOUS
 62
     7
 10
73.44517674129861
 20
140.3171821548465
  0
VERTEX
  8
0
  6
CONTINUOUS
 62
     7
 10
73.42158444901082
 20
140.312718082261
  0
VERTEX
  8
0
  6
CONTINUOUS
 62
     7
 10
73.39780113568118
 20
140.3094159901365
  0
VERTEX
  8
0
  6
CONTINUOUS
 62
     7
 10
73.37381674501698
 20
140.3072647145027
  0
VERTEX
  8
0
  6
CONTINUOUS
 62
     7
 10
73.34971452711011
 20
140.3062636553477
  0
VERTEX
  8
0
  6
CONTINUOUS
 62
     7
 10
73.3255777320524
 20
140.3064122126598
  0
VERTEX
  8
0
  6
CONTINUOUS
 62
     7
 10
73.3014896099357
 20
140.3077097864273
  0
VERTEX
  8
0
  6
CONTINUOUS
 62
     7
 10
73.27753341085183
 20
140.3101557766383
  0
VERTEX
  8
0
  6
CONTINUOUS
 62
     7
 10
73.25379238489268
 20
140.313749583281
  0
VERTEX
  8
0
  6
CONTINUOUS
 62
     7
 10
73.23024676665517
 20
140.3185045084651
  0
VERTEX
  8
0
  6
CONTINUOUS
 62
     7
 10
73.20689221825323
 20
140.3244122090452
  0
VERTEX
  8
0
  6
CONTINUOUS
 62
     7
 10
73.1838070994416
 20
140.3314445660261
  0
VERTEX
  8
0
  6
CONTINUOUS
 62
     7
 10
73.16106976997503
 20
140.3395734604122
  0
VERTEX
  8
0
  6
CONTINUOUS
 62
     7
 10
73.1387585896083
 20
140.3487707732083
  0
VERTEX
  8
0
  6
CONTINUOUS
 62
     7
 10
73.11695191809613
 20
140.3590083854189
  0
VERTEX
  8
0
  6
CONTINUOUS
 62
     7
 10
73.09572811519332
 20
140.3702581780487
  0
VERTEX
  8
0
  6
CONTINUOUS
 62
     7
 10
73.07583644935464
 20
140.3820558449961
  0
VERTEX
  8
0
  6
CONTINUOUS
 62
     7
 10
73.05647262901648
 20
140.3947914690462
  0
VERTEX
  8
0
  6
CONTINUOUS
 62
     7
 10
73.03769560260267
 20
140.4084200823242
  0
VERTEX
  8
0
  6
CONTINUOUS
 62
     7
 10
73.01956431853708
 20
140.4228967169551
  0
VERTEX
  8
0
  6
CONTINUOUS
 62
     7
 10
73.00213772524354
 20
140.4381764050641
  0
VERTEX
  8
0
  6
CONTINUOUS
 62
     7
 10
72.9854747711459
 20
140.4542141787761
  0
SEQEND
  8
0
  6
CONTINUOUS
 62
     7
  0
LINE
  8
0
  6
CONTINUOUS
 62
     7
 10
51.75805271654356
 20
142.0659942765576
 11
51.75805271654356
 21
142.3637633484901
  0
ARC
  8
0
  6
CONTINUOUS
 62
     7
 10
66.72602283374404
 20
135.1226614622246
 40
17.50000000000001
 50
169.1347961683542
 51
213.263498424062
  0
ARC
  8
0
  6
CONTINUOUS
 62
     7
 10
52.92943300739191
 20
126.0725725586062
 40
0.9999999999999966
 50
213.263498424062
 51
234.9999999999993
  0
POLYLINE
  8
0
  6
CONTINUOUS
 62
     7
 66
     1
  0
VERTEX
  8
0
  6
CONTINUOUS
 62
     7
 10
50.98455362465791
 20
142.7822950608637
  0
VERTEX
  8
0
  6
CONTINUOUS
 62
     7
 10
51.00228898165028
 20
142.7933625597271
  0
VERTEX
  8
0
  6
CONTINUOUS
 62
     7
 10
51.02047906088148
 20
142.8036841863323
  0
VERTEX
  8
0
  6
CONTINUOUS
 62
     7
 10
51.03907622740027
 20
142.8132328921351
  0
VERTEX
  8
0
  6
CONTINUOUS
 62
     7
 10
51.06092307644436
 20
142.8232229100777
  0
VERTEX
  8
0
  6
CONTINUOUS
 62
     7
 10
51.08329295308113
 20
142.8321676728629
  0
VERTEX
  8
0
  6
CONTINUOUS
 62
     7
 10
51.10610588741344
 20
142.8400437438175
  0
VERTEX
  8
0
  6
CONTINUOUS
 62
     7
 10
51.1292819095441
 20
142.8468276862686
  0
VERTEX
  8
0
  6
CONTINUOUS
 62
     7
 10
51.15274104957594
 20
142.8524960635431
  0
VERTEX
  8
0
  6
CONTINUOUS
 62
     7
 10
51.17640333761179
 20
142.8570254389681
  0
VERTEX
  8
0
  6
CONTINUOUS
 62
     7
 10
51.20018880375447
 20
142.8603923758704
  0
VERTEX
  8
0
  6
CONTINUOUS
 62
     7
 10
51.22410877181339
 20
142.8625888706167
  0
VERTEX
  8
0
  6
CONTINUOUS
 62
     7
 10
51.24817635935128
 20
142.8636259115538
  0
VERTEX
  8
0
  6
CONTINUOUS
 62
     7
 10
51.27230834199644
 20
142.8635078566675
  0
VERTEX
  8
0
  6
CONTINUOUS
 62
     7
 10
51.29642149537722
 20
142.8622390639441
  0
VERTEX
  8
0
  6
CONTINUOUS
 62
     7
 10
51.32043259512199
 20
142.8598238913699
  0
VERTEX
  8
0
  6
CONTINUOUS
 62
     7
 10
51.34425841685908
 20
142.8562666969309
  0
VERTEX
  8
0
  6
CONTINUOUS
 62
     7
 10
51.36781573621683
 20
142.8515718386132
  0
VERTEX
  8
0
  6
CONTINUOUS
 62
     7
 10
51.39111506843584
 20
142.8457273374124
  0
VERTEX
  8
0
  6
CONTINUOUS
 62
     7
 10
51.41416989972108
 20
142.8387396795283
  0
VERTEX
  8
0
  6
CONTINUOUS
 62
     7
 10
51.43690312649859
 20
142.8306405463964
  0
VERTEX
  8
0
  6
CONTINUOUS
 62
     7
 10
51.45923764519441
 20
142.8214616194523
  0
VERTEX
  8
0
  6
CONTINUOUS
 62
     7
 10
51.48109635223458
 20
142.8112345801313
  0
VERTEX
  8
0
  6
CONTINUOUS
 62
     7
 10
51.50240214404513
 20
142.7999911098691
  0
VERTEX
  8
0
  6
CONTINUOUS
 62
     7
 10
51.52307791705211
 20
142.7877628901011
  0
VERTEX
  8
0
  6
CONTINUOUS
 62
     7
 10
51.54313154278313
 20
142.774533825488
  0
VERTEX
  8
0
  6
CONTINUOUS
 62
     7
 10
51.56257588615795
 20
142.7603067235897
  0
VERTEX
  8
0
  6
CONTINUOUS
 62
     7
 10
51.58134867025436
 20
142.7451370346147
  0
VERTEX
  8
0
  6
CONTINUOUS
 62
     7
 10
51.59938761815017
 20
142.7290802087716
  0
VERTEX
  8
0
  6
CONTINUOUS
 62
     7
 10
51.61663045292317
 20
142.712191696269
  0
VERTEX
  8
0
  6
CONTINUOUS
 62
     7
 10
51.63301489765117
 20
142.6945269473153
  0
VERTEX
  8
0
  6
CONTINUOUS
 62
     7
 10
51.64847867541197
 20
142.6761414121192
  0
VERTEX
  8
0
  6
CONTINUOUS
 62
     7
 10
51.66302388339908
 20
142.6570173330286
  0
VERTEX
  8
0
  6
CONTINUOUS
 62
     7
 10
51.67666363100842
 20
142.637153085519
  0
VERTEX
  8
0
  6
CONTINUOUS
 62
     7
 10
51.68935751559238
 20
142.6166216248516
  0
VERTEX
  8
0
  6
CONTINUOUS
 62
     7
 10
51.70106513450338
 20
142.5954959062881
  0
VERTEX
  8
0
  6
CONTINUOUS
 62
     7
 10
51.71174608509384
 20
142.5738488850897
  0
VERTEX
  8
0
  6
CONTINUOUS
 62
     7
 10
51.72135996471617
 20
142.551753516518
  0
VERTEX
  8
0
  6
CONTINUOUS
 62
     7
 10
51.72986637072277
 20
142.5292827558343
  0
VERTEX
  8
0
  6
CONTINUOUS
 62
     7
 10
51.73726056762311
 20
142.506422025818
  0
VERTEX
  8
0
  6
CONTINUOUS
 62
     7
 10
51.7435555206159
 20
142.4831626818493
  0
VERTEX
  8
0
  6
CONTINUOUS
 62
     7
 10
51.74873726083192
 20
142.4595869123786
  0
VERTEX
  8
0
  6
CONTINUOUS
 62
     7
 10
51.75279181940191
 20
142.4357769058568
  0
VERTEX
  8
0
  6
CONTINUOUS
 62
     7
 10
51.75570522745668
 20
142.4118148507343
  0
VERTEX
  8
0
  6
CONTINUOUS
 62
     7
 10
51.75746351612696
 20
142.3877829354619
  0
VERTEX
  8
0
  6
CONTINUOUS
 62
     7
 10
51.75805271654356
 20
142.3637633484901
  0
SEQEND
  8
0
  6
CONTINUOUS
 62
     7
  0
ARC
  8
0
  6
CONTINUOUS
 62
     7
 10
52.92943300739191
 20
126.0725725586062
 40
0.9999999999999887
 50
270.0
 51
305.0
  0
ARC
  8
0
  6
CONTINUOUS
 62
     7
 10
52.92943300739191
 20
126.0725725586062
 40
1.000000000000001
 50
234.9999999999993
 51
270.0
  0
ARC
  8
0
  6
CONTINUOUS
 62
     7
 10
59.60212932319212
 20
105.9543964308646
 40
1.000000000000001
 50
339.9999999999999
 51
359.9999999999996
  0
LINE
  8
0
  6
CONTINUOUS
 62
     7
 10
60.54182194397802
 20
105.612376287539
 11
60.1798051685313
 21
104.6177433715353
  0
POLYLINE
  8
0
  6
CONTINUOUS
 62
     7
 66
     1
  0
VERTEX
  8
0
  6
CONTINUOUS
 62
     7
 10
56.1359022072899
 20
102.6722084444458
  0
VERTEX
  8
0
  6
CONTINUOUS
 62
     7
 10
56.15296916793134
 20
102.5793692205612
  0
VERTEX
  8
0
  6
CONTINUOUS
 62
     7
 10
56.18718104651197
 20
102.4913929341927
  0
VERTEX
  8
0
  6
CONTINUOUS
 62
     7
 10
56.23731850363863
 20
102.411415132293
  0
VERTEX
  8
0
  6
CONTINUOUS
 62
     7
 10
56.30159459924596
 20
102.3422862892728
  0
VERTEX
  8
0
  6
CONTINUOUS
 62
     7
 10
56.37771848060492
 20
102.2864702137564
  0
VERTEX
  8
0
  6
CONTINUOUS
 62
     7
 10
56.46297703019167
 20
102.2459562364227
  0
SEQEND
  8
0
  6
CONTINUOUS
 62
     7
  0
ARC
  8
0
  6
CONTINUOUS
 62
     7
 10
59.60212932319212
 20
105.9543964308646
 40
1.000000000000001
 50
89.9999999987371
 51
95.10272075594904
  0
ARC
  8
0
  6
CONTINUOUS
 62
     7
 10
59.60212932319212
 20
105.9543964308646
 40
1.000000000000001
 50
359.9999999999997
 51
89.99999999873705
  0
ARC
  8
0
  6
CONTINUOUS
 62
     7
 10
52.92943300739191
 20
126.0725725586062
 40
1.000000000000006
 50
305.0
 51
16.57565557683085
  0
LINE
  8
0
  6
CONTINUOUS
 62
     7
 10
60.47863002849313
 20
103.9769113913269
 11
63.85503258576852
 21
102.7480013615783
  0
LINE
  8
0
  6
CONTINUOUS
 62
     9
 10
53.88787688157677
 20
126.3578537182322
 11
53.878959858821
 21
126.3531803322697
  0
LINE
  8
0
  6
CONTINUOUS
 62
     7
 10
40.49005371022374
 20
127.9496008022599
 11
40.64596907607172
 21
128.5880474326698
  0
POLYLINE
  8
0
  6
CONTINUOUS
 62
     7
 66
     1
  0
VERTEX
  8
0
  6
CONTINUOUS
 62
     7
 10
60.17980516853131
 20
104.6177433715353
  0
VERTEX
  8
0
  6
CONTINUOUS
 62
     7
 10
60.15547077147136
 20
104.5227967695217
  0
VERTEX
  8
0
  6
CONTINUOUS
 62
     7
 10
60.15012681434668
 20
104.4249284982329
  0
VERTEX
  8
0
  6
CONTINUOUS
 62
     7
 10
60.16397864258488
 20
104.3278992169606
  0
VERTEX
  8
0
  6
CONTINUOUS
 62
     7
 10
60.19649398964147
 20
104.2354373461967
  0
VERTEX
  8
0
  6
CONTINUOUS
 62
     7
 10
60.2464234297279
 20
104.1510958003724
  0
VERTEX
  8
0
  6
CONTINUOUS
 62
     7
 10
60.31184838790337
 20
104.0781154645449
  0
VERTEX
  8
0
  6
CONTINUOUS
 62
     7
 10
60.39025486270827
 20
104.0193006610386
  0
VERTEX
  8
0
  6
CONTINUOUS
 62
     7
 10
60.47863002849313
 20
103.9769113913269
  0
SEQEND
  8
0
  6
CONTINUOUS
 62
     7
  0
ARC
  8
0
  6
CONTINUOUS
 62
     7
 10
42.05805271654354
 20
151.1331273323658
 40
4.500000000000004
 50
89.9999999999999
 51
180.0
  0
ARC
  8
0
  6
CONTINUOUS
 62
     7
 10
77.50016578740895
 20
122.7399996736079
 40
1.49999999999999
 50
58.74967901113396
 51
164.7451536649765
  0
ARC
  8
0
  6
CONTINUOUS
 62
     7
 10
42.05805271654354
 20
151.1331273323658
 40
4.500000000000011
 50
180.0
 51
270.4166809169172
  0
ARC
  8
0
  6
CONTINUOUS
 62
     7
 10
78.05805271654356
 20
133.1331273323658
 40
4.000000000000004
 50
270.0
 51
0.0
  0
POLYLINE
  8
0
  6
CONTINUOUS
 62
     7
 66
     1
  0
VERTEX
  8
0
  6
CONTINUOUS
 62
     7
 10
53.88787688157677
 20
126.3578537182322
  0
VERTEX
  8
0
  6
CONTINUOUS
 62
     7
 10
53.8823672816541
 20
126.3778825241738
  0
VERTEX
  8
0
  6
CONTINUOUS
 62
     7
 10
53.87769035115704
 20
126.3981404079559
  0
VERTEX
  8
0
  6
CONTINUOUS
 62
     7
 10
53.87385709496028
 20
126.4185747342379
  0
VERTEX
  8
0
  6
CONTINUOUS
 62
     7
 10
53.8708785179385
 20
126.4391328676791
  0
VERTEX
  8
0
  6
CONTINUOUS
 62
     7
 10
53.86871123586283
 20
126.460398740398
  0
VERTEX
  8
0
  6
CONTINUOUS
 62
     7
 10
53.86745375202565
 20
126.4817573607334
  0
VERTEX
  8
0
  6
CONTINUOUS
 62
     7
 10
53.86710825760655
 20
126.5031501767263
  0
VERTEX
  8
0
  6
CONTINUOUS
 62
     7
 10
53.86767694378513
 20
126.5245186364174
  0
VERTEX
  8
0
  6
CONTINUOUS
 62
     7
 10
53.86910762944721
 20
126.5452420927698
  0
VERTEX
  8
0
  6
CONTINUOUS
 62
     7
 10
53.8713998416483
 20
126.5659060950279
  0
VERTEX
  8
0
  6
CONTINUOUS
 62
     7
 10
53.87454654142188
 20
126.5864573363652
  0
VERTEX
  8
0
  6
CONTINUOUS
 62
     7
 10
53.87854068980144
 20
126.6068425099551
  0
VERTEX
  8
0
  6
CONTINUOUS
 62
     7
 10
53.88353461685223
 20
126.6276269467723
  0
VERTEX
  8
0
  6
CONTINUOUS
 62
     7
 10
53.88941771641767
 20
126.648197767338
  0
VERTEX
  8
0
  6
CONTINUOUS
 62
     7
 10
53.89617267653789
 20
126.6684990000334
  0
VERTEX
  8
0
  6
CONTINUOUS
 62
     7
 10
53.90378218525301
 20
126.6884746732396
  0
VERTEX
  8
0
  6
CONTINUOUS
 62
     7
 10
53.91199183843531
 20
126.7075569828061
  0
VERTEX
  8
0
  6
CONTINUOUS
 62
     7
 10
53.9209947892344
 20
126.7262980224317
  0
VERTEX
  8
0
  6
CONTINUOUS
 62
     7
 10
53.93076675151034
 20
126.7446498194776
  0
VERTEX
  8
0
  6
CONTINUOUS
 62
     7
 10
53.9412834391232
 20
126.7625644013051
  0
VERTEX
  8
0
  6
CONTINUOUS
 62
     7
 10
53.9528757195752
 20
126.7805248153157
  0
VERTEX
  8
0
  6
CONTINUOUS
 62
     7
 10
53.96523636063352
 20
126.7979893342171
  0
VERTEX
  8
0
  6
CONTINUOUS
 62
     7
 10
53.97833050076587
 20
126.8149108699821
  0
VERTEX
  8
0
  6
CONTINUOUS
 62
     7
 10
53.99212327843993
 20
126.8312423345836
  0
VERTEX
  8
0
  6
CONTINUOUS
 62
     7
 10
54.00952593291947
 20
126.8499835723807
  0
VERTEX
  8
0
  6
CONTINUOUS
 62
     7
 10
54.02786346104211
 20
126.8678111196754
  0
VERTEX
  8
0
  6
CONTINUOUS
 62
     7
 10
54.0472986809437
 20
126.8848515980329
  0
VERTEX
  8
0
  6
CONTINUOUS
 62
     7
 10
54.0675879332839
 20
126.9008657141975
  0
VERTEX
  8
0
  6
CONTINUOUS
 62
     7
 10
54.08103374795344
 20
126.910581352133
  0
VERTEX
  8
0
  6
CONTINUOUS
 62
     7
 10
54.09479434699934
 20
126.91984577152
  0
SEQEND
  8
0
  6
CONTINUOUS
 62
     7
  0
LINE
  8
0
  6
CONTINUOUS
 62
     9
 10
54.09233975339127
 20
126.9182517397927
 11
54.05080304716174
 21
126.8881569634717
  0
POLYLINE
  8
0
  6
CONTINUOUS
 62
     7
 66
     1
  0
VERTEX
  8
0
  6
CONTINUOUS
 62
     7
 10
52.24520545914975
 20
139.0027847834897
  0
VERTEX
  8
0
  6
CONTINUOUS
 62
     7
 10
52.22892548398148
 20
139.0074439125066
  0
VERTEX
  8
0
  6
CONTINUOUS
 62
     7
 10
52.21281254981658
 20
139.012651448125
  0
VERTEX
  8
0
  6
CONTINUOUS
 62
     7
 10
52.1909789042555
 20
139.0206909840643
  0
VERTEX
  8
0
  6
CONTINUOUS
 62
     7
 10
52.16954264524116
 20
139.029736923216
  0
VERTEX
  8
0
  6
CONTINUOUS
 62
     7
 10
52.1483681103096
 20
139.03986333866
  0
VERTEX
  8
0
  6
CONTINUOUS
 62
     7
 10
52.12769181229609
 20
139.0509717101887
  0
VERTEX
  8
0
  6
CONTINUOUS
 62
     7
 10
52.10984597669247
 20
139.061604652248
  0
VERTEX
  8
0
  6
CONTINUOUS
 62
     7
 10
52.09244214456021
 20
139.0729794778384
  0
VERTEX
  8
0
  6
CONTINUOUS
 62
     7
 10
52.07552470603527
 20
139.0850658460176
  0
VERTEX
  8
0
  6
CONTINUOUS
 62
     7
 10
52.05913805125358
 20
139.0978334158438
  0
VERTEX
  8
0
  6
CONTINUOUS
 62
     7
 10
52.04284651704293
 20
139.1116733467445
  0
VERTEX
  8
0
  6
CONTINUOUS
 62
     7
 10
52.02714704077734
 20
139.1262102541534
  0
VERTEX
  8
0
  6
CONTINUOUS
 62
     7
 10
52.01208175736234
 20
139.1414034254811
  0
VERTEX
  8
0
  6
CONTINUOUS
 62
     7
 10
51.99769280170346
 20
139.1572121481385
  0
VERTEX
  8
0
  6
CONTINUOUS
 62
     7
 10
51.98437279908239
 20
139.1731520408996
  0
VERTEX
  8
0
  6
CONTINUOUS
 62
     7
 10
51.97171541747568
 20
139.189645676266
  0
VERTEX
  8
0
  6
CONTINUOUS
 62
     7
 10
51.95975250200633
 20
139.206649733358
  0
VERTEX
  8
0
  6
CONTINUOUS
 62
     7
 10
51.94851589779732
 20
139.2241208912963
  0
VERTEX
  8
0
  6
CONTINUOUS
 62
     7
 10
51.93772398208651
 20
139.2425724434523
  0
VERTEX
  8
0
  6
CONTINUOUS
 62
     7
 10
51.92772141878226
 20
139.2614857019931
  0
VERTEX
  8
0
  6
CONTINUOUS
 62
     7
 10
51.91853449185864
 20
139.2808083048242
  0
VERTEX
  8
0
  6
CONTINUOUS
 62
     7
 10
51.91018948528973
 20
139.3004878898512
  0
VERTEX
  8
0
  6
CONTINUOUS
 62
     7
 10
51.90289642543118
 20
139.3199378237095
  0
VERTEX
  8
0
  6
CONTINUOUS
 62
     7
 10
51.89641192643556
 20
139.3396909651136
  0
VERTEX
  8
0
  6
CONTINUOUS
 62
     7
 10
51.89075169948428
 20
139.3596958930513
  0
VERTEX
  8
0
  6
CONTINUOUS
 62
     7
 10
51.8859314557587
 20
139.3799011865104
  0
VERTEX
  8
0
  6
CONTINUOUS
 62
     7
 10
51.88185534334038
 20
139.4008844367378
  0
VERTEX
  8
0
  6
CONTINUOUS
 62
     7
 10
51.8786769171911
 20
139.4220420948452
  0
VERTEX
  8
0
  6
CONTINUOUS
 62
     7
 10
51.8764036467902
 20
139.443316048887
  0
VERTEX
  8
0
  6
CONTINUOUS
 62
     7
 10
51.87504300161704
 20
139.4646481869179
  0
VERTEX
  8
0
  6
CONTINUOUS
 62
     7
 10
51.87459899139086
 20
139.4854157463618
  0
VERTEX
  8
0
  6
CONTINUOUS
 62
     7
 10
51.87501835063792
 20
139.5062017878886
  0
VERTEX
  8
0
  6
CONTINUOUS
 62
     7
 10
51.87629888238565
 20
139.5269525858841
  0
VERTEX
  8
0
  6
CONTINUOUS
 62
     7
 10
51.87843838966153
 20
139.5476144147337
  0
VERTEX
  8
0
  6
CONTINUOUS
 62
     7
 10
51.88153761239132
 20
139.5687640616226
  0
VERTEX
  8
0
  6
CONTINUOUS
 62
     7
 10
51.88554166755637
 20
139.5897811434239
  0
VERTEX
  8
0
  6
CONTINUOUS
 62
     7
 10
51.89043836513003
 20
139.6106083500663
  0
VERTEX
  8
0
  6
CONTINUOUS
 62
     7
 10
51.89621551508565
 20
139.6311883714785
  0
SEQEND
  8
0
  6
CONTINUOUS
 62
     7
  0
ARC
  8
0
  6
CONTINUOUS
 62
     7
 10
66.72602283374404
 20
135.1226614622246
 40
13.49999999999999
 50
168.9545721220912
 51
209.045427877909
  0
POLYLINE
  8
0
  6
CONTINUOUS
 62
     7
 66
     1
  0
VERTEX
  8
0
  6
CONTINUOUS
 62
     7
 10
57.20355852423567
 20
108.9211472437742
  0
VERTEX
  8
0
  6
CONTINUOUS
 62
     7
 10
57.23795168744719
 20
108.9181721640885
  0
VERTEX
  8
0
  6
CONTINUOUS
 62
     7
 10
57.27222102816492
 20
108.9140121861727
  0
VERTEX
  8
0
  6
CONTINUOUS
 62
     7
 10
57.30649117331479
 20
108.9086427343114
  0
VERTEX
  8
0
  6
CONTINUOUS
 62
     7
 10
57.34055250856824
 20
108.9020887156548
  0
VERTEX
  8
0
  6
CONTINUOUS
 62
     7
 10
57.38108152919028
 20
108.8926703290148
  0
VERTEX
  8
0
  6
CONTINUOUS
 62
     7
 10
57.4212140691299
 20
108.8815657873047
  0
VERTEX
  8
0
  6
CONTINUOUS
 62
     7
 10
57.46084537319125
 20
108.8688072325666
  0
VERTEX
  8
0
  6
CONTINUOUS
 62
     7
 10
57.49987068617849
 20
108.8544268068426
  0
VERTEX
  8
0
  6
CONTINUOUS
 62
     7
 10
57.53937685850938
 20
108.8379363778167
  0
VERTEX
  8
0
  6
CONTINUOUS
 62
     7
 10
57.57816831860414
 20
108.8197576423592
  0
VERTEX
  8
0
  6
CONTINUOUS
 62
     7
 10
57.61613915115142
 20
108.799944533428
  0
VERTEX
  8
0
  6
CONTINUOUS
 62
     7
 10
57.65318344083987
 20
108.7785509839808
  0
VERTEX
  8
0
  6
CONTINUOUS
 62
     7
 10
57.68871303709284
 20
108.7559606873137
  0
VERTEX
  8
0
  6
CONTINUOUS
 62
     7
 10
57.72328107047426
 20
108.7318806296801
  0
VERTEX
  8
0
  6
CONTINUOUS
 62
     7
 10
57.75679757874221
 20
108.7063783263695
  0
VERTEX
  8
0
  6
CONTINUOUS
 62
     7
 10
57.78917259965478
 20
108.6795212926718
  0
VERTEX
  8
0
  6
CONTINUOUS
 62
     7
 10
57.82129067375589
 20
108.6504658896059
  0
VERTEX
  8
0
  6
CONTINUOUS
 62
     7
 10
57.85213934086679
 20
108.6200288718961
  0
VERTEX
  8
0
  6
CONTINUOUS
 62
     7
 10
57.88163518555029
 20
108.5882988885086
  0
VERTEX
  8
0
  6
CONTINUOUS
 62
     7
 10
57.9096947923692
 20
108.5553645884102
  0
VERTEX
  8
0
  6
CONTINUOUS
 62
     7
 10
57.935670700374
 20
108.5220826796399
  0
VERTEX
  8
0
  6
CONTINUOUS
 62
     7
 10
57.96023282603063
 20
108.4877146246807
  0
VERTEX
  8
0
  6
CONTINUOUS
 62
     7
 10
57.98331927329023
 20
108.4523539335303
  0
VERTEX
  8
0
  6
CONTINUOUS
 62
     7
 10
58.00486814610394
 20
108.4160941161863
  0
VERTEX
  8
0
  6
CONTINUOUS
 62
     7
 10
58.02542800472278
 20
108.377846561805
  0
VERTEX
  8
0
  6
CONTINUOUS
 62
     7
 10
58.0443206223732
 20
108.3387169891477
  0
VERTEX
  8
0
  6
CONTINUOUS
 62
     7
 10
58.0614969166222
 20
108.2988164961434
  0
VERTEX
  8
0
  6
CONTINUOUS
 62
     7
 10
58.0769078050368
 20
108.2582561807214
  0
VERTEX
  8
0
  6
CONTINUOUS
 62
     7
 10
58.09014279400292
 20
108.2183463831264
  0
VERTEX
  8
0
  6
CONTINUOUS
 62
     7
 10
58.10169637743197
 20
108.1778879796469
  0
VERTEX
  8
0
  6
CONTINUOUS
 62
     7
 10
58.11154145652782
 20
108.1369875197237
  0
VERTEX
  8
0
  6
CONTINUOUS
 62
     7
 10
58.11965093249438
 20
108.0957515527981
  0
VERTEX
  8
0
  6
CONTINUOUS
 62
     7
 10
58.12617317565531
 20
108.0529929722076
  0
VERTEX
  8
0
  6
CONTINUOUS
 62
     7
 10
58.13084423109574
 20
108.0099568163249
  0
VERTEX
  8
0
  6
CONTINUOUS
 62
     7
 10
58.13365415586046
 20
107.9667621903626
  0
VERTEX
  8
0
  6
CONTINUOUS
 62
     7
 10
58.1345930069943
 20
107.9235281995335
  0
SEQEND
  8
0
  6
CONTINUOUS
 62
     7
  0
LINE
  8
0
  6
CONTINUOUS
 62
     7
 10
58.65805271654356
 20
159.4331273323658
 11
58.65805271654356
 21
158.5643657702103
  0
LINE
  8
0
  6
CONTINUOUS
 62
     7
 10
58.65805271654356
 20
162.6331273323658
 11
58.65805271654356
 21
160.1259476553934
  0
LINE
  8
0
  6
CONTINUOUS
 62
     7
 10
62.45805271654356
 20
158.2331273323658
 11
62.45805271654356
 21
158.6096141450144
  0
LINE
  8
0
  6
CONTINUOUS
 62
     7
 10
113.8311630079352
 20
160.4655743443551
 11
113.9380036434843
 21
160.5059980807223
  0
ARC
  8
0
  6
CONTINUOUS
 62
     7
 10
90.62509321865623
 20
343.7451613276148
 40
184.7162221893284
 50
277.2505983504619
 51
278.3840640117371
  0
LINE
  8
0
  6
CONTINUOUS
 62
     7
 10
117.5581723513436
 20
161.0030151534775
 11
117.6040409601789
 21
161.0457818467215
  0
LINE
  8
0
  6
CONTINUOUS
 62
     7
 10
62.45805271654356
 20
159.3308990779596
 11
62.45805271654356
 21
160.3792437533094
  0
LINE
  8
0
  6
CONTINUOUS
 62
     7
 10
117.528595510946
 20
160.8283764680848
 11
117.4205719667749
 21
160.7782473442805
  0
ARC
  8
0
  6
CONTINUOUS
 62
     7
 10
218.8681349486762
 20
-332.9425101805098
 40
504.0355091120264
 50
101.6112740010798
 51
102.0147721217402
  0
POLYLINE
  8
0
  6
CONTINUOUS
 62
     7
 66
     1
  0
VERTEX
  8
0
  6
CONTINUOUS
 62
     7
 10
113.9461517293712
 20
160.0515789150366
  0
VERTEX
  8
0
  6
CONTINUOUS
 62
     7
 10
113.8491209295531
 20
159.9974870241015
  0
VERTEX
  8
0
  6
CONTINUOUS
 62
     7
 10
113.804040960184
 20
159.9286999813124
  0
SEQEND
  8
0
  6
CONTINUOUS
 62
     7
  0
LINE
  8
0
  6
CONTINUOUS
 62
     7
 10
117.6040409601808
 20
159.7284475913416
 11
117.5102387216998
 21
159.6483596375651
  0
ARC
  8
0
  6
CONTINUOUS
 62
     7
 10
77.16535499756615
 20
382.842450248804
 40
226.8111807792813
 50
279.334682402108
 51
280.2462258680555
  0
LINE
  8
0
  6
CONTINUOUS
 62
     7
 10
113.9543909504082
 20
159.0347681640456
 11
113.8539104357561
 21
158.9913141720694
  0
POLYLINE
  8
0
  6
CONTINUOUS
 62
     7
 66
     1
  0
VERTEX
  8
0
  6
CONTINUOUS
 62
     7
 10
52.75344583911111
 20
138.8666021841181
  0
VERTEX
  8
0
  6
CONTINUOUS
 62
     7
 10
52.7935920920614
 20
138.8549399533444
  0
VERTEX
  8
0
  6
CONTINUOUS
 62
     7
 10
52.83321759977456
 20
138.8416100782636
  0
VERTEX
  8
0
  6
CONTINUOUS
 62
     7
 10
52.87252360724289
 20
138.8265236647932
  0
VERTEX
  8
0
  6
CONTINUOUS
 62
     7
 10
52.91116357969296
 20
138.8097952203392
  0
VERTEX
  8
0
  6
CONTINUOUS
 62
     7
 10
52.94844682491941
 20
138.7917660984417
  0
VERTEX
  8
0
  6
CONTINUOUS
 62
     7
 10
52.98498764618643
 20
138.7721892713316
  0
VERTEX
  8
0
  6
CONTINUOUS
 62
     7
 10
53.02069395696981
 20
138.7511155905347
  0
VERTEX
  8
0
  6
CONTINUOUS
 62
     7
 10
53.05547367074532
 20
138.7285959075772
  0
VERTEX
  8
0
  6
CONTINUOUS
 62
     7
 10
53.09024401414167
 20
138.7039402198488
  0
VERTEX
  8
0
  6
CONTINUOUS
 62
     7
 10
53.1239702340563
 20
138.677795308166
  0
VERTEX
  8
0
  6
CONTINUOUS
 62
     7
 10
53.15656200730923
 20
138.6502325479443
  0
VERTEX
  8
0
  6
CONTINUOUS
 62
     7
 10
53.18792901072045
 20
138.6213233145994
  0
VERTEX
  8
0
  6
CONTINUOUS
 62
     7
 10
53.21684355428026
 20
138.5923386189389
  0
VERTEX
  8
0
  6
CONTINUOUS
 62
     7
 10
53.24457844126587
 20
138.5621605850291
  0
VERTEX
  8
0
  6
CONTINUOUS
 62
     7
 10
53.27106475294475
 20
138.5308650851013
  0
VERTEX
  8
0
  6
CONTINUOUS
 62
     7
 10
53.29623357058438
 20
138.4985279913872
  0
VERTEX
  8
0
  6
CONTINUOUS
 62
     7
 10
53.32070889057748
 20
138.4642198385685
  0
VERTEX
  8
0
  6
CONTINUOUS
 62
     7
 10
53.34374472610054
 20
138.4288676933935
  0
VERTEX
  8
0
  6
CONTINUOUS
 62
     7
 10
53.36528022216439
 20
138.3925660788694
  0
VERTEX
  8
0
  6
CONTINUOUS
 62
     7
 10
53.38525452377984
 20
138.3554095180037
  0
VERTEX
  8
0
  6
CONTINUOUS
 62
     7
 10
53.40307441841772
 20
138.3186674742564
  0
VERTEX
  8
0
  6
CONTINUOUS
 62
     7
 10
53.41939793146041
 20
138.2811853200678
  0
VERTEX
  8
0
  6
CONTINUOUS
 62
     7
 10
53.43418454794983
 20
138.2430575641952
  0
VERTEX
  8
0
  6
CONTINUOUS
 62
     7
 10
53.44739375292792
 20
138.2043787153961
  0
VERTEX
  8
0
  6
CONTINUOUS
 62
     7
 10
53.45931329493677
 20
138.1640634551169
  0
VERTEX
  8
0
  6
CONTINUOUS
 62
     7
 10
53.4695395221455
 20
138.1232350790895
  0
VERTEX
  8
0
  6
CONTINUOUS
 62
     7
 10
53.47804602898371
 20
138.0820031896112
  0
VERTEX
  8
0
  6
CONTINUOUS
 62
     7
 10
53.48480640988098
 20
138.0404773889794
  0
VERTEX
  8
0
  6
CONTINUOUS
 62
     7
 10
53.48970149048802
 20
137.9997712492596
  0
VERTEX
  8
0
  6
CONTINUOUS
 62
     7
 10
53.49292708766443
 20
137.958856032475
  0
VERTEX
  8
0
  6
CONTINUOUS
 62
     7
 10
53.49447627413303
 20
137.9178364344707
  0
VERTEX
  8
0
  6
CONTINUOUS
 62
     7
 10
53.49434212261666
 20
137.876817151092
  0
VERTEX
  8
0
  6
CONTINUOUS
 62
     7
 10
53.492441462732
 20
137.8346573660814
  0
VERTEX
  8
0
  6
CONTINUOUS
 62
     7
 10
53.48875990198932
 20
137.7925734475408
  0
VERTEX
  8
0
  6
CONTINUOUS
 62
     7
 10
53.4833095166451
 20
137.7506793739152
  0
VERTEX
  8
0
  6
CONTINUOUS
 62
     7
 10
53.4761023829558
 20
137.7090891236494
  0
SEQEND
  8
0
  6
CONTINUOUS
 62
     7
  0
LINE
  8
0
  6
CONTINUOUS
 62
     7
 10
113.8040409601829
 20
158.2407123783338
 11
113.8972711330646
 21
158.3203225860254
  0
ARC
  8
0
  6
CONTINUOUS
 62
     7
 10
81.85141907316756
 20
346.8931326356467
 40
191.2763480523804
 50
279.6446417032861
 51
280.7581530732785
  0
LINE
  8
0
  6
CONTINUOUS
 62
     7
 10
117.6040409601819
 20
162.6331273323658
 11
113.8040409601819
 21
162.6331273323658
  0
LINE
  8
0
  6
CONTINUOUS
 62
     7
 10
63.9420800117287
 20
157.4156961838163
 11
63.87056405301764
 21
158.2331273323658
  0
LINE
  8
0
  6
CONTINUOUS
 62
     7
 10
62.45805271654356
 20
160.7389611790908
 11
62.45805271654356
 21
162.6331273323658
  0
LINE
  8
0
  6
CONTINUOUS
 62
     7
 10
57.24554138006948
 20
158.2331273323658
 11
57.17402542135842
 21
157.4156961838163
  0
ARC
  8
0
  6
CONTINUOUS
 62
     7
 10
56.97478648174008
 20
157.4331273323658
 40
0.199999999999998
 50
270.0
 51
354.9999999999999
  0
ARC
  8
0
  6
CONTINUOUS
 62
     7
 10
64.14131895134705
 20
157.4331273323658
 40
0.2000000000000057
 50
185.0000000000001
 51
270.0
  0
POLYLINE
  8
0
  6
CONTINUOUS
 62
     7
 66
     1
  0
VERTEX
  8
0
  6
CONTINUOUS
 62
     7
 10
66.46644092481498
 20
140.2715353326087
  0
VERTEX
  8
0
  6
CONTINUOUS
 62
     7
 10
66.435666623644
 20
140.2871776841667
  0
VERTEX
  8
0
  6
CONTINUOUS
 62
     7
 10
66.40545099937958
 20
140.3038722695105
  0
VERTEX
  8
0
  6
CONTINUOUS
 62
     7
 10
66.37568770617328
 20
140.3216885609147
  0
VERTEX
  8
0
  6
CONTINUOUS
 62
     7
 10
66.34656176466342
 20
140.3405249419621
  0
VERTEX
  8
0
  6
CONTINUOUS
 62
     7
 10
66.31251210083596
 20
140.3644399563404
  0
VERTEX
  8
0
  6
CONTINUOUS
 62
     7
 10
66.27946169230263
 20
140.3897698221983
  0
VERTEX
  8
0
  6
CONTINUOUS
 62
     7
 10
66.24749562576885
 20
140.4164454959661
  0
VERTEX
  8
0
  6
CONTINUOUS
 62
     7
 10
66.21669898794
 20
140.4443979340743
  0
VERTEX
  8
0
  6
CONTINUOUS
 62
     7
 10
66.18624692624046
 20
140.4744868662578
  0
VERTEX
  8
0
  6
CONTINUOUS
 62
     7
 10
66.15708998490786
 20
140.5058734329901
  0
VERTEX
  8
0
  6
CONTINUOUS
 62
     7
 10
66.12930616326724
 20
140.5384679519296
  0
VERTEX
  8
0
  6
CONTINUOUS
 62
     7
 10
66.10297346064372
 20
140.5721807407347
  0
VERTEX
  8
0
  6
CONTINUOUS
 62
     7
 10
66.0784934667174
 20
140.606435720092
  0
VERTEX
  8
0
  6
CONTINUOUS
 62
     7
 10
66.05546309264142
 20
140.6417117739731
  0
VERTEX
  8
0
  6
CONTINUOUS
 62
     7
 10
66.03394045828134
 20
140.6779126028424
  0
VERTEX
  8
0
  6
CONTINUOUS
 62
     7
 10
66.01398368350273
 20
140.7149419071643
  0
VERTEX
  8
0
  6
CONTINUOUS
 62
     7
 10
65.99508866931919
 20
140.7539132501009
  0
VERTEX
  8
0
  6
CONTINUOUS
 62
     7
 10
65.9778881907571
 20
140.7936900756006
  0
VERTEX
  8
0
  6
CONTINUOUS
 62
     7
 10
65.96242638077567
 20
140.8341589417999
  0
VERTEX
  8
0
  6
CONTINUOUS
 62
     7
 10
65.9487473723341
 20
140.8752064068356
  0
VERTEX
  8
0
  6
CONTINUOUS
 62
     7
 10
65.93713055229114
 20
140.9157956017052
  0
VERTEX
  8
0
  6
CONTINUOUS
 62
     7
 10
65.92723144593906
 20
140.9568622415954
  0
VERTEX
  8
0
  6
CONTINUOUS
 62
     7
 10
65.91907241283333
 20
140.9982964388784
  0
VERTEX
  8
0
  6
CONTINUOUS
 62
     7
 10
65.91267581252947
 20
141.0399883059261
  0
VERTEX
  8
0
  6
CONTINUOUS
 62
     7
 10
65.90794082961915
 20
141.0831526794233
  0
VERTEX
  8
0
  6
CONTINUOUS
 62
     7
 10
65.90508209547816
 20
141.1265102865661
  0
VERTEX
  8
0
  6
CONTINUOUS
 62
     7
 10
65.90410350052915
 20
141.169939732545
  0
VERTEX
  8
0
  6
CONTINUOUS
 62
     7
 10
65.9050089351947
 20
141.2133196225509
  0
VERTEX
  8
0
  6
CONTINUOUS
 62
     7
 10
65.90768814043093
 20
141.2552812566505
  0
VERTEX
  8
0
  6
CONTINUOUS
 62
     7
 10
65.91213182911567
 20
141.2971216836685
  0
VERTEX
  8
0
  6
CONTINUOUS
 62
     7
 10
65.91832521269198
 20
141.3387319612955
  0
VERTEX
  8
0
  6
CONTINUOUS
 62
     7
 10
65.926253502603
 20
141.3800031472226
  0
VERTEX
  8
0
  6
CONTINUOUS
 62
     7
 10
65.93622383026295
 20
141.4220914880823
  0
VERTEX
  8
0
  6
CONTINUOUS
 62
     7
 10
65.94801453082376
 20
141.4637437251456
  0
VERTEX
  8
0
  6
CONTINUOUS
 62
     7
 10
65.96159020563495
 20
141.5048457012857
  0
VERTEX
  8
0
  6
CONTINUOUS
 62
     7
 10
65.97691545604607
 20
141.5452832593759
  0
SEQEND
  8
0
  6
CONTINUOUS
 62
     7
  0
LINE
  8
0
  6
CONTINUOUS
 62
     7
 10
54.59425374256003
 20
127.2441984954909
 11
54.09233975339127
 21
126.9182517397927
  0
POLYLINE
  8
0
  6
CONTINUOUS
 62
     7
 66
     1
  0
VERTEX
  8
0
  6
CONTINUOUS
 62
     7
 10
54.92384975073121
 20
128.5683719874907
  0
VERTEX
  8
0
  6
CONTINUOUS
 62
     7
 10
54.94008649818416
 20
128.5379071092376
  0
VERTEX
  8
0
  6
CONTINUOUS
 62
     7
 10
54.95526206780203
 20
128.506900735437
  0
VERTEX
  8
0
  6
CONTINUOUS
 62
     7
 10
54.96942372534415
 20
128.4752349602602
  0
VERTEX
  8
0
  6
CONTINUOUS
 62
     7
 10
54.98247819555886
 20
128.4430991464816
  0
VERTEX
  8
0
  6
CONTINUOUS
 62
     7
 10
54.99665295856808
 20
128.4039790287273
  0
VERTEX
  8
0
  6
CONTINUOUS
 62
     7
 10
55.00919765409072
 20
128.3642730817817
  0
VERTEX
  8
0
  6
CONTINUOUS
 62
     7
 10
55.02008218494272
 20
128.3240866665554
  0
VERTEX
  8
0
  6
CONTINUOUS
 62
     7
 10
55.02927645394001
 20
128.2835251439588
  0
VERTEX
  8
0
  6
CONTINUOUS
 62
     7
 10
55.03696302003858
 20
128.241411148621
  0
VERTEX
  8
0
  6
CONTINUOUS
 62
     7
 10
55.04284439304079
 20
128.1989770438146
  0
VERTEX
  8
0
  6
CONTINUOUS
 62
     7
 10
55.04690811931795
 20
128.1563410315878
  0
VERTEX
  8
0
  6
CONTINUOUS
 62
     7
 10
55.04914174524138
 20
128.1136213139892
  0
VERTEX
  8
0
  6
CONTINUOUS
 62
     7
 10
55.04954673332325
 20
128.0715201299434
  0
VERTEX
  8
0
  6
CONTINUOUS
 62
     7
 10
55.0481785980547
 20
128.029413998402
  0
VERTEX
  8
0
  6
CONTINUOUS
 62
     7
 10
55.04504496557346
 20
127.9874151395116
  0
VERTEX
  8
0
  6
CONTINUOUS
 62
     7
 10
55.04015346201723
 20
127.9456357734191
  0
VERTEX
  8
0
  6
CONTINUOUS
 62
     7
 10
55.03327830751112
 20
127.9028745832837
  0
VERTEX
  8
0
  6
CONTINUOUS
 62
     7
 10
55.02455306486858
 20
127.8604255261632
  0
VERTEX
  8
0
  6
CONTINUOUS
 62
     7
 10
55.0140066500655
 20
127.8184068418173
  0
VERTEX
  8
0
  6
CONTINUOUS
 62
     7
 10
55.00166797907781
 20
127.7769367700056
  0
VERTEX
  8
0
  6
CONTINUOUS
 62
     7
 10
54.9879029152165
 20
127.7370249138102
  0
VERTEX
  8
0
  6
CONTINUOUS
 62
     7
 10
54.97245693146026
 20
127.6977071976475
  0
VERTEX
  8
0
  6
CONTINUOUS
 62
     7
 10
54.95537474088759
 20
127.6590864611068
  0
VERTEX
  8
0
  6
CONTINUOUS
 62
     7
 10
54.93670105657697
 20
127.6212655437775
  0
VERTEX
  8
0
  6
CONTINUOUS
 62
     7
 10
54.91582165997976
 20
127.5831914843629
  0
VERTEX
  8
0
  6
CONTINUOUS
 62
     7
 10
54.89329449610178
 20
127.5460353092954
  0
VERTEX
  8
0
  6
CONTINUOUS
 62
     7
 10
54.86918600729749
 20
127.5098986908359
  0
VERTEX
  8
0
  6
CONTINUOUS
 62
     7
 10
54.84356263592135
 20
127.4748833012453
  0
VERTEX
  8
0
  6
CONTINUOUS
 62
     7
 10
54.81729975492469
 20
127.4420470718826
  0
VERTEX
  8
0
  6
CONTINUOUS
 62
     7
 10
54.78966101523007
 20
127.410322195677
  0
VERTEX
  8
0
  6
CONTINUOUS
 62
     7
 10
54.76072101765554
 20
127.379789430576
  0
VERTEX
  8
0
  6
CONTINUOUS
 62
     7
 10
54.73055436301917
 20
127.3505295345271
  0
VERTEX
  8
0
  6
CONTINUOUS
 62
     7
 10
54.69824626817207
 20
127.3217715290796
  0
VERTEX
  8
0
  6
CONTINUOUS
 62
     7
 10
54.66469715000326
 20
127.2944148819497
  0
VERTEX
  8
0
  6
CONTINUOUS
 62
     7
 10
54.63000148322762
 20
127.2685328013495
  0
VERTEX
  8
0
  6
CONTINUOUS
 62
     7
 10
54.59425374256003
 20
127.2441984954909
  0
SEQEND
  8
0
  6
CONTINUOUS
 62
     7
  0
LINE
  8
0
  6
CONTINUOUS
 62
     7
 10
58.70887669870125
 20
158.5943858668186
 11
58.09444030816285
 21
158.2324073709284
  0
LINE
  8
0
  6
CONTINUOUS
 62
     7
 10
52.24259596355697
 20
139.0034839957264
 11
52.75344583911111
 21
138.8666021841181
  0
LINE
  8
0
  6
CONTINUOUS
 62
     7
 10
58.83368684700261
 20
160.2250299252104
 11
58.25565124468111
 21
159.8715170837621
  0
POLYLINE
  8
0
  6
CONTINUOUS
 62
     7
 66
     1
  0
VERTEX
  8
0
  6
CONTINUOUS
 62
     7
 10
44.16201601236135
 20
118.6450636191293
  0
VERTEX
  8
0
  6
CONTINUOUS
 62
     7
 10
44.20261480266993
 20
118.6550369574897
  0
VERTEX
  8
0
  6
CONTINUOUS
 62
     7
 10
44.2435964365278
 20
118.663305700897
  0
VERTEX
  8
0
  6
CONTINUOUS
 62
     7
 10
44.2851796442519
 20
118.6698934873138
  0
VERTEX
  8
0
  6
CONTINUOUS
 62
     7
 10
44.3270070642222
 20
118.6747262156759
  0
VERTEX
  8
0
  6
CONTINUOUS
 62
     7
 10
44.36830986267255
 20
118.677754160718
  0
VERTEX
  8
0
  6
CONTINUOUS
 62
     7
 10
44.40974355572003
 20
118.6790705417486
  0
VERTEX
  8
0
  6
CONTINUOUS
 62
     7
 10
44.45120296833228
 20
118.678673354219
  0
VERTEX
  8
0
  6
CONTINUOUS
 62
     7
 10
44.49258292547697
 20
118.6765605935804
  0
VERTEX
  8
0
  6
CONTINUOUS
 62
     7
 10
44.53502277002072
 20
118.672593313358
  0
VERTEX
  8
0
  6
CONTINUOUS
 62
     7
 10
44.57730298908184
 20
118.6668142656182
  0
VERTEX
  8
0
  6
CONTINUOUS
 62
     7
 10
44.61930967278408
 20
118.6592401016943
  0
VERTEX
  8
0
  6
CONTINUOUS
 62
     7
 10
44.66092891125125
 20
118.6498874729193
  0
VERTEX
  8
0
  6
CONTINUOUS
 62
     7
 10
44.70046198834311
 20
118.6392432619363
  0
VERTEX
  8
0
  6
CONTINUOUS
 62
     7
 10
44.73957012199868
 20
118.6269757614269
  0
VERTEX
  8
0
  6
CONTINUOUS
 62
     7
 10
44.77815569072902
 20
118.6131162193047
  0
VERTEX
  8
0
  6
CONTINUOUS
 62
     7
 10
44.81612107304521
 20
118.5976958834836
  0
VERTEX
  8
0
  6
CONTINUOUS
 62
     7
 10
44.85447139833435
 20
118.5802218115822
  0
VERTEX
  8
0
  6
CONTINUOUS
 62
     7
 10
44.89209708968222
 20
118.5611238735439
  0
VERTEX
  8
0
  6
CONTINUOUS
 62
     7
 10
44.92889818361863
 20
118.5404535011996
  0
VERTEX
  8
0
  6
CONTINUOUS
 62
     7
 10
44.96477471667333
 20
118.5182621263804
  0
VERTEX
  8
0
  6
CONTINUOUS
 62
     7
 10
44.99857821999613
 20
118.4953525304272
  0
VERTEX
  8
0
  6
CONTINUOUS
 62
     7
 10
45.03145587406444
 20
118.4710537892326
  0
VERTEX
  8
0
  6
CONTINUOUS
 62
     7
 10
45.06332533751659
 20
118.4454274923024
  0
VERTEX
  8
0
  6
CONTINUOUS
 62
     7
 10
45.09410426899095
 20
118.4185352291423
  0
VERTEX
  8
0
  6
CONTINUOUS
 62
     7
 10
45.12458452531166
 20
118.3895809605848
  0
VERTEX
  8
0
  6
CONTINUOUS
 62
     7
 10
45.153854885873
 20
118.3593356633541
  0
VERTEX
  8
0
  6
CONTINUOUS
 62
     7
 10
45.18183768163151
 20
118.327881053039
  0
VERTEX
  8
0
  6
CONTINUOUS
 62
     7
 10
45.20845524354376
 20
118.2952988452279
  0
VERTEX
  8
0
  6
CONTINUOUS
 62
     7
 10
45.23304757756289
 20
118.2624938344442
  0
VERTEX
  8
0
  6
CONTINUOUS
 62
     7
 10
45.25629863505235
 20
118.2286730158955
  0
VERTEX
  8
0
  6
CONTINUOUS
 62
     7
 10
45.27815006889149
 20
118.1939235952051
  0
VERTEX
  8
0
  6
CONTINUOUS
 62
     7
 10
45.29854353195973
 20
118.1583327779959
  0
VERTEX
  8
0
  6
CONTINUOUS
 62
     7
 10
45.31797740472095
 20
118.1208710032163
  0
VERTEX
  8
0
  6
CONTINUOUS
 62
     7
 10
45.33583103886249
 20
118.0825844802981
  0
VERTEX
  8
0
  6
CONTINUOUS
 62
     7
 10
45.3520579035068
 20
118.0435779555981
  0
VERTEX
  8
0
  6
CONTINUOUS
 62
     7
 10
45.36661146777627
 20
118.0039561754736
  0
SEQEND
  8
0
  6
CONTINUOUS
 62
     7
  0
ARC
  8
0
  6
CONTINUOUS
 62
     7
 10
58.13459300699429
 20
122.389004341023
 40
13.5
 50
198.954572122091
 51
266.0454278779092
  0
ARC
  8
0
  6
CONTINUOUS
 62
     7
 10
115.7040409601819
 20
130.1331273323658
 40
1.000000000000001
 50
270.0
 51
0.0
  0
ARC
  8
0
  6
CONTINUOUS
 62
     7
 10
131.2040409601819
 20
159.2331273323658
 40
2.000000000000002
 50
270.0
 51
0.0
  0
LINE
  8
0
  6
CONTINUOUS
 62
     7
 10
136.8040409601819
 20
205.6331273323658
 11
163.2040409601819
 21
205.6331273323658
  0
ARC
  8
0
  6
CONTINUOUS
 62
     7
 10
131.2040409601819
 20
159.2331273323658
 40
3.599999999999992
 50
270.0
 51
0.0
  0
LINE
  8
0
  6
CONTINUOUS
 62
     7
 10
167.9400923489121
 20
207.2361922852942
 11
168.4530731338492
 21
205.7206558409006
  0
LINE
  8
0
  6
CONTINUOUS
 62
     7
 10
165.098461515674
 20
206.2743533135372
 11
167.9400923489121
 21
207.2361922852942
  0
LINE
  8
0
  6
CONTINUOUS
 62
     7
 10
112.3915296237079
 20
158.2331273323658
 11
119.016552296656
 21
158.2331273323658
  0
LINE
  8
0
  6
CONTINUOUS
 62
     7
 10
163.2040409601819
 20
204.0331273323658
 11
136.8040409601819
 21
204.0331273323658
  0
LINE
  8
0
  6
CONTINUOUS
 62
     7
 10
133.2040409601819
 20
159.2331273323658
 11
133.2040409601819
 21
202.0331273323658
  0
ARC
  8
0
  6
CONTINUOUS
 62
     7
 10
136.8040409601819
 20
202.0331273323658
 40
3.599999999999992
 50
90.0
 51
180.0
  0
LINE
  8
0
  6
CONTINUOUS
 62
     7
 10
114.8380155563975
 20
147.6331273323658
 11
115.7040409601819
 21
148.1331273323658
  0
ARC
  8
0
  6
CONTINUOUS
 62
     7
 10
115.7040409601819
 20
130.1331273323658
 40
1.000000000000001
 50
180.0
 51
269.9999999999998
  0
LINE
  8
0
  6
CONTINUOUS
 62
     7
 10
134.8040409601819
 20
202.0331273323658
 11
134.8040409601819
 21
159.2331273323658
  0
LINE
  8
0
  6
CONTINUOUS
 62
     7
 10
116.7040409601819
 20
147.6331273323658
 11
116.7040409601819
 21
133.1331273323658
  0
LINE
  8
0
  6
CONTINUOUS
 62
     7
 10
116.7040409601819
 20
133.1331273323658
 11
116.7040409601819
 21
130.1331273323658
  0
LINE
  8
0
  6
CONTINUOUS
 62
     7
 10
115.7040409601819
 20
148.1331273323658
 11
116.5700663639664
 21
147.6331273323658
  0
LINE
  8
0
  6
CONTINUOUS
 62
     7
 10
165.6114423006111
 20
204.7588168691435
 11
163.717021745119
 21
204.1175908879722
  0
LINE
  8
0
  6
CONTINUOUS
 62
     7
 10
98.20404096018193
 20
155.6331273323658
 11
98.20404096018193
 21
157.2331273323658
  0
ARC
  8
0
  6
CONTINUOUS
 62
     7
 10
163.2040409601819
 20
205.6331273323658
 40
1.599999999999929
 50
270.0
 51
288.7000000000008
  0
LINE
  8
0
  6
CONTINUOUS
 62
     7
 10
114.7040409601819
 20
133.1331273323658
 11
114.7040409601819
 21
147.6331273323658
  0
ARC
  8
0
  6
CONTINUOUS
 62
     7
 10
136.8040409601819
 20
202.0331273323658
 40
2.000000000000002
 50
90.0
 51
180.0
  0
LINE
  8
0
  6
CONTINUOUS
 62
     7
 10
114.7040409601819
 20
130.1331273323658
 11
114.7040409601819
 21
133.1331273323658
  0
LINE
  8
0
  6
CONTINUOUS
 62
     7
 10
163.2040409601819
 20
205.6331273323658
 11
165.098461515674
 21
206.2743533135372
  0
LINE
  8
0
  6
CONTINUOUS
 62
     7
 10
168.4530731338492
 20
205.7206558409006
 11
165.6114423006111
 21
204.7588168691435
  0
LINE
  8
0
  6
CONTINUOUS
 62
     7
 10
111.7040409601819
 20
151.7076005053532
 11
113.0040409601819
 21
151.7076005053532
  0
LINE
  8
0
  6
CONTINUOUS
 62
     7
 10
118.4040409601819
 20
151.7076005053532
 11
119.7040409601819
 21
151.7076005053532
  0
LINE
  8
0
  6
CONTINUOUS
 62
     7
 10
114.7040409601819
 20
130.9669592343996
 11
105.7040409601819
 21
130.9669592343996
  0
LINE
  8
0
  6
CONTINUOUS
 62
     7
 10
125.7040409601819
 20
130.9669592343996
 11
116.7040409601819
 21
130.9669592343996
  0
LINE
  8
0
  6
CONTINUOUS
 62
     7
 10
113.8040409601819
 20
158.2407124691171
 11
113.8040409601819
 21
158.2331273323658
  0
LINE
  8
0
  6
CONTINUOUS
 62
     7
 10
117.6040409601819
 20
159.7284429870843
 11
117.6040409601819
 21
160.872824059939
  0
LINE
  8
0
  6
CONTINUOUS
 62
     7
 10
117.6040409601819
 20
161.045783725476
 11
117.6040409601819
 21
162.6331273323658
  0
LINE
  8
0
  6
CONTINUOUS
 62
     7
 10
113.8040409601819
 20
159.9286994868555
 11
113.8040409601819
 21
158.961858951944
  0
LINE
  8
0
  6
CONTINUOUS
 62
     7
 10
113.8040409601819
 20
162.6331273323658
 11
113.8040409601819
 21
160.4495669064013
  0
LINE
  8
0
  6
CONTINUOUS
 62
     7
 10
117.6040409601819
 20
158.2331273323658
 11
117.6040409601819
 21
159.0071693991704
  0
LINE
  8
0
  6
CONTINUOUS
 62
     7
 10
116.7510622576017
 20
247.2772940465613
 11
116.7964495928799
 21
247.2336951720914
  0
CIRCLE
  8
0
  6
CONTINUOUS
 62
     7
 10
154.2040409601819
 20
245.6791394866279
 40
2.500000000000002
  0
CIRCLE
  8
0
  6
CONTINUOUS
 62
     7
 10
115.7040409601819
 20
245.6791394866279
 40
1.900000000000013
  0
POLYLINE
  8
0
  6
CONTINUOUS
 62
     7
 66
     1
  0
VERTEX
  8
0
  6
CONTINUOUS
 62
     7
 10
115.6911370160224
 20
248.1787631870698
  0
VERTEX
  8
0
  6
CONTINUOUS
 62
     7
 10
115.5511028005934
 20
248.1739615074079
  0
VERTEX
  8
0
  6
CONTINUOUS
 62
     7
 10
115.41153225349
 20
248.1613956214819
  0
VERTEX
  8
0
  6
CONTINUOUS
 62
     7
 10
115.2728670425127
 20
248.1411240292798
  0
VERTEX
  8
0
  6
CONTINUOUS
 62
     7
 10
115.135548835462
 20
248.1132052307901
  0
VERTEX
  8
0
  6
CONTINUOUS
 62
     7
 10
115.0000193001381
 20
248.0776977260007
  0
VERTEX
  8
0
  6
CONTINUOUS
 62
     7
 10
114.8667201043415
 20
248.0346600148998
  0
VERTEX
  8
0
  6
CONTINUOUS
 62
     7
 10
114.7360929158727
 20
247.9841505974758
  0
VERTEX
  8
0
  6
CONTINUOUS
 62
     7
 10
114.6085653963828
 20
247.9262611809389
  0
VERTEX
  8
0
  6
CONTINUOUS
 62
     7
 10
114.4845042681818
 20
247.8612279537719
  0
VERTEX
  8
0
  6
CONTINUOUS
 62
     7
 10
114.3642596841535
 20
247.789326388961
  0
VERTEX
  8
0
  6
CONTINUOUS
 62
     7
 10
114.2481817968461
 20
247.7108319602879
  0
VERTEX
  8
0
  6
CONTINUOUS
 62
     7
 10
114.136620758808
 20
247.6260201415342
  0
VERTEX
  8
0
  6
CONTINUOUS
 62
     7
 10
114.0299267225874
 20
247.5351664064814
  0
VERTEX
  8
0
  6
CONTINUOUS
 62
     7
 10
113.9284498407327
 20
247.4385462289113
  0
VERTEX
  8
0
  6
CONTINUOUS
 62
     7
 10
113.8325402657922
 20
247.3364350826053
  0
VERTEX
  8
0
  6
CONTINUOUS
 62
     7
 10
113.7425481503142
 20
247.2291084413453
  0
VERTEX
  8
0
  6
CONTINUOUS
 62
     7
 10
113.658821154058
 20
247.1168436223405
  0
VERTEX
  8
0
  6
CONTINUOUS
 62
     7
 10
113.5816248101432
 20
246.9999786757926
  0
VERTEX
  8
0
  6
CONTINUOUS
 62
     7
 10
113.51112580691
 20
246.878924748029
  0
VERTEX
  8
0
  6
CONTINUOUS
 62
     7
 10
113.4474849602563
 20
246.7540973280729
  0
VERTEX
  8
0
  6
CONTINUOUS
 62
     7
 10
113.3908630860798
 20
246.6259119049474
  0
VERTEX
  8
0
  6
CONTINUOUS
 62
     7
 10
113.3414210002782
 20
246.4947839676758
  0
VERTEX
  8
0
  6
CONTINUOUS
 62
     7
 10
113.2993195187492
 20
246.3611290052812
  0
VERTEX
  8
0
  6
CONTINUOUS
 62
     7
 10
113.2647194573905
 20
246.225362506787
  0
VERTEX
  8
0
  6
CONTINUOUS
 62
     7
 10
113.2377816320998
 20
246.0878999612162
  0
VERTEX
  8
0
  6
CONTINUOUS
 62
     7
 10
113.218666858775
 20
245.949156857592
  0
VERTEX
  8
0
  6
CONTINUOUS
 62
     7
 10
113.2075087823889
 20
245.8095514615561
  0
VERTEX
  8
0
  6
CONTINUOUS
 62
     7
 10
113.2042877340969
 20
245.6695177060105
  0
VERTEX
  8
0
  6
CONTINUOUS
 62
     7
 10
113.2089303225237
 20
245.5294950138056
  0
VERTEX
  8
0
  6
CONTINUOUS
 62
     7
 10
113.2213630987036
 20
245.3899228136767
  0
VERTEX
  8
0
  6
CONTINUOUS
 62
     7
 10
113.2415126136714
 20
245.2512405343592
  0
VERTEX
  8
0
  6
CONTINUOUS
 62
     7
 10
113.2693054184614
 20
245.1138876045885
  0
VERTEX
  8
0
  6
CONTINUOUS
 62
     7
 10
113.3046680641083
 20
244.9783034531001
  0
VERTEX
  8
0
  6
CONTINUOUS
 62
     7
 10
113.3475271016466
 20
244.8449275086292
  0
VERTEX
  8
0
  6
CONTINUOUS
 62
     7
 10
113.3978090821109
 20
244.7141991999113
  0
VERTEX
  8
0
  6
CONTINUOUS
 62
     7
 10
113.4554391157223
 20
244.5865572895383
  0
VERTEX
  8
0
  6
CONTINUOUS
 62
     7
 10
113.5202617350497
 20
244.4624032859584
  0
VERTEX
  8
0
  6
CONTINUOUS
 62
     7
 10
113.5919998410989
 20
244.3420824626751
  0
VERTEX
  8
0
  6
CONTINUOUS
 62
     7
 10
113.6703662443248
 20
244.225935427943
  0
VERTEX
  8
0
  6
CONTINUOUS
 62
     7
 10
113.7550737551827
 20
244.1143027900168
  0
VERTEX
  8
0
  6
CONTINUOUS
 62
     7
 10
113.8458351841275
 20
244.0075251571509
  0
VERTEX
  8
0
  6
CONTINUOUS
 62
     7
 10
113.9423633416141
 20
243.9059431375999
  0
VERTEX
  8
0
  6
CONTINUOUS
 62
     7
 10
114.0443710380978
 20
243.8098973396183
  0
VERTEX
  8
0
  6
CONTINUOUS
 62
     7
 10
114.1515710840334
 20
243.7197283714607
  0
VERTEX
  8
0
  6
CONTINUOUS
 62
     7
 10
114.2636762898762
 20
243.6357768413816
  0
VERTEX
  8
0
  6
CONTINUOUS
 62
     7
 10
114.38038805655
 20
243.55836678241
  0
VERTEX
  8
0
  6
CONTINUOUS
 62
     7
 10
114.5013235569403
 20
243.4876998650761
  0
VERTEX
  8
0
  6
CONTINUOUS
 62
     7
 10
114.626062250024
 20
243.4239229709323
  0
VERTEX
  8
0
  6
CONTINUOUS
 62
     7
 10
114.7541834176808
 20
243.3671827242532
  0
VERTEX
  8
0
  6
CONTINUOUS
 62
     7
 10
114.885266341791
 20
243.3176257493137
  0
VERTEX
  8
0
  6
CONTINUOUS
 62
     7
 10
115.0188903042343
 20
243.2753986703883
  0
VERTEX
  8
0
  6
CONTINUOUS
 62
     7
 10
115.1546345868907
 20
243.2406481117516
  0
VERTEX
  8
0
  6
CONTINUOUS
 62
     7
 10
115.2920784716403
 20
243.2135206976783
  0
VERTEX
  8
0
  6
CONTINUOUS
 62
     7
 10
115.4308012403628
 20
243.1941630524431
  0
VERTEX
  8
0
  6
CONTINUOUS
 62
     7
 10
115.5703821296787
 20
243.1827211322527
  0
VERTEX
  8
0
  6
CONTINUOUS
 62
     7
 10
115.7103952834523
 20
243.1792657203094
  0
VERTEX
  8
0
  6
CONTINUOUS
 62
     7
 10
115.8504051545793
 20
243.1837245536373
  0
VERTEX
  8
0
  6
CONTINUOUS
 62
     7
 10
115.9899751099278
 20
243.1960093386596
  0
VERTEX
  8
0
  6
CONTINUOUS
 62
     7
 10
116.128668516366
 20
243.2160317817996
  0
VERTEX
  8
0
  6
CONTINUOUS
 62
     7
 10
116.2660487407621
 20
243.2437035894803
  0
VERTEX
  8
0
  6
CONTINUOUS
 62
     7
 10
116.4016791499843
 20
243.2789364681248
  0
VERTEX
  8
0
  6
CONTINUOUS
 62
     7
 10
116.5351231109009
 20
243.3216421241565
  0
VERTEX
  8
0
  6
CONTINUOUS
 62
     7
 10
116.6659439903801
 20
243.3717322639983
  0
VERTEX
  8
0
  6
CONTINUOUS
 62
     7
 10
116.79370515529
 20
243.4291185940735
  0
VERTEX
  8
0
  6
CONTINUOUS
 62
     7
 10
116.9179764037546
 20
243.4937000308761
  0
VERTEX
  8
0
  6
CONTINUOUS
 62
     7
 10
117.0383906596544
 20
243.5652499518174
  0
VERTEX
  8
0
  6
CONTINUOUS
 62
     7
 10
117.1546166519044
 20
243.6434705283319
  0
VERTEX
  8
0
  6
CONTINUOUS
 62
     7
 10
117.2663235194962
 20
243.728063116328
  0
VERTEX
  8
0
  6
CONTINUOUS
 62
     7
 10
117.3731804014216
 20
243.8187290717143
  0
VERTEX
  8
0
  6
CONTINUOUS
 62
     7
 10
117.4748564366725
 20
243.9151697503993
  0
VERTEX
  8
0
  6
CONTINUOUS
 62
     7
 10
117.5710207642405
 20
244.0170865082916
  0
VERTEX
  8
0
  6
CONTINUOUS
 62
     7
 10
117.6613425231176
 20
244.1241807012997
  0
VERTEX
  8
0
  6
CONTINUOUS
 62
     7
 10
117.7454908522954
 20
244.2361536853323
  0
VERTEX
  8
0
  6
CONTINUOUS
 62
     7
 10
117.8231350586943
 20
244.3527067096132
  0
VERTEX
  8
0
  6
CONTINUOUS
 62
     7
 10
117.8939971987814
 20
244.4735075117387
  0
VERTEX
  8
0
  6
CONTINUOUS
 62
     7
 10
117.9579268246902
 20
244.5981428316928
  0
VERTEX
  8
0
  6
CONTINUOUS
 62
     7
 10
118.0147923691159
 20
244.7261874146955
  0
VERTEX
  8
0
  6
CONTINUOUS
 62
     7
 10
118.0644622647535
 20
244.857216005967
  0
VERTEX
  8
0
  6
CONTINUOUS
 62
     7
 10
118.1068049442984
 20
244.9908033507275
  0
VERTEX
  8
0
  6
CONTINUOUS
 62
     7
 10
118.1416888404457
 20
245.1265241941969
  0
VERTEX
  8
0
  6
CONTINUOUS
 62
     7
 10
118.1689823858904
 20
245.2639532815955
  0
VERTEX
  8
0
  6
CONTINUOUS
 62
     7
 10
118.1885540133279
 20
245.4026653581434
  0
VERTEX
  8
0
  6
CONTINUOUS
 62
     7
 10
118.2002721554532
 20
245.5422351690607
  0
VERTEX
  8
0
  6
CONTINUOUS
 62
     7
 10
118.2040148524055
 20
245.682237103984
  0
VERTEX
  8
0
  6
CONTINUOUS
 62
     7
 10
118.1997887358396
 20
245.822240793218
  0
VERTEX
  8
0
  6
CONTINUOUS
 62
     7
 10
118.1876922031797
 20
245.9618124707022
  0
VERTEX
  8
0
  6
CONTINUOUS
 62
     7
 10
118.1678256303014
 20
246.100518297151
  0
VERTEX
  8
0
  6
CONTINUOUS
 62
     7
 10
118.1402893930804
 20
246.2379244332789
  0
VERTEX
  8
0
  6
CONTINUOUS
 62
     7
 10
118.1051838673923
 20
246.3735970398002
  0
VERTEX
  8
0
  6
CONTINUOUS
 62
     7
 10
118.062609429113
 20
246.5071022774295
  0
VERTEX
  8
0
  6
CONTINUOUS
 62
     7
 10
118.012666454118
 20
246.6380063068811
  0
VERTEX
  8
0
  6
CONTINUOUS
 62
     7
 10
117.955455318283
 20
246.7658752888696
  0
VERTEX
  8
0
  6
CONTINUOUS
 62
     7
 10
117.8910764206539
 20
246.8902753961303
  0
VERTEX
  8
0
  6
CONTINUOUS
 62
     7
 10
117.8196770032798
 20
247.0107971043119
  0
VERTEX
  8
0
  6
CONTINUOUS
 62
     7
 10
117.7415494122362
 20
247.127106171395
  0
VERTEX
  8
0
  6
CONTINUOUS
 62
     7
 10
117.6570140051713
 20
247.2388828882202
  0
VERTEX
  8
0
  6
CONTINUOUS
 62
     7
 10
117.5663911397331
 20
247.3458075456281
  0
VERTEX
  8
0
  6
CONTINUOUS
 62
     7
 10
117.4700011735697
 20
247.4475604344595
  0
VERTEX
  8
0
  6
CONTINUOUS
 62
     7
 10
117.3681644643291
 20
247.543821845555
  0
VERTEX
  8
0
  6
CONTINUOUS
 62
     7
 10
117.2612013696594
 20
247.6342720697553
  0
VERTEX
  8
0
  6
CONTINUOUS
 62
     7
 10
117.1494322472089
 20
247.7185913979011
  0
VERTEX
  8
0
  6
CONTINUOUS
 62
     7
 10
117.0331774546254
 20
247.7964601208329
  0
VERTEX
  8
0
  6
CONTINUOUS
 62
     7
 10
116.9127591254634
 20
247.8675638898164
  0
VERTEX
  8
0
  6
CONTINUOUS
 62
     7
 10
116.7885330522711
 20
247.9316899529796
  0
VERTEX
  8
0
  6
CONTINUOUS
 62
     7
 10
116.6608851204576
 20
247.9887163912383
  0
VERTEX
  8
0
  6
CONTINUOUS
 62
     7
 10
116.5302022753063
 20
248.038524484651
  0
VERTEX
  8
0
  6
CONTINUOUS
 62
     7
 10
116.3968714621008
 20
248.080995513276
  0
VERTEX
  8
0
  6
CONTINUOUS
 62
     7
 10
116.2612796261246
 20
248.1160107571716
  0
VERTEX
  8
0
  6
CONTINUOUS
 62
     7
 10
116.1238137126611
 20
248.1434514963963
  0
VERTEX
  8
0
  6
CONTINUOUS
 62
     7
 10
115.9848606669938
 20
248.1631990110083
  0
VERTEX
  8
0
  6
CONTINUOUS
 62
     7
 10
115.8448074344062
 20
248.1751345810661
  0
VERTEX
  8
0
  6
CONTINUOUS
 62
     7
 10
115.7040409601819
 20
248.1791394866279
  0
SEQEND
  8
0
  6
CONTINUOUS
 62
     7
  0
LINE
  8
0
  6
CONTINUOUS
 62
     7
 10
116.7148521560631
 20
247.2879467237701
 11
116.7510622576017
 21
247.2772940465613
  0
LINE
  8
0
  6
CONTINUOUS
 62
     7
 10
125.7040409601819
 20
152.0509525501802
 11
119.7040409601819
 21
152.0509525501802
  0
LINE
  8
0
  6
CONTINUOUS
 62
     7
 10
163.2040409601819
 20
267.1791394866279
 11
163.2040409601819
 21
224.1791394866279
  0
LINE
  8
0
  6
CONTINUOUS
 62
     7
 10
168.4530731338492
 20
227.1791394866279
 11
168.4530731338492
 21
264.1791394866279
  0
LINE
  8
0
  6
CONTINUOUS
 62
     7
 10
168.4530731338492
 20
227.1791394866279
 11
165.6114423006111
 21
224.1791394866279
  0
LINE
  8
0
  6
CONTINUOUS
 62
     7
 10
165.6114423006111
 20
267.1791394866279
 11
168.4530731338492
 21
264.1791394866279
  0
LINE
  8
0
  6
CONTINUOUS
 62
     7
 10
111.7040409601819
 20
152.0509525501802
 11
105.7040409601819
 21
152.0509525501802
  0
LINE
  8
0
  6
CONTINUOUS
 62
     7
 10
98.20404096018193
 20
262.1791394866279
 11
98.20404096018193
 21
229.1791394866279
  0
LINE
  8
0
  6
CONTINUOUS
 62
     7
 10
98.20404096018193
 20
229.1791394866279
 11
103.2040409601819
 21
224.1791394866279
  0
LINE
  8
0
  6
CONTINUOUS
 62
     7
 10
103.2040409601819
 20
267.1791394866279
 11
98.20404096018193
 21
262.1791394866279
  0
CIRCLE
  8
0
  6
CONTINUOUS
 62
     7
 10
115.7040409601819
 20
245.6791394866279
 40
3.312511336474061
  0
LINE
  8
0
  6
CENTER
 62
     1
 10
115.7040409601819
 20
240.3666281501538
 11
115.7040409601819
 21
250.9916508231019
  0
LINE
  8
0
  6
CENTER
 62
     1
 10
95.0383118877596
 20
245.6791394866279
 11
171.0373584497562
 21
245.6791394866279
  0
LINE
  8
0
  6
CENTER
 62
     1
 10
154.2040409601819
 20
241.1791394866279
 11
154.2040409601819
 21
250.1791394866279
  0
LINE
  8
0
  6
CENTER
 62
     1
 10
115.704040960182
 20
96.66844983595426
 11
115.704040960182
 21
165.1571365131868
  0
LINE
  8
0
  6
CENTER
 62
     1
 10
60.55805271654356
 20
140.8037409063496
 11
60.55805271654356
 21
210.2361922852942
  0
ENDSEC
  0
EOF
